  0
SECTION
  2
HEADER
  9
$ACADVER
  1
AC1024
  9
$ACADMAINTVER
 70
   226
  9
$DWGCODEPAGE
  3
ANSI_932
  9
$INSBASE
 10
0.0
 20
0.0
 30
0.0
  9
$EXTMIN
 10
1.000000000000000E+20
 20
1.000000000000000E+20
 30
1.000000000000000E+20
  9
$EXTMAX
 10
-1.000000000000000E+20
 20
-1.000000000000000E+20
 30
-1.000000000000000E+20
  9
$LIMMIN
 10
0.0
 20
0.0
  9
$LIMMAX
 10
12.0
 20
9.0
  9
$ORTHOMODE
 70
     0
  9
$REGENMODE
 70
     1
  9
$FILLMODE
 70
     1
  9
$QTEXTMODE
 70
     0
  9
$MIRRTEXT
 70
     0
  9
$LTSCALE
 40
1.0
  9
$ATTMODE
 70
     1
  9
$TEXTSIZE
 40
0.2
  9
$TRACEWID
 40
0.05
  9
$TEXTSTYLE
  7
Standard
  9
$CLAYER
  8
0
  9
$CELTYPE
  6
ByLayer
  9
$CECOLOR
 62
   256
  9
$CELTSCALE
 40
1.0
  9
$DISPSILH
 70
     0
  9
$DIMSCALE
 40
1.0
  9
$DIMASZ
 40
0.18
  9
$DIMEXO
 40
0.0625
  9
$DIMDLI
 40
0.38
  9
$DIMRND
 40
0.0
  9
$DIMDLE
 40
0.0
  9
$DIMEXE
 40
0.18
  9
$DIMTP
 40
0.0
  9
$DIMTM
 40
0.0
  9
$DIMTXT
 40
0.18
  9
$DIMCEN
 40
0.09
  9
$DIMTSZ
 40
0.0
  9
$DIMTOL
 70
     0
  9
$DIMLIM
 70
     0
  9
$DIMTIH
 70
     1
  9
$DIMTOH
 70
     1
  9
$DIMSE1
 70
     0
  9
$DIMSE2
 70
     0
  9
$DIMTAD
 70
     0
  9
$DIMZIN
 70
     0
  9
$DIMBLK
  1

  9
$DIMASO
 70
     1
  9
$DIMSHO
 70
     1
  9
$DIMPOST
  1

  9
$DIMAPOST
  1

  9
$DIMALT
 70
     0
  9
$DIMALTD
 70
     2
  9
$DIMALTF
 40
25.4
  9
$DIMLFAC
 40
1.0
  9
$DIMTOFL
 70
     0
  9
$DIMTVP
 40
0.0
  9
$DIMTIX
 70
     0
  9
$DIMSOXD
 70
     0
  9
$DIMSAH
 70
     0
  9
$DIMBLK1
  1

  9
$DIMBLK2
  1

  9
$DIMSTYLE
  2
Standard
  9
$DIMCLRD
 70
     0
  9
$DIMCLRE
 70
     0
  9
$DIMCLRT
 70
     0
  9
$DIMTFAC
 40
1.0
  9
$DIMGAP
 40
0.09
  9
$DIMJUST
 70
     0
  9
$DIMSD1
 70
     0
  9
$DIMSD2
 70
     0
  9
$DIMTOLJ
 70
     1
  9
$DIMTZIN
 70
     0
  9
$DIMALTZ
 70
     0
  9
$DIMALTTZ
 70
     0
  9
$DIMUPT
 70
     0
  9
$DIMDEC
 70
     4
  9
$DIMTDEC
 70
     4
  9
$DIMALTU
 70
     2
  9
$DIMALTTD
 70
     2
  9
$DIMTXSTY
  7
Standard
  9
$DIMAUNIT
 70
     0
  9
$DIMADEC
 70
     0
  9
$DIMALTRND
 40
0.0
  9
$DIMAZIN
 70
     0
  9
$DIMDSEP
 70
    46
  9
$DIMATFIT
 70
     3
  9
$DIMFRAC
 70
     0
  9
$DIMLDRBLK
  1

  9
$DIMLUNIT
 70
     2
  9
$DIMLWD
 70
    -2
  9
$DIMLWE
 70
    -2
  9
$DIMTMOVE
 70
     0
  9
$DIMFXL
 40
1.0
  9
$DIMFXLON
 70
     0
  9
$DIMJOGANG
 40
0.7853981633974483
  9
$DIMTFILL
 70
     0
  9
$DIMTFILLCLR
 70
     0
  9
$DIMARCSYM
 70
     0
  9
$DIMLTYPE
  6

  9
$DIMLTEX1
  6

  9
$DIMLTEX2
  6

  9
$DIMTXTDIRECTION
 70
     0
  9
$LUNITS
 70
     2
  9
$LUPREC
 70
     4
  9
$SKETCHINC
 40
0.1
  9
$FILLETRAD
 40
0.0
  9
$AUNITS
 70
     0
  9
$AUPREC
 70
     0
  9
$MENU
  1
.
  9
$ELEVATION
 40
0.0
  9
$PELEVATION
 40
0.0
  9
$THICKNESS
 40
0.0
  9
$LIMCHECK
 70
     0
  9
$CHAMFERA
 40
0.0
  9
$CHAMFERB
 40
0.0
  9
$CHAMFERC
 40
0.0
  9
$CHAMFERD
 40
0.0
  9
$SKPOLY
 70
     0
  9
$TDCREATE
 40
2460039.382048611
  9
$TDUCREATE
 40
2460039.007048611
  9
$TDUPDATE
 40
2460039.382048611
  9
$TDUUPDATE
 40
2460039.007048611
  9
$TDINDWG
 40
0.0000000000
  9
$TDUSRTIMER
 40
0.0000000000
  9
$USRTIMER
 70
     1
  9
$ANGBASE
 50
0.0
  9
$ANGDIR
 70
     0
  9
$PDMODE
 70
     0
  9
$PDSIZE
 40
0.0
  9
$PLINEWID
 40
0.0
  9
$SPLFRAME
 70
     0
  9
$SPLINETYPE
 70
     6
  9
$SPLINESEGS
 70
     8
  9
$HANDSEED
  5
145
  9
$SURFTAB1
 70
     6
  9
$SURFTAB2
 70
     6
  9
$SURFTYPE
 70
     6
  9
$SURFU
 70
     6
  9
$SURFV
 70
     6
  9
$UCSBASE
  2

  9
$UCSNAME
  2

  9
$UCSORG
 10
0.0
 20
0.0
 30
0.0
  9
$UCSXDIR
 10
1.0
 20
0.0
 30
0.0
  9
$UCSYDIR
 10
0.0
 20
1.0
 30
0.0
  9
$UCSORTHOREF
  2

  9
$UCSORTHOVIEW
 70
     0
  9
$UCSORGTOP
 10
0.0
 20
0.0
 30
0.0
  9
$UCSORGBOTTOM
 10
0.0
 20
0.0
 30
0.0
  9
$UCSORGLEFT
 10
0.0
 20
0.0
 30
0.0
  9
$UCSORGRIGHT
 10
0.0
 20
0.0
 30
0.0
  9
$UCSORGFRONT
 10
0.0
 20
0.0
 30
0.0
  9
$UCSORGBACK
 10
0.0
 20
0.0
 30
0.0
  9
$PUCSBASE
  2

  9
$PUCSNAME
  2

  9
$PUCSORG
 10
0.0
 20
0.0
 30
0.0
  9
$PUCSXDIR
 10
1.0
 20
0.0
 30
0.0
  9
$PUCSYDIR
 10
0.0
 20
1.0
 30
0.0
  9
$PUCSORTHOREF
  2

  9
$PUCSORTHOVIEW
 70
     0
  9
$PUCSORGTOP
 10
0.0
 20
0.0
 30
0.0
  9
$PUCSORGBOTTOM
 10
0.0
 20
0.0
 30
0.0
  9
$PUCSORGLEFT
 10
0.0
 20
0.0
 30
0.0
  9
$PUCSORGRIGHT
 10
0.0
 20
0.0
 30
0.0
  9
$PUCSORGFRONT
 10
0.0
 20
0.0
 30
0.0
  9
$PUCSORGBACK
 10
0.0
 20
0.0
 30
0.0
  9
$USERI1
 70
     0
  9
$USERI2
 70
     0
  9
$USERI3
 70
     0
  9
$USERI4
 70
     0
  9
$USERI5
 70
     0
  9
$USERR1
 40
0.0
  9
$USERR2
 40
0.0
  9
$USERR3
 40
0.0
  9
$USERR4
 40
0.0
  9
$USERR5
 40
0.0
  9
$WORLDVIEW
 70
     1
  9
$SHADEDGE
 70
     3
  9
$SHADEDIF
 70
    70
  9
$TILEMODE
 70
     1
  9
$MAXACTVP
 70
    64
  9
$PINSBASE
 10
0.0
 20
0.0
 30
0.0
  9
$PLIMCHECK
 70
     0
  9
$PEXTMIN
 10
1.000000000000000E+20
 20
1.000000000000000E+20
 30
1.000000000000000E+20
  9
$PEXTMAX
 10
-1.000000000000000E+20
 20
-1.000000000000000E+20
 30
-1.000000000000000E+20
  9
$PLIMMIN
 10
0.0
 20
0.0
  9
$PLIMMAX
 10
12.0
 20
9.0
  9
$UNITMODE
 70
     0
  9
$VISRETAIN
 70
     1
  9
$PLINEGEN
 70
     0
  9
$PSLTSCALE
 70
     1
  9
$TREEDEPTH
 70
  3020
  9
$CMLSTYLE
  2
Standard
  9
$CMLJUST
 70
     0
  9
$CMLSCALE
 40
1.0
  9
$PROXYGRAPHICS
 70
     1
  9
$MEASUREMENT
 70
     0
  9
$CELWEIGHT
370
    -1
  9
$ENDCAPS
280
     0
  9
$JOINSTYLE
280
     0
  9
$LWDISPLAY
290
     1
  9
$INSUNITS
 70
     4
  9
$HYPERLINKBASE
  1

  9
$STYLESHEET
  1

  9
$XEDIT
290
     1
  9
$CEPSNTYPE
380
     0
  9
$PSTYLEMODE
290
     1
  9
$FINGERPRINTGUID
  2
{32054E85-0AC5-854D-AE77-B36FFFE33F35}
  9
$VERSIONGUID
  2
{18E5FCD3-750C-DC4F-943E-EBC5EA594C00}
  9
$EXTNAMES
290
     1
  9
$PSVPSCALE
 40
0.0
  9
$OLESTARTUP
290
     0
  9
$SORTENTS
280
   127
  9
$INDEXCTL
280
     0
  9
$HIDETEXT
280
     1
  9
$XCLIPFRAME
280
     2
  9
$HALOGAP
280
     0
  9
$OBSCOLOR
 70
   257
  9
$OBSLTYPE
280
     0
  9
$INTERSECTIONDISPLAY
280
     0
  9
$INTERSECTIONCOLOR
 70
   257
  9
$DIMASSOC
280
     2
  9
$PROJECTNAME
  1

  9
$CAMERADISPLAY
290
     0
  9
$LENSLENGTH
 40
50.0
  9
$CAMERAHEIGHT
 40
0.0
  9
$STEPSPERSEC
 40
2.0
  9
$STEPSIZE
 40
6.0
  9
$3DDWFPREC
 40
2.0
  9
$PSOLWIDTH
 40
0.25
  9
$PSOLHEIGHT
 40
4.0
  9
$LOFTANG1
 40
1.570796326794896
  9
$LOFTANG2
 40
1.570796326794896
  9
$LOFTMAG1
 40
0.0
  9
$LOFTMAG2
 40
0.0
  9
$LOFTPARAM
 70
     7
  9
$LOFTNORMALS
280
     1
  9
$LATITUDE
 40
37.795
  9
$LONGITUDE
 40
-122.394
  9
$NORTHDIRECTION
 40
0.0
  9
$TIMEZONE
 70
 -8000
  9
$LIGHTGLYPHDISPLAY
280
     1
  9
$TILEMODELIGHTSYNCH
280
     1
  9
$CMATERIAL
347
11
  9
$SOLIDHIST
280
     0
  9
$SHOWHIST
280
     1
  9
$DWFFRAME
280
     2
  9
$DGNFRAME
280
     0
  9
$REALWORLDSCALE
290
     1
  9
$INTERFERECOLOR
 62
     1
  9
$INTERFEREOBJVS
345
33
  9
$INTERFEREVPVS
346
30
  9
$CSHADOW
280
     0
  9
$SHADOWPLANELOCATION
 40
0.0
  0
ENDSEC
  0
SECTION
  2
CLASSES
  0
CLASS
  1
ACDBDICTIONARYWDFLT
  2
AcDbDictionaryWithDefault
  3
ObjectDBX Classes
 90
        0
 91
        1
280
     0
281
     0
  0
CLASS
  1
MATERIAL
  2
AcDbMaterial
  3
ObjectDBX Classes
 90
     1153
 91
        3
280
     0
281
     0
  0
CLASS
  1
VISUALSTYLE
  2
AcDbVisualStyle
  3
ObjectDBX Classes
 90
     4095
 91
       24
280
     0
281
     0
  0
CLASS
  1
SCALE
  2
AcDbScale
  3
ObjectDBX Classes
 90
     1153
 91
       17
280
     0
281
     0
  0
CLASS
  1
TABLESTYLE
  2
AcDbTableStyle
  3
ObjectDBX Classes
 90
     4095
 91
        1
280
     0
281
     0
  0
CLASS
  1
MLEADERSTYLE
  2
AcDbMLeaderStyle
  3
ACDB_MLEADERSTYLE_CLASS
 90
     4095
 91
        1
280
     0
281
     0
  0
CLASS
  1
ACDBSECTIONVIEWSTYLE
  2
AcDbSectionViewStyle
  3
ObjectDBX Classes
 90
     1025
 91
        1
280
     0
281
     0
  0
CLASS
  1
ACDBDETAILVIEWSTYLE
  2
AcDbDetailViewStyle
  3
ObjectDBX Classes
 90
     1025
 91
        1
280
     0
281
     0
  0
CLASS
  1
DICTIONARYVAR
  2
AcDbDictionaryVar
  3
ObjectDBX Classes
 90
        0
 91
        5
280
     0
281
     0
  0
CLASS
  1
CELLSTYLEMAP
  2
AcDbCellStyleMap
  3
ObjectDBX Classes
 90
     1152
 91
        1
280
     0
281
     0
  0
ENDSEC
  0
SECTION
  2
TABLES
  0
TABLE
  2
VPORT
  5
8
330
0
100
AcDbSymbolTable
 70
     1
  0
VPORT
  5
57
330
8
100
AcDbSymbolTableRecord
100
AcDbViewportTableRecord
  2
*Active
 70
     0
 10
0.0
 20
0.0
 11
1.0
 21
1.0
 12
0.0
 22
0.0
 13
0.0
 23
0.0
 14
1.0
 24
1.0
 15
0.0
 25
0.0
 16
0.0
 26
0.0
 36
1.0
 17
210.000144736454
 27
148.5000011496697
 37
0.0
 40
302.940178045196
 41
1.414141557672329
 42
50.0
 43
0.0
 44
0.0
 50
0.0
 51
0.0
 71
     0
 72
   100
 73
     1
 74
     1
 75
     0
 76
     0
 77
     0
 78
     0
281
     0
 65
     1
110
0.0
120
0.0
130
0.0
111
1.0
121
0.0
131
0.0
112
0.0
122
1.0
132
0.0
 79
     0
146
0.0
 60
     3
 61
     5
292
     1
282
     1
141
0.0
142
0.0
 63
   250
421
  3355443
  0
ENDTAB
  0
TABLE
  2
LTYPE
  5
5
330
0
100
AcDbSymbolTable
 70
    10
  0
LTYPE
  5
5B
330
5
100
AcDbSymbolTableRecord
100
AcDbLinetypeTableRecord
  2
ByBlock
 70
     0
  3

 72
    65
 73
     0
 40
0.0
  0
LTYPE
  5
5C
330
5
100
AcDbSymbolTableRecord
100
AcDbLinetypeTableRecord
  2
ByLayer
 70
     0
  3

 72
    65
 73
     0
 40
0.0
  0
LTYPE
  5
5D
330
5
100
AcDbSymbolTableRecord
100
AcDbLinetypeTableRecord
  2
Continuous
 70
     0
  3
Solid line
 72
    65
 73
     0
 40
0.0
  0
LTYPE
  5
84
330
5
100
AcDbSymbolTableRecord
100
AcDbLinetypeTableRecord
  2
AI-Linetype-0
 70
     0
  3
Adobe Illustrator Linetype No. 0
 72
    65
 73
     2
 40
1.403349973407224
 49
0.7016749867036122
 74
     0
 49
-0.7016749867036122
 74
     0
  0
LTYPE
  5
86
330
5
100
AcDbSymbolTableRecord
100
AcDbLinetypeTableRecord
  2
AI-Linetype-1
 70
     0
  3
Adobe Illustrator Linetype No. 1
 72
    65
 73
     4
 40
7.367763925736984
 49
5.262738965626149
 74
     0
 49
-0.7016749867036122
 74
     0
 49
0.7016749867036122
 74
     0
 49
-0.7016749867036122
 74
     0
  0
LTYPE
  5
8D
330
5
100
AcDbSymbolTableRecord
100
AcDbLinetypeTableRecord
  2
AI-Linetype-2
 70
     0
  3
Adobe Illustrator Linetype No. 2
 72
    65
 73
     4
 40
7.408333331481251
 49
5.29166666534375
 74
     0
 49
-0.7055555553791667
 74
     0
 49
0.7055555553791667
 74
     0
 49
-0.7055555553791667
 74
     0
  0
LTYPE
  5
91
330
5
100
AcDbSymbolTableRecord
100
AcDbLinetypeTableRecord
  2
AI-Linetype-3
 70
     0
  3
Adobe Illustrator Linetype No. 3
 72
    65
 73
     2
 40
1.40970001781507
 49
0.7048500089075354
 74
     0
 49
-0.7048500089075354
 74
     0
  0
LTYPE
  5
93
330
5
100
AcDbSymbolTableRecord
100
AcDbLinetypeTableRecord
  2
AI-Linetype-4
 70
     0
  3
Adobe Illustrator Linetype No. 4
 72
    65
 73
     4
 40
2.819400035630141
 49
0.7048500089075354
 74
     0
 49
-0.7048500089075354
 74
     0
 49
0.7048500089075354
 74
     0
 49
-0.7048500089075354
 74
     0
  0
LTYPE
  5
9C
330
5
100
AcDbSymbolTableRecord
100
AcDbLinetypeTableRecord
  2
AI-Linetype-5
 70
     0
  3
Adobe Illustrator Linetype No. 5
 72
    65
 73
     2
 40
1.40970001781507
 49
0.7048500089075354
 74
     0
 49
-0.7048500089075354
 74
     0
  0
LTYPE
  5
9E
330
5
100
AcDbSymbolTableRecord
100
AcDbLinetypeTableRecord
  2
AI-Linetype-6
 70
     0
  3
Adobe Illustrator Linetype No. 6
 72
    65
 73
     4
 40
2.819400035630141
 49
0.7048500089075354
 74
     0
 49
-0.7048500089075354
 74
     0
 49
0.7048500089075354
 74
     0
 49
-0.7048500089075354
 74
     0
  0
LTYPE
  5
AD
330
5
100
AcDbSymbolTableRecord
100
AcDbLinetypeTableRecord
  2
AI-Linetype-7
 70
     0
  3
Adobe Illustrator Linetype No. 7
 72
    65
 73
     2
 40
1.411111110758333
 49
0.7055555553791667
 74
     0
 49
-0.7055555553791667
 74
     0
  0
LTYPE
  5
B0
330
5
100
AcDbSymbolTableRecord
100
AcDbLinetypeTableRecord
  2
AI-Linetype-8
 70
     0
  3
Adobe Illustrator Linetype No. 8
 72
    65
 73
     2
 40
1.411111110758333
 49
0.7055555553791667
 74
     0
 49
-0.7055555553791667
 74
     0
  0
ENDTAB
  0
TABLE
  2
LAYER
  5
2
330
0
100
AcDbSymbolTable
 70
     2
  0
LAYER
  5
54
330
2
100
AcDbSymbolTableRecord
100
AcDbLayerTableRecord
  2
0
 70
     0
 62
     7
  6
Continuous
370
    -3
390
F
347
21
  0
LAYER
  5
78
330
2
100
AcDbSymbolTableRecord
100
AcDbLayerTableRecord
  2
レイヤー 1
 70
     0
 62
     7
  6
Continuous
370
     0
390
F
347
21
  0
ENDTAB
  0
TABLE
  2
STYLE
  5
3
330
0
100
AcDbSymbolTable
 70
     2
  0
STYLE
  5
55
330
3
100
AcDbSymbolTableRecord
100
AcDbTextStyleTableRecord
  2
Standard
 70
     0
 40
0.0
 41
1.0
 50
0.0
 71
     0
 42
0.2
  3
txt
  4

  0
STYLE
  5
5A
330
3
100
AcDbSymbolTableRecord
100
AcDbTextStyleTableRecord
  2
Annotative
 70
     0
 40
0.0
 41
1.0
 50
0.0
 71
     0
 42
0.2
  3
txt
  4

1001
AcadAnnotative
1000
AnnotativeData
1002
{
1070
     1
1070
     1
1002
}
  0
ENDTAB
  0
TABLE
  2
VIEW
  5
6
330
0
100
AcDbSymbolTable
 70
     0
  0
ENDTAB
  0
TABLE
  2
UCS
  5
7
330
0
100
AcDbSymbolTable
 70
     0
  0
ENDTAB
  0
TABLE
  2
APPID
  5
9
330
0
100
AcDbSymbolTable
 70
     2
  0
APPID
  5
56
330
9
100
AcDbSymbolTableRecord
100
AcDbRegAppTableRecord
  2
ACAD
 70
     0
  0
APPID
  5
5E
330
9
100
AcDbSymbolTableRecord
100
AcDbRegAppTableRecord
  2
AcadAnnotative
 70
     0
  0
ENDTAB
  0
TABLE
  2
DIMSTYLE
  5
A
330
0
100
AcDbSymbolTable
 70
     2
100
AcDbDimStyleTable
 71
     0
  0
DIMSTYLE
105
58
330
A
100
AcDbSymbolTableRecord
100
AcDbDimStyleTableRecord
  2
Standard
 70
     0
340
55
  0
DIMSTYLE
105
59
330
A
100
AcDbSymbolTableRecord
100
AcDbDimStyleTableRecord
  2
Annotative
 70
     0
340
55
1001
AcadAnnotative
1000
AnnotativeData
1002
{
1070
     1
1070
     1
1002
}
  0
ENDTAB
  0
TABLE
  2
BLOCK_RECORD
  5
1
330
0
100
AcDbSymbolTable
 70
    11
  0
BLOCK_RECORD
  5
70
330
1
100
AcDbSymbolTableRecord
100
AcDbBlockTableRecord
  2
*Model_Space
340
73
 70
     0
280
     1
281
     0
  0
BLOCK_RECORD
  5
6C
330
1
100
AcDbSymbolTableRecord
100
AcDbBlockTableRecord
  2
*Paper_Space
340
6F
 70
     0
280
     1
281
     0
  0
BLOCK_RECORD
  5
74
330
1
100
AcDbSymbolTableRecord
100
AcDbBlockTableRecord
  2
*Paper_Space0
340
77
 70
     0
280
     1
281
     0
  0
BLOCK_RECORD
  5
79
330
1
100
AcDbSymbolTableRecord
100
AcDbBlockTableRecord
  2
Block_0
340
0
102
{BLKREFS
331
7A
102
}
 70
     0
280
     1
281
     0
  0
BLOCK_RECORD
  5
87
330
1
100
AcDbSymbolTableRecord
100
AcDbBlockTableRecord
  2
Block_1
340
0
102
{BLKREFS
331
88
102
}
 70
     0
280
     1
281
     0
  0
BLOCK_RECORD
  5
94
330
1
100
AcDbSymbolTableRecord
100
AcDbBlockTableRecord
  2
Block_2
340
0
102
{BLKREFS
331
95
102
}
 70
     0
280
     1
281
     0
  0
BLOCK_RECORD
  5
9F
330
1
100
AcDbSymbolTableRecord
100
AcDbBlockTableRecord
  2
Block_3
340
0
102
{BLKREFS
331
A0
102
}
 70
     0
280
     1
281
     0
  0
BLOCK_RECORD
  5
A8
330
1
100
AcDbSymbolTableRecord
100
AcDbBlockTableRecord
  2
Block_4
340
0
102
{BLKREFS
331
A9
102
}
 70
     0
280
     1
281
     0
  0
BLOCK_RECORD
  5
BC
330
1
100
AcDbSymbolTableRecord
100
AcDbBlockTableRecord
  2
Block_5
340
0
102
{BLKREFS
331
BD
102
}
 70
     0
280
     1
281
     0
  0
BLOCK_RECORD
  5
CD
330
1
100
AcDbSymbolTableRecord
100
AcDbBlockTableRecord
  2
Block_6
340
0
102
{BLKREFS
331
CE
102
}
 70
     0
280
     1
281
     0
  0
BLOCK_RECORD
  5
DF
330
1
100
AcDbSymbolTableRecord
100
AcDbBlockTableRecord
  2
Block_7
340
0
102
{BLKREFS
331
E0
102
}
 70
     0
280
     1
281
     0
  0
BLOCK_RECORD
  5
F1
330
1
100
AcDbSymbolTableRecord
100
AcDbBlockTableRecord
  2
Block_8
340
0
102
{BLKREFS
331
F2
102
}
 70
     0
280
     1
281
     0
  0
BLOCK_RECORD
  5
FC
330
1
100
AcDbSymbolTableRecord
100
AcDbBlockTableRecord
  2
Block_9
340
0
102
{BLKREFS
331
FD
102
}
 70
     0
280
     1
281
     0
  0
ENDTAB
  0
ENDSEC
  0
SECTION
  2
BLOCKS
  0
BLOCK
  5
71
330
70
100
AcDbEntity
  8
0
100
AcDbBlockBegin
  2
*Model_Space
 70
     0
 10
0.0
 20
0.0
 30
0.0
  3
*Model_Space
  1

  0
ENDBLK
  5
72
330
70
100
AcDbEntity
  8
0
100
AcDbBlockEnd
  0
BLOCK
  5
6D
330
6C
100
AcDbEntity
 67
     1
  8
0
100
AcDbBlockBegin
  2
*Paper_Space
 70
     0
 10
0.0
 20
0.0
 30
0.0
  3
*Paper_Space
  1

  0
ENDBLK
  5
6E
330
6C
100
AcDbEntity
 67
     1
  8
0
100
AcDbBlockEnd
  0
BLOCK
  5
75
330
74
100
AcDbEntity
 67
     1
  8
0
100
AcDbBlockBegin
  2
*Paper_Space0
 70
     0
 10
0.0
 20
0.0
 30
0.0
  3
*Paper_Space0
  1

  0
ENDBLK
  5
76
330
74
100
AcDbEntity
 67
     1
  8
0
100
AcDbBlockEnd
  0
BLOCK
  5
7B
330
79
100
AcDbEntity
  8
0
100
AcDbBlockBegin
  2
Block_0
 70
     0
 10
0.0
 20
0.0
 30
0.0
  3
Block_0
  1

  0
SPLINE
  5
7D
330
79
100
AcDbEntity
  8
レイヤー 1
 62
   140
370
    18
100
AcDbSpline
210
0.0
220
0.0
230
1.0
 70
     9
 71
     3
 72
   209
 73
   205
 74
     0
 42
0.0000000001
 43
0.0000000001
 40
0.0
 40
0.0
 40
0.0
 40
0.0
 40
1.0
 40
1.0
 40
1.0
 40
2.0
 40
2.0
 40
2.0
 40
3.0
 40
3.0
 40
3.0
 40
4.0
 40
4.0
 40
4.0
 40
5.0
 40
5.0
 40
5.0
 40
6.0
 40
6.0
 40
6.0
 40
7.0
 40
7.0
 40
7.0
 40
8.0
 40
8.0
 40
8.0
 40
9.0
 40
9.0
 40
9.0
 40
10.0
 40
10.0
 40
10.0
 40
11.0
 40
11.0
 40
11.0
 40
12.0
 40
12.0
 40
12.0
 40
13.0
 40
13.0
 40
13.0
 40
14.0
 40
14.0
 40
14.0
 40
15.0
 40
15.0
 40
15.0
 40
16.0
 40
16.0
 40
16.0
 40
17.0
 40
17.0
 40
17.0
 40
18.0
 40
18.0
 40
18.0
 40
19.0
 40
19.0
 40
19.0
 40
20.0
 40
20.0
 40
20.0
 40
21.0
 40
21.0
 40
21.0
 40
22.0
 40
22.0
 40
22.0
 40
23.0
 40
23.0
 40
23.0
 40
24.0
 40
24.0
 40
24.0
 40
25.0
 40
25.0
 40
25.0
 40
26.0
 40
26.0
 40
26.0
 40
27.0
 40
27.0
 40
27.0
 40
28.0
 40
28.0
 40
28.0
 40
29.0
 40
29.0
 40
29.0
 40
30.0
 40
30.0
 40
30.0
 40
31.0
 40
31.0
 40
31.0
 40
32.0
 40
32.0
 40
32.0
 40
33.0
 40
33.0
 40
33.0
 40
34.0
 40
34.0
 40
34.0
 40
35.0
 40
35.0
 40
35.0
 40
36.0
 40
36.0
 40
36.0
 40
37.0
 40
37.0
 40
37.0
 40
38.0
 40
38.0
 40
38.0
 40
39.0
 40
39.0
 40
39.0
 40
40.0
 40
40.0
 40
40.0
 40
41.0
 40
41.0
 40
41.0
 40
42.0
 40
42.0
 40
42.0
 40
43.0
 40
43.0
 40
43.0
 40
44.0
 40
44.0
 40
44.0
 40
45.0
 40
45.0
 40
45.0
 40
46.0
 40
46.0
 40
46.0
 40
47.0
 40
47.0
 40
47.0
 40
48.0
 40
48.0
 40
48.0
 40
49.0
 40
49.0
 40
49.0
 40
50.0
 40
50.0
 40
50.0
 40
51.0
 40
51.0
 40
51.0
 40
52.0
 40
52.0
 40
52.0
 40
53.0
 40
53.0
 40
53.0
 40
54.0
 40
54.0
 40
54.0
 40
55.0
 40
55.0
 40
55.0
 40
56.0
 40
56.0
 40
56.0
 40
57.0
 40
57.0
 40
57.0
 40
58.0
 40
58.0
 40
58.0
 40
59.0
 40
59.0
 40
59.0
 40
60.0
 40
60.0
 40
60.0
 40
61.0
 40
61.0
 40
61.0
 40
62.0
 40
62.0
 40
62.0
 40
63.0
 40
63.0
 40
63.0
 40
64.0
 40
64.0
 40
64.0
 40
65.0
 40
65.0
 40
65.0
 40
66.0
 40
66.0
 40
66.0
 40
67.0
 40
67.0
 40
67.0
 40
68.0
 40
68.0
 40
68.0
 40
68.0
 10
209.5408919764234
 20
32.00244743818673
 30
0.0
 10
206.5179283473506
 20
32.01267775688941
 30
0.0
 10
203.5824701436031
 20
32.11251285597877
 30
0.0
 10
200.566568960275
 20
32.30689429429144
 30
0.0
 10
197.4003970182497
 20
32.50938785587955
 30
0.0
 10
194.3340467179096
 20
32.81701065938473
 30
0.0
 10
191.1897296003688
 20
33.24775256279402
 30
0.0
 10
188.113517714202
 20
33.66685112005551
 30
0.0
 10
185.1434793645214
 20
34.1924919466792
 30
0.0
 10
182.1081779872421
 20
34.85500803182038
 30
0.0
 10
179.21822734167
 20
35.4840097974441
 30
0.0
 10
176.4397470668926
 20
36.21179160166483
 30
0.0
 10
173.6129385620112
 20
37.08068236377671
 30
0.0
 10
170.8676280972028
 20
37.92276328516314
 30
0.0
 10
168.2433050794669
 20
38.8576249343367
 30
0.0
 10
165.5875993950451
 20
39.93959485221129
 30
0.0
 10
162.8052433878468
 20
41.07095075216309
 30
0.0
 10
160.1650513990321
 20
42.30355747013022
 30
0.0
 10
157.5149870584674
 20
43.70796679357741
 30
0.0
 10
154.4116019816607
 20
45.35014422660463
 30
0.0
 10
151.508592271015
 20
47.12990746909317
 30
0.0
 10
148.6383970948662
 20
49.1492071240788
 30
0.0
 10
144.3994116528107
 20
52.12912320847109
 30
0.0
 10
140.5999988628263
 20
55.39866954690066
 30
0.0
 10
137.0224825198622
 20
59.14657815938056
 30
0.0
 10
134.0055262760418
 20
62.30958491992879
 30
0.0
 10
131.3441684818395
 20
65.60593840760296
 30
0.0
 10
128.8867172766705
 20
69.22332634784716
 30
0.0
 10
126.8709488445572
 20
72.19512492600232
 30
0.0
 10
125.1038840087088
 20
75.19902748771066
 30
0.0
 10
123.4860456369887
 20
78.40507102701604
 30
0.0
 10
122.0294269680549
 20
81.29819761998851
 30
0.0
 10
120.7678868309734
 20
84.18004152524677
 30
0.0
 10
119.631941956176
 20
87.21357729108994
 30
0.0
 10
118.5429257414417
 20
90.12823034788352
 30
0.0
 10
117.6207598074275
 20
93.00654303026941
 30
0.0
 10
116.8150165689679
 20
96.01079548448797
 30
0.0
 10
115.995869755886
 20
99.07361456195578
 30
0.0
 10
115.3315907507895
 20
102.0838636355033
 30
0.0
 10
114.7854892867604
 20
105.2123010160417
 30
0.0
 10
114.2348015393666
 20
108.3827147318833
 30
0.0
 10
113.8245229648435
 20
111.4811582498532
 30
0.0
 10
113.532066655916
 20
114.6829653983041
 30
0.0
 10
113.1687059755327
 20
118.6912263361583
 30
0.0
 10
112.9923170866879
 20
122.5992995909322
 30
0.0
 10
112.9923170866879
 20
126.6276712736816
 30
0.0
 10
112.9923170866879
 20
126.6276712736816
 30
0.0
 10
112.9923170866879
 20
245.8334010887153
 30
0.0
 10
112.9923170866879
 20
245.8334010887153
 30
0.0
 10
112.9923170866879
 20
254.4168349583685
 30
0.0
 10
119.9752026575876
 20
261.400431080212
 30
0.0
 10
128.5586365272408
 20
261.400431080212
 30
0.0
 10
128.5586365272408
 20
261.400431080212
 30
0.0
 10
153.5102573434855
 20
261.400431080212
 30
0.0
 10
153.5102573434855
 20
261.400431080212
 30
0.0
 10
162.0933359376668
 20
261.400431080212
 30
0.0
 10
169.0762215085664
 20
254.4175455093123
 30
0.0
 10
169.0762215085664
 20
245.8344561492076
 30
0.0
 10
169.0762215085664
 20
245.8344561492076
 30
0.0
 10
169.0762215085664
 20
127.6189759677155
 30
0.0
 10
169.0762215085664
 20
127.6189759677155
 30
0.0
 10
169.0762215085664
 20
126.4890277122471
 30
0.0
 10
169.1005632613544
 20
125.3901283798395
 30
0.0
 10
169.1513568879151
 20
124.2591250638788
 30
0.0
 10
169.2377857209013
 20
122.237704521985
 30
0.0
 10
169.4120644887613
 20
120.2741400523967
 30
0.0
 10
169.6840547773218
 20
118.2615475676839
 30
0.0
 10
169.9317033130943
 20
116.4048779514489
 30
0.0
 10
170.2640258363402
 20
114.6127715777921
 30
0.0
 10
170.6990014391232
 20
112.7871401186945
 30
0.0
 10
171.0972867749882
 20
111.105093779868
 30
0.0
 10
171.5749384980948
 20
109.4929075179284
 30
0.0
 10
172.1573749535698
 20
107.8630651416269
 30
0.0
 10
172.6830211631552
 20
106.3852806673056
 30
0.0
 10
173.2788611932526
 20
104.9794663908558
 30
0.0
 10
173.9766545178665
 20
103.5701208915337
 30
0.0
 10
174.7386558095868
 20
102.0235421667413
 30
0.0
 10
175.58955133075
 20
100.5785614609936
 30
0.0
 10
176.5752146809267
 20
99.1582777835058
 30
0.0
 10
177.9394078975453
 20
97.18519623763947
 30
0.0
 10
179.4697623757868
 20
95.4392972071786
 30
0.0
 10
181.2516411222218
 20
93.82463478285895
 30
0.0
 10
182.7124907990484
 20
92.50453878845155
 30
0.0
 10
184.2368378920376
 20
91.36682830221799
 30
0.0
 10
185.9146424570478
 20
90.34447468512331
 30
0.0
 10
187.2837879984264
 20
89.51227957289104
 30
0.0
 10
188.6617185332925
 20
88.79931167925688
 30
0.0
 10
190.1306857163562
 20
88.16290564982072
 30
0.0
 10
191.6779857580158
 20
87.49544531436203
 30
0.0
 10
193.211849927283
 20
86.94546811791207
 30
0.0
 10
194.8237024455974
 20
86.47944897503
 30
0.0
 10
196.3575666148646
 20
86.03706641695373
 30
0.0
 10
197.8628795552977
 20
85.68428863926415
 30
0.0
 10
199.4288692399648
 20
85.40029972908396
 30
0.0
 10
201.0061200804993
 20
85.11631620186546
 30
0.0
 10
202.5438815140342
 20
84.90641299350322
 30
0.0
 10
204.1338576760173
 20
84.75895214081113
 30
0.0
 10
206.1362332994316
 20
84.57656663263731
 30
0.0
 10
208.0807313186938
 20
84.48801691274303
 30
0.0
 10
210.084506512149
 20
84.48801691274303
 30
0.0
 10
210.084506512149
 20
84.48801691274303
 30
0.0
 10
210.2273918473998
 20
84.48837218821493
 30
0.0
 10
210.2273918473998
 20
84.48837218821493
 30
0.0
 10
212.1186200777212
 20
84.48907735619707
 30
0.0
 10
213.9513032166402
 20
84.5684491264002
 30
0.0
 10
215.8319593101913
 20
84.73072927264055
 30
0.0
 10
217.5602345240605
 20
84.87819012533265
 30
0.0
 10
219.2331082961574
 20
85.10290724428145
 30
0.0
 10
220.9426508033256
 20
85.41793969456078
 30
0.0
 10
222.596834932415
 20
85.71885801927395
 30
0.0
 10
224.1882106644391
 20
86.1016242765703
 30
0.0
 10
225.8025178132868
 20
86.58704361340369
 30
0.0
 10
227.2309189970117
 20
87.01355181743933
 30
0.0
 10
228.5954782550256
 20
87.50920416445625
 30
0.0
 10
229.9691885479222
 20
88.10151835464292
 30
0.0
 10
231.3979342411957
 20
88.71394328972472
 30
0.0
 10
232.7441268339038
 20
89.40503482702755
 30
0.0
 10
234.0801133312369
 20
90.2121884014514
 30
0.0
 10
237.1436214278018
 20
92.05650412059481
 30
0.0
 10
239.7323092391121
 20
94.30440739287355
 30
0.0
 10
241.9907846481612
 20
97.08253239217903
 30
0.0
 10
243.047718411189
 20
98.38781447599984
 30
0.0
 10
243.9712839152441
 20
99.72307965646571
 30
0.0
 10
244.8165380925502
 20
101.1687601472338
 30
0.0
 10
245.6388608530326
 20
102.5788161974998
 30
0.0
 10
246.3451269593556
 20
103.9916821537709
 30
0.0
 10
246.9776680222942
 20
105.4913429844236
 30
0.0
 10
247.5703321049911
 20
106.9013990346896
 30
0.0
 10
248.0733806413779
 20
108.2959306234251
 30
0.0
 10
248.5161184749261
 20
109.7571355757237
 30
0.0
 10
249.0435195300243
 20
111.5047894516973
 30
0.0
 10
249.4640364976926
 20
113.2224709969493
 30
0.0
 10
249.8037659762318
 20
115.0131670346419
 30
0.0
 10
250.1456055757557
 20
116.8200980848086
 30
0.0
 10
250.3989062213087
 20
118.5875181961289
 30
0.0
 10
250.5791708425744
 20
120.4184357236117
 30
0.0
 10
250.8113056827399
 20
122.8134338071872
 30
0.0
 10
250.9245416649707
 20
125.1435349045594
 30
0.0
 10
250.9245416649707
 20
127.5459507093516
 30
0.0
 10
250.9245416649707
 20
127.5459507093516
 30
0.0
 10
250.9245416649707
 20
245.8330350473199
 30
0.0
 10
250.9245416649707
 20
245.8330350473199
 30
0.0
 10
250.9245416649707
 20
254.4175455093123
 30
0.0
 10
257.9070611944751
 20
261.400431080212
 30
0.0
 10
266.4901505545797
 20
261.400431080212
 30
0.0
 10
266.4901505545797
 20
261.400431080212
 30
0.0
 10
291.4410608198807
 20
261.400431080212
 30
0.0
 10
291.4410608198807
 20
261.400431080212
 30
0.0
 10
300.0245162213806
 20
261.400431080212
 30
0.0
 10
307.0073802604335
 20
254.4175455093123
 30
0.0
 10
307.0073802604335
 20
245.8344561492076
 30
0.0
 10
307.0073802604335
 20
245.8344561492076
 30
0.0
 10
307.0073802604335
 20
127.0619363255207
 30
0.0
 10
307.0073802604335
 20
127.0619363255207
 30
0.0
 10
307.0073802604335
 20
125.6282490734106
 30
0.0
 10
306.9876355569336
 20
124.2612351848635
 30
0.0
 10
306.9456484557071
 20
122.8561206934342
 30
0.0
 10
306.8563989507924
 20
119.7435630498981
 30
0.0
 10
306.6630860303764
 20
116.7234416246006
 30
0.0
 10
306.3536949239542
 20
113.6200457818706
 30
0.0
 10
306.03160002793
 20
110.3706101883362
 30
0.0
 10
305.5881731752848
 20
107.2323004560478
 30
0.0
 10
304.9983297645165
 20
104.0244966882679
 30
0.0
 10
304.4518730250155
 20
101.0403442130211
 30
0.0
 10
303.7978216471409
 20
98.1683834254362
 30
0.0
 10
302.997353711143
 20
95.24315284891057
 30
0.0
 10
302.1750309506607
 20
92.2286620015468
 30
0.0
 10
301.2359409850752
 20
89.34717875472212
 30
0.0
 10
300.1268140254457
 20
86.43252569792855
 30
0.0
 10
299.0907015582568
 20
83.70414464765307
 30
0.0
 10
297.9551119589313
 20
81.10946559997547
 30
0.0
 10
296.6547606680238
 20
78.49749647933125
 30
0.0
 10
295.1261933330652
 20
75.42092393473092
 30
0.0
 10
293.4607265162616
 20
72.53555418956196
 30
0.0
 10
291.5638354102362
 20
69.67523136516311
 30
0.0
 10
288.6227358626316
 20
65.23587593990848
 30
0.0
 10
285.3591753776077
 20
61.25301719829623
 30
0.0
 10
281.5858699518475
 20
57.49805152303326
 30
0.0
 10
278.73259880727
 20
54.66207045142237
 30
0.0
 10
275.7646705785741
 20
52.13300432385369
 30
0.0
 10
272.5127803545064
 20
49.76692351050749
 30
0.0
 10
269.6813855662603
 20
47.70987852811159
 30
0.0
 10
266.81153489966
 20
45.89130413179703
 30
0.0
 10
263.740598315955
 20
44.20855800795013
 30
0.0
 10
261.1261584158925
 20
42.77839659575071
 30
0.0
 10
258.5194915125186
 20
41.51898003705813
 30
0.0
 10
255.7731259872177
 20
40.35869340947277
 30
0.0
 10
252.9540689471782
 20
39.17053918918876
 30
0.0
 10
250.1621850977785
 20
38.14783567958386
 30
0.0
 10
247.2408302536738
 20
37.23237691584246
 30
0.0
 10
244.2330465765828
 20
36.29257639931309
 30
0.0
 10
241.2711257331392
 20
35.50940930220528
 30
0.0
 10
238.1878514012278
 20
34.83913367777975
 30
0.0
 10
235.2537927675212
 20
34.20272226538189
 30
0.0
 10
232.3800663685001
 20
33.69260320880775
 30
0.0
 10
229.4050972259061
 20
33.27950127087528
 30
0.0
 10
226.2727733470234
 20
32.84699644751064
 30
0.0
 10
223.2138515338233
 20
32.53443477664965
 30
0.0
 10
220.0557755661883
 20
32.32453156828742
 30
0.0
 10
216.7453187188714
 20
32.10686882064082
 30
0.0
 10
213.5205586217501
 20
32.00103441074161
 30
0.0
 10
210.199508105816
 20
32.00103441074161
 30
0.0
 10
210.199508105816
 20
32.00103441074161
 30
0.0
 10
209.5408919764234
 20
32.00244743818673
 30
0.0
 10
209.5408919764234
 20
32.00244743818673
 30
0.0
  0
SPLINE
  5
7E
330
79
100
AcDbEntity
  8
レイヤー 1
 62
   140
370
    18
100
AcDbSpline
210
0.0
220
0.0
230
1.0
 70
     9
 71
     3
 72
   209
 73
   205
 74
     0
 42
0.0000000001
 43
0.0000000001
 40
0.0
 40
0.0
 40
0.0
 40
0.0
 40
1.0
 40
1.0
 40
1.0
 40
2.0
 40
2.0
 40
2.0
 40
3.0
 40
3.0
 40
3.0
 40
4.0
 40
4.0
 40
4.0
 40
5.0
 40
5.0
 40
5.0
 40
6.0
 40
6.0
 40
6.0
 40
7.0
 40
7.0
 40
7.0
 40
8.0
 40
8.0
 40
8.0
 40
9.0
 40
9.0
 40
9.0
 40
10.0
 40
10.0
 40
10.0
 40
11.0
 40
11.0
 40
11.0
 40
12.0
 40
12.0
 40
12.0
 40
13.0
 40
13.0
 40
13.0
 40
14.0
 40
14.0
 40
14.0
 40
15.0
 40
15.0
 40
15.0
 40
16.0
 40
16.0
 40
16.0
 40
17.0
 40
17.0
 40
17.0
 40
18.0
 40
18.0
 40
18.0
 40
19.0
 40
19.0
 40
19.0
 40
20.0
 40
20.0
 40
20.0
 40
21.0
 40
21.0
 40
21.0
 40
22.0
 40
22.0
 40
22.0
 40
23.0
 40
23.0
 40
23.0
 40
24.0
 40
24.0
 40
24.0
 40
25.0
 40
25.0
 40
25.0
 40
26.0
 40
26.0
 40
26.0
 40
27.0
 40
27.0
 40
27.0
 40
28.0
 40
28.0
 40
28.0
 40
29.0
 40
29.0
 40
29.0
 40
30.0
 40
30.0
 40
30.0
 40
31.0
 40
31.0
 40
31.0
 40
32.0
 40
32.0
 40
32.0
 40
33.0
 40
33.0
 40
33.0
 40
34.0
 40
34.0
 40
34.0
 40
35.0
 40
35.0
 40
35.0
 40
36.0
 40
36.0
 40
36.0
 40
37.0
 40
37.0
 40
37.0
 40
38.0
 40
38.0
 40
38.0
 40
39.0
 40
39.0
 40
39.0
 40
40.0
 40
40.0
 40
40.0
 40
41.0
 40
41.0
 40
41.0
 40
42.0
 40
42.0
 40
42.0
 40
43.0
 40
43.0
 40
43.0
 40
44.0
 40
44.0
 40
44.0
 40
45.0
 40
45.0
 40
45.0
 40
46.0
 40
46.0
 40
46.0
 40
47.0
 40
47.0
 40
47.0
 40
48.0
 40
48.0
 40
48.0
 40
49.0
 40
49.0
 40
49.0
 40
50.0
 40
50.0
 40
50.0
 40
51.0
 40
51.0
 40
51.0
 40
52.0
 40
52.0
 40
52.0
 40
53.0
 40
53.0
 40
53.0
 40
54.0
 40
54.0
 40
54.0
 40
55.0
 40
55.0
 40
55.0
 40
56.0
 40
56.0
 40
56.0
 40
57.0
 40
57.0
 40
57.0
 40
58.0
 40
58.0
 40
58.0
 40
59.0
 40
59.0
 40
59.0
 40
60.0
 40
60.0
 40
60.0
 40
61.0
 40
61.0
 40
61.0
 40
62.0
 40
62.0
 40
62.0
 40
63.0
 40
63.0
 40
63.0
 40
64.0
 40
64.0
 40
64.0
 40
65.0
 40
65.0
 40
65.0
 40
66.0
 40
66.0
 40
66.0
 40
67.0
 40
67.0
 40
67.0
 40
68.0
 40
68.0
 40
68.0
 40
68.0
 10
209.5281666549747
 20
25.90239180870995
 30
0.0
 10
206.3739664197607
 20
25.91332729539477
 30
0.0
 10
203.31678868615
 20
26.01704350986672
 30
0.0
 10
200.1738926704969
 20
26.21953707145483
 30
0.0
 10
196.8634358231799
 20
26.43120319977241
 30
0.0
 10
193.6524561079996
 20
26.75329002135394
 30
0.0
 10
190.3617439641825
 20
27.20413997817754
 30
0.0
 10
187.1292324022194
 20
27.64475961629845
 30
0.0
 10
184.0029159085891
 20
28.19791545162972
 30
0.0
 10
180.8078051644877
 20
28.89500360826155
 30
0.0
 10
177.7527590837085
 20
29.55999047282105
 30
0.0
 10
174.8120040456525
 20
30.33045647180785
 30
0.0
 10
171.8207998905843
 20
31.24979635093186
 30
0.0
 10
168.9033315448238
 20
32.1447944772679
 30
0.0
 10
166.1107479104037
 20
33.13962770269328
 30
0.0
 10
163.2864048019789
 20
34.29003390408619
 30
0.0
 10
160.3153113918059
 20
35.49829886926535
 30
0.0
 10
157.4920341097969
 20
36.81627666824548
 30
0.0
 10
154.6585184346426
 20
38.3184055868356
 30
0.0
 10
151.3297056879434
 20
40.07982369586519
 30
0.0
 10
148.2111514250783
 20
41.99117343700519
 30
0.0
 10
145.1282323686387
 20
44.16040472410123
 30
0.0
 10
140.5618767280974
 20
47.37032668730836
 30
0.0
 10
136.466476406313
 20
50.89493389976542
 30
0.0
 10
132.6102626045156
 20
54.93423837771881
 30
0.0
 10
129.3576510635807
 20
58.34418850605739
 30
0.0
 10
126.4899212838886
 20
61.89630803574121
 30
0.0
 10
123.8409120038162
 20
65.79555861629579
 30
0.0
 10
121.6734409451947
 20
68.99137452837933
 30
0.0
 10
119.7769158805646
 20
72.21576320114365
 30
0.0
 10
118.0401894168332
 20
75.65675686958137
 30
0.0
 10
116.4802071174186
 20
78.75450060253088
 30
0.0
 10
115.1333039737666
 20
81.83354392654953
 30
0.0
 10
113.9193922817686
 20
85.07380695335449
 30
0.0
 10
112.7587503787113
 20
88.18036797756157
 30
0.0
 10
111.7794389233355
 20
91.23965044919529
 30
0.0
 10
110.9232465678638
 20
94.43053018540387
 30
0.0
 10
110.055416249206
 20
97.67573477104548
 30
0.0
 10
109.3533919166992
 20
100.8577864500731
 30
0.0
 10
108.7762415296093
 20
104.1633125044767
 30
0.0
 10
108.1959259610424
 20
107.504118489834
 30
0.0
 10
107.7648260906803
 20
110.7620268650775
 30
0.0
 10
107.4572113616177
 20
114.1278743882432
 30
0.0
 10
107.0772711592116
 20
118.3245282195237
 30
0.0
 10
106.8924094886577
 20
122.4118110350709
 30
0.0
 10
106.8924094886577
 20
126.6278542943793
 30
0.0
 10
106.8924094886577
 20
126.6278542943793
 30
0.0
 10
106.8924094886577
 20
245.833228833941
 30
0.0
 10
106.8924094886577
 20
245.833228833941
 30
0.0
 10
106.8924094886577
 20
257.7803893398518
 30
0.0
 10
116.6117882331083
 20
267.5004678693228
 30
0.0
 10
128.5586042294706
 20
267.5004678693228
 30
0.0
 10
128.5586042294706
 20
267.5004678693228
 30
0.0
 10
153.5102250457153
 20
267.5004678693228
 30
0.0
 10
153.5102250457153
 20
267.5004678693228
 30
0.0
 10
165.456696532529
 20
267.5004678693228
 30
0.0
 10
175.1760752769796
 20
257.7810998907956
 30
0.0
 10
175.1760752769796
 20
245.8346284039819
 30
0.0
 10
175.1760752769796
 20
245.8346284039819
 30
0.0
 10
175.1760752769796
 20
127.6188037129412
 30
0.0
 10
175.1760752769796
 20
127.6188037129412
 30
0.0
 10
175.1760752769796
 20
126.5784710037829
 30
0.0
 10
175.1986514183314
 20
125.5691656858386
 30
0.0
 10
175.2452140369992
 20
124.5319981581573
 30
0.0
 10
175.3242359146921
 20
122.6848563841237
 30
0.0
 10
175.482279670078
 20
120.9047432491249
 30
0.0
 10
175.7288731453581
 20
119.0780567295349
 30
0.0
 10
175.9504250828299
 20
117.4185865320603
 30
0.0
 10
176.2456912977626
 20
115.8265002490924
 30
0.0
 10
176.6330492213853
 20
114.201254922079
 30
0.0
 10
176.9808854402383
 20
112.7315879539948
 30
0.0
 10
177.3950505131056
 20
111.332814591443
 30
0.0
 10
177.9016302723649
 20
109.9164174122995
 30
0.0
 10
178.3496649402216
 20
108.6566428866542
 30
0.0
 10
178.8527242425318
 20
107.4691938343523
 30
0.0
 10
179.443278204244
 20
106.2775137741576
 30
0.0
 10
180.0761530108078
 20
104.9923424352319
 30
0.0
 10
180.775356671386
 20
103.805248658402
 30
0.0
 10
181.5867412537027
 20
102.6357894640871
 30
0.0
 10
182.6888272994341
 20
101.042292845155
 30
0.0
 10
183.9168531169982
 20
99.6410540861466
 30
0.0
 10
185.3480534408049
 20
98.34460005950674
 30
0.0
 10
186.5150580045865
 20
97.2901424588589
 30
0.0
 10
187.7409521693191
 20
96.37503897058941
 30
0.0
 10
189.0892764148587
 20
95.55342676105089
 30
0.0
 10
190.2096860622023
 20
94.87221295845968
 30
0.0
 10
191.3459862124716
 20
94.28412439320416
 30
0.0
 10
192.5563774475206
 20
93.75989928550643
 30
0.0
 10
193.8545970855967
 20
93.20003897138315
 30
0.0
 10
195.1542162937136
 20
92.73366993599085
 30
0.0
 10
196.5180650007837
 20
92.3392603325467
 30
0.0
 10
197.8473335619205
 20
91.95614418274013
 30
0.0
 10
199.1572019291061
 20
91.64922923869793
 30
0.0
 10
200.5182084324008
 20
91.40193597839735
 30
0.0
 10
201.9137950816288
 20
91.15075621975247
 30
0.0
 10
203.2836296421045
 20
90.96413970368583
 30
0.0
 10
204.6979274661866
 20
90.8329030975446
 30
0.0
 10
206.501327293481
 20
90.66850744735784
 30
0.0
 10
208.2669817933651
 20
90.58807523370063
 30
0.0
 10
210.0844849803022
 20
90.58807523370063
 30
0.0
 10
210.0844849803022
 20
90.58807523370063
 30
0.0
 10
210.2210184207521
 20
90.58843050917255
 30
0.0
 10
210.2210184207521
 20
90.58843050917255
 30
0.0
 10
211.9386784341573
 20
90.58878578464447
 30
0.0
 10
213.6009800694839
 20
90.66074521659263
 30
0.0
 10
215.3070128856264
 20
90.80820606928471
 30
0.0
 10
216.8440637682174
 20
90.93944267542594
 30
0.0
 10
218.3243136389953
 20
91.13805243015061
 30
0.0
 10
219.8387991461579
 20
91.41710516445584
 30
0.0
 10
221.2798825876379
 20
91.67956761081493
 30
0.0
 10
222.6521933104937
 20
92.00976924715273
 30
0.0
 10
224.0463803896807
 20
92.42886511293336
 30
0.0
 10
225.2574606438267
 20
92.79047094780391
 30
0.0
 10
226.4011677493893
 20
93.20603559071216
 30
0.0
 10
227.5540474216814
 20
93.70309827369338
 30
0.0
 10
228.7347893037104
 20
94.20934428932744
 30
0.0
 10
229.833688636118
 20
94.77343561134354
 30
0.0
 10
230.9248365036837
 20
95.43312833307531
 30
0.0
 10
233.3833427693452
 20
96.91302292838134
 30
0.0
 10
235.4516704394552
 20
98.70937107585435
 30
0.0
 10
237.2578909386782
 20
100.9304564329651
 30
0.0
 10
238.1105736031243
 20
101.9835036976486
 30
0.0
 10
238.8630470526432
 20
103.0721754028344
 30
0.0
 10
239.5509464936605
 20
104.2483310014987
 30
0.0
 10
240.2353362436521
 20
105.4213214186859
 30
0.0
 10
240.827311307252
 20
106.6059497990592
 30
0.0
 10
241.3575330342787
 20
107.8621931018322
 30
0.0
 10
241.8644788349332
 20
109.0690423480854
 30
0.0
 10
242.2976780603566
 20
110.2702502504815
 30
0.0
 10
242.6786840891784
 20
111.5268488287263
 30
0.0
 10
243.1401115657341
 20
113.0571925410445
 30
0.0
 10
243.5112344768826
 20
114.5720225577556
 30
0.0
 10
243.8107424656315
 20
116.1500054810808
 30
0.0
 10
244.1176574096737
 20
117.7738404721299
 30
0.0
 10
244.3462610269668
 20
119.3662820305696
 30
0.0
 10
244.5085465561689
 20
121.015869110371
 30
0.0
 10
244.7209151609877
 20
123.2055610348724
 30
0.0
 10
244.8246340669406
 20
125.3444485668898
 30
0.0
 10
244.8246340669406
 20
127.5461337300492
 30
0.0
 10
244.8246340669406
 20
127.5461337300492
 30
0.0
 10
244.8246340669406
 20
245.833228833941
 30
0.0
 10
244.8246340669406
 20
245.833228833941
 30
0.0
 10
244.8246340669406
 20
257.7803893398518
 30
0.0
 10
254.5436575359192
 20
267.5004678693228
 30
0.0
 10
266.490129022733
 20
267.5004678693228
 30
0.0
 10
266.490129022733
 20
267.5004678693228
 30
0.0
 10
291.4410392880338
 20
267.5004678693228
 30
0.0
 10
291.4410392880338
 20
267.5004678693228
 30
0.0
 10
303.3882213257914
 20
267.5004678693228
 30
0.0
 10
313.1072447947701
 20
257.7810998907956
 30
0.0
 10
313.1072447947701
 20
245.8342838944334
 30
0.0
 10
313.1072447947701
 20
245.8342838944334
 30
0.0
 10
313.1072447947701
 20
127.0617748366699
 30
0.0
 10
313.1072447947701
 20
127.0617748366699
 30
0.0
 10
313.1072447947701
 20
125.5702315122543
 30
0.0
 10
313.0864234989311
 20
124.1354784337285
 30
0.0
 10
313.0433813372123
 20
122.6753285419223
 30
0.0
 10
312.9499115903281
 20
119.4230722764593
 30
0.0
 10
312.7470600617872
 20
116.2611313423268
 30
0.0
 10
312.4235655957223
 20
113.0148609302695
 30
0.0
 10
312.0848911776754
 20
109.6003299015279
 30
0.0
 10
311.6185329082065
 20
106.2976245190528
 30
0.0
 10
310.9976405743773
 20
102.9215386027418
 30
0.0
 10
310.4201349118156
 20
99.76700462390265
 30
0.0
 10
309.7276276555868
 20
96.72747223873045
 30
0.0
 10
308.8813184177884
 20
93.63360423820184
 30
0.0
 10
308.0085465402939
 20
90.43426248620763
 30
0.0
 10
307.0094903814182
 20
87.36792295179084
 30
0.0
 10
305.8283824579939
 20
84.26312753901994
 30
0.0
 10
304.7213656193492
 20
81.3491796502085
 30
0.0
 10
303.5067541423308
 20
78.57317015484944
 30
0.0
 10
302.1157537764676
 20
75.77917080150334
 30
0.0
 10
300.47674959936
 20
72.48034653441084
 30
0.0
 10
298.687087090313
 20
69.37978212953277
 30
0.0
 10
296.6476982222791
 20
66.30391475291458
 30
0.0
 10
293.477629015986
 20
61.51883322979173
 30
0.0
 10
289.957602703932
 20
57.2234128173185
 30
0.0
 10
285.8883205122953
 20
53.17423060465349
 30
0.0
 10
282.8082113618609
 20
50.11247197063974
 30
0.0
 10
279.6074592739024
 20
47.38514598085662
 30
0.0
 10
276.1015578533379
 20
44.83421157139914
 30
0.0
 10
273.0542632374005
 20
42.62053047810083
 30
0.0
 10
269.970988905489
 20
40.66684643470497
 30
0.0
 10
266.6718147458863
 20
38.85921290803694
 30
0.0
 10
263.8711028393057
 20
37.3270982013209
 30
0.0
 10
261.0838052732707
 20
35.98019236618806
 30
0.0
 10
258.146581458087
 20
34.7394735249455
 30
0.0
 10
255.1437285739094
 20
33.47370776293285
 30
0.0
 10
252.1744007751725
 20
32.38574122572925
 30
0.0
 10
249.0650298449603
 20
31.41136863770923
 30
0.0
 10
245.8769600147569
 20
30.41512507631956
 30
0.0
 10
242.7442916263256
 20
29.58715558901842
 30
0.0
 10
239.4839393864724
 20
28.87842408623879
 30
0.0
 10
236.3946576693085
 20
28.20849835432348
 30
0.0
 10
233.3734596516718
 20
27.67192473249581
 30
0.0
 10
230.2443224861129
 20
27.23730171370391
 30
0.0
 10
226.961727848533
 20
26.78433625293391
 30
0.0
 10
223.7634519229545
 20
26.45766314798764
 30
0.0
 10
220.4603804990841
 20
26.23788220491379
 30
0.0
 10
217.0095144788965
 20
26.01139947452878
 30
0.0
 10
213.6545943679731
 20
25.90097878126483
 30
0.0
 10
210.1994865739692
 20
25.90097878126483
 30
0.0
 10
210.1994865739692
 20
25.90097878126483
 30
0.0
 10
209.5281666549747
 20
25.90239180870995
 30
0.0
 10
209.5281666549747
 20
25.90239180870995
 30
0.0
  0
SPLINE
  5
7F
330
79
100
AcDbEntity
  8
レイヤー 1
 62
     1
370
    18
100
AcDbSpline
210
0.0
220
0.0
230
1.0
 70
     9
 71
     3
 72
   209
 73
   205
 74
     0
 42
0.0000000001
 43
0.0000000001
 40
0.0
 40
0.0
 40
0.0
 40
0.0
 40
1.0
 40
1.0
 40
1.0
 40
2.0
 40
2.0
 40
2.0
 40
3.0
 40
3.0
 40
3.0
 40
4.0
 40
4.0
 40
4.0
 40
5.0
 40
5.0
 40
5.0
 40
6.0
 40
6.0
 40
6.0
 40
7.0
 40
7.0
 40
7.0
 40
8.0
 40
8.0
 40
8.0
 40
9.0
 40
9.0
 40
9.0
 40
10.0
 40
10.0
 40
10.0
 40
11.0
 40
11.0
 40
11.0
 40
12.0
 40
12.0
 40
12.0
 40
13.0
 40
13.0
 40
13.0
 40
14.0
 40
14.0
 40
14.0
 40
15.0
 40
15.0
 40
15.0
 40
16.0
 40
16.0
 40
16.0
 40
17.0
 40
17.0
 40
17.0
 40
18.0
 40
18.0
 40
18.0
 40
19.0
 40
19.0
 40
19.0
 40
20.0
 40
20.0
 40
20.0
 40
21.0
 40
21.0
 40
21.0
 40
22.0
 40
22.0
 40
22.0
 40
23.0
 40
23.0
 40
23.0
 40
24.0
 40
24.0
 40
24.0
 40
25.0
 40
25.0
 40
25.0
 40
26.0
 40
26.0
 40
26.0
 40
27.0
 40
27.0
 40
27.0
 40
28.0
 40
28.0
 40
28.0
 40
29.0
 40
29.0
 40
29.0
 40
30.0
 40
30.0
 40
30.0
 40
31.0
 40
31.0
 40
31.0
 40
32.0
 40
32.0
 40
32.0
 40
33.0
 40
33.0
 40
33.0
 40
34.0
 40
34.0
 40
34.0
 40
35.0
 40
35.0
 40
35.0
 40
36.0
 40
36.0
 40
36.0
 40
37.0
 40
37.0
 40
37.0
 40
38.0
 40
38.0
 40
38.0
 40
39.0
 40
39.0
 40
39.0
 40
40.0
 40
40.0
 40
40.0
 40
41.0
 40
41.0
 40
41.0
 40
42.0
 40
42.0
 40
42.0
 40
43.0
 40
43.0
 40
43.0
 40
44.0
 40
44.0
 40
44.0
 40
45.0
 40
45.0
 40
45.0
 40
46.0
 40
46.0
 40
46.0
 40
47.0
 40
47.0
 40
47.0
 40
48.0
 40
48.0
 40
48.0
 40
49.0
 40
49.0
 40
49.0
 40
50.0
 40
50.0
 40
50.0
 40
51.0
 40
51.0
 40
51.0
 40
52.0
 40
52.0
 40
52.0
 40
53.0
 40
53.0
 40
53.0
 40
54.0
 40
54.0
 40
54.0
 40
55.0
 40
55.0
 40
55.0
 40
56.0
 40
56.0
 40
56.0
 40
57.0
 40
57.0
 40
57.0
 40
58.0
 40
58.0
 40
58.0
 40
59.0
 40
59.0
 40
59.0
 40
60.0
 40
60.0
 40
60.0
 40
61.0
 40
61.0
 40
61.0
 40
62.0
 40
62.0
 40
62.0
 40
63.0
 40
63.0
 40
63.0
 40
64.0
 40
64.0
 40
64.0
 40
65.0
 40
65.0
 40
65.0
 40
66.0
 40
66.0
 40
66.0
 40
67.0
 40
67.0
 40
67.0
 40
68.0
 40
68.0
 40
68.0
 40
68.0
 10
209.5429805655613
 20
33.00239716870389
 30
0.0
 10
206.5461135347893
 20
33.01262748740657
 30
0.0
 10
203.6279454040084
 20
33.11175741851378
 30
0.0
 10
200.6307553955346
 20
33.30472582938134
 30
0.0
 10
197.4860937684453
 20
33.50580905500517
 30
0.0
 10
194.4437299454212
 20
33.81096377057287
 30
0.0
 10
191.3258754675765
 20
34.23817714259063
 30
0.0
 10
188.2747051192182
 20
34.65445502792358
 30
0.0
 10
185.3304188582898
 20
35.17550687970168
 30
0.0
 10
182.321235611158
 20
35.83202634551384
 30
0.0
 10
179.4573815638867
 20
36.45538407579962
 30
0.0
 10
176.7060637138258
 20
37.17610881723728
 30
0.0
 10
173.9067729091329
 20
38.03653487208266
 30
0.0
 10
171.1875698085486
 20
38.87085356270389
 30
0.0
 10
168.5907644910012
 20
39.79583747716584
 30
0.0
 10
165.9650419032244
 20
40.86545888091047
 30
0.0
 10
163.2126689926712
 20
41.98482423368511
 30
0.0
 10
160.6028261418968
 20
43.20331951756695
 30
0.0
 10
157.9834446829976
 20
44.59185179549266
 30
0.0
 10
154.9167498731089
 20
46.21462634308772
 30
0.0
 10
152.0490200934168
 20
47.97251861220663
 30
0.0
 10
149.2137495727497
 20
49.96712662189407
 30
0.0
 10
145.0280339196349
 20
52.90929199591438
 30
0.0
 10
141.2776599106984
 20
56.1372118915511
 30
0.0
 10
137.7459956354582
 20
59.8371421664372
 30
0.0
 10
134.7685503304843
 20
62.95852248419255
 30
0.0
 10
132.1407068557994
 20
66.21324952907386
 30
0.0
 10
129.7139492982193
 20
69.78512452818089
 30
0.0
 10
127.7239329548583
 20
72.71882250345386
 30
0.0
 10
125.9780339243974
 20
75.68745051717026
 30
0.0
 10
124.3785406861362
 20
78.85609862157558
 30
0.0
 10
122.939212090169
 20
81.71430055906633
 30
0.0
 10
121.6921413541256
 20
84.56439575624335
 30
0.0
 10
120.5681897179862
 20
87.56441720256907
 30
0.0
 10
119.4904561909661
 20
90.4490763967942
 30
0.0
 10
118.5778180991533
 20
93.29811653347887
 30
0.0
 10
117.7812474274231
 20
96.26990972867233
 30
0.0
 10
116.9684525091422
 20
99.30838705335217
 30
0.0
 10
116.3105146329232
 20
102.2911184267113
 30
0.0
 10
115.7704097882232
 20
105.3842758762961
 30
0.0
 10
115.224663599666
 20
108.5282377183649
 30
0.0
 10
114.8175609725434
 20
111.6012844230545
 30
0.0
 10
114.5279253355444
 20
114.7738082598807
 30
0.0
 10
114.1680958780335
 20
118.7489101536895
 30
0.0
 10
113.9924175401325
 20
122.6277000968387
 30
0.0
 10
113.9924175401325
 20
126.6278435284559
 30
0.0
 10
113.9924175401325
 20
126.6278435284559
 30
0.0
 10
113.9924175401325
 20
245.8332073020942
 30
0.0
 10
113.9924175401325
 20
245.8332073020942
 30
0.0
 10
113.9924175401325
 20
253.8655981488817
 30
0.0
 10
120.5269131677035
 20
260.4004705837714
 30
0.0
 10
128.5586042294706
 20
260.4004705837714
 30
0.0
 10
128.5586042294706
 20
260.4004705837714
 30
0.0
 10
153.5102250457153
 20
260.4004705837714
 30
0.0
 10
153.5102250457153
 20
260.4004705837714
 30
0.0
 10
161.5419161074823
 20
260.4004705837714
 30
0.0
 10
168.0760672255048
 20
253.8663086998255
 30
0.0
 10
168.0760672255048
 20
245.8346284039819
 30
0.0
 10
168.0760672255048
 20
245.8346284039819
 30
0.0
 10
168.0760672255048
 20
127.6188037129412
 30
0.0
 10
168.0760672255048
 20
127.6188037129412
 30
0.0
 10
168.0760672255048
 20
126.475796392399
 30
0.0
 10
168.1007642537647
 20
125.3624384248768
 30
0.0
 10
168.1522684312692
 20
124.214489545498
 30
0.0
 10
168.2397523247478
 20
122.1680382317193
 30
0.0
 10
168.4168517645364
 20
120.1734248390701
 30
0.0
 10
168.6927177855178
 20
118.1283730953323
 30
0.0
 10
168.9453078801269
 20
116.2385444350517
 30
0.0
 10
169.2836270227019
 20
114.4129237418774
 30
0.0
 10
169.72636485625
 20
112.5555435746985
 30
0.0
 10
170.1331122079007
 20
110.8371622444261
 30
0.0
 10
170.6213575996244
 20
109.1886302251171
 30
0.0
 10
171.2161425692294
 20
107.5252842952215
 30
0.0
 10
171.7555368629856
 20
106.0104542785104
 30
0.0
 10
172.3665460791414
 20
104.5679497351427
 30
0.0
 10
173.0812742012501
 20
103.1250899163031
 30
0.0
 10
173.8612653509574
 20
101.5407658641005
 30
0.0
 10
174.7379237267962
 20
100.0520432116135
 30
0.0
 10
175.7532148981461
 20
98.58871737240686
 30
0.0
 10
177.161150061504
 20
96.55283819539846
 30
0.0
 10
178.7415983812857
 20
94.74943836810409
 30
0.0
 10
180.5806226490823
 20
93.08327176627996
 30
0.0
 10
182.0908663824287
 20
91.71872327418945
 30
0.0
 10
183.6638969809937
 20
90.54538834745372
 30
0.0
 10
185.3953373763399
 20
89.49023096178542
 30
0.0
 10
186.8011516527897
 20
88.63509904976778
 30
0.0
 10
188.218614658349
 20
87.90167051872826
 30
0.0
 10
189.7327341241163
 20
87.24550363690715
 30
0.0
 10
191.3227102860994
 20
86.56005882642315
 30
0.0
 10
192.8932647222845
 20
85.99667267238919
 30
0.0
 10
194.5456832399378
 20
85.5190101833593
 30
0.0
 10
196.1137830455896
 20
85.06674989057144
 30
0.0
 10
197.6504894186321
 20
84.70656515758856
 30
0.0
 10
199.2496166154979
 20
84.41622973556912
 30
0.0
 10
200.8589929714324
 20
84.12659948153182
 30
0.0
 10
202.4232170446633
 20
83.91352032576913
 30
0.0
 10
204.0410554163834
 20
83.76323880114849
 30
0.0
 10
206.0755134915041
 20
83.57802723808445
 30
0.0
 10
208.0486058032938
 20
83.48806718222586
 30
0.0
 10
210.0844849803022
 20
83.48806718222586
 30
0.0
 10
210.0844849803022
 20
83.48806718222586
 30
0.0
 10
210.2287698855938
 20
83.48842245769779
 30
0.0
 10
210.2287698855938
 20
83.48842245769779
 30
0.0
 10
212.1443506346267
 20
83.48912762567991
 30
0.0
 10
214.0066615947188
 20
83.5695598393371
 30
0.0
 10
215.9176560603869
 20
83.73466065750601
 30
0.0
 10
217.6794348278501
 20
83.88494218212663
 30
0.0
 10
219.3844125835003
 20
84.11425096740188
 30
0.0
 10
221.1243149946321
 20
84.43457486902808
 30
0.0
 10
222.8127132282595
 20
84.74183970558049
 30
0.0
 10
224.4407792272014
 20
85.13342325413439
 30
0.0
 10
226.0903555410794
 20
85.62907560115133
 30
0.0
 10
227.5554469917222
 20
86.06652198335263
 30
0.0
 10
228.9570410262026
 20
86.57628845593569
 30
0.0
 10
230.3653314650324
 20
87.18377183218084
 30
0.0
 10
231.8325330366599
 20
87.81206573834159
 30
0.0
 10
233.2210572401431
 20
88.52467835650381
 30
0.0
 10
234.597609736815
 20
89.35652895918757
 30
0.0
 10
237.7577742935879
 20
91.25870613359808
 30
0.0
 10
240.4328909378844
 20
93.58138950975353
 30
0.0
 10
242.7665340240523
 20
96.45088490088186
 30
0.0
 10
243.8573158502228
 20
97.79744353498532
 30
0.0
 10
244.807343993974
 20
99.17220888837427
 30
0.0
 10
245.6797713619199
 20
100.6626971522974
 30
0.0
 10
246.5246594978307
 20
102.1126194168818
 30
0.0
 10
247.2489262280641
 20
103.5621756400708
 30
0.0
 10
247.899080341671
 20
105.1020579605137
 30
0.0
 10
248.5058693158575
 20
106.54738317581
 30
0.0
 10
249.01985603041
 20
107.9722531366625
 30
0.0
 10
249.4731875325753
 20
109.4666171330066
 30
0.0
 10
250.0104717053468
 20
111.2470963094007
 30
0.0
 10
250.4390846474054
 20
112.9975708573029
 30
0.0
 10
250.7862210812379
 20
114.8260229883291
 30
0.0
 10
251.1340680660143
 20
116.6689337544699
 30
0.0
 10
251.3919334630852
 20
118.4642160755271
 30
0.0
 10
251.5746742467309
 20
120.3205411822137
 30
0.0
 10
251.8103403097688
 20
122.7561160310514
 30
0.0
 10
251.924631352492
 20
125.1165447346171
 30
0.0
 10
251.924631352492
 20
127.5461229641258
 30
0.0
 10
251.924631352492
 20
127.5461229641258
 30
0.0
 10
251.924631352492
 20
245.8332073020942
 30
0.0
 10
251.924631352492
 20
245.8332073020942
 30
0.0
 10
251.924631352492
 20
253.8655981488817
 30
0.0
 10
258.4587932364378
 20
260.4004705837714
 30
0.0
 10
266.490129022733
 20
260.4004705837714
 30
0.0
 10
266.490129022733
 20
260.4004705837714
 30
0.0
 10
291.4410392880338
 20
260.4004705837714
 30
0.0
 10
291.4410392880338
 20
260.4004705837714
 30
0.0
 10
299.4730856252728
 20
260.4004705837714
 30
0.0
 10
306.0072259773719
 20
253.865964190277
 30
0.0
 10
306.0072259773719
 20
245.8342623625866
 30
0.0
 10
306.0072259773719
 20
245.8342623625866
 30
0.0
 10
306.0072259773719
 20
127.0617640707465
 30
0.0
 10
306.0072259773719
 20
127.0617640707465
 30
0.0
 10
306.0072259773719
 20
125.6397147818225
 30
0.0
 10
305.987481273872
 20
124.2730561687473
 30
0.0
 10
305.9465492331379
 20
122.8841766897922
 30
0.0
 10
305.858010279167
 20
119.8001918069369
 30
0.0
 10
305.6657524192433
 20
116.8033463080116
 30
0.0
 10
305.3588374752011
 20
113.7186508742125
 30
0.0
 10
305.0388527001617
 20
110.4967329808665
 30
0.0
 10
304.5993015799374
 20
107.3859409487666
 30
0.0
 10
304.0147550034776
 20
104.2056441152517
 30
0.0
 10
303.4735950982853
 20
101.247954279701
 30
0.0
 10
302.8255295738162
 20
98.40456625279687
 30
0.0
 10
302.032834634507
 20
95.50685337645965
 30
0.0
 10
301.220394991698
 20
92.52835301099336
 30
0.0
 10
300.2918771628828
 20
89.67790792130612
 30
0.0
 10
299.1922672795314
 20
86.78795189277241
 30
0.0
 10
298.1674590319034
 20
84.08990921461393
 30
0.0
 10
297.0449177317284
 20
81.52486337107115
 30
0.0
 10
295.7597463928027
 20
78.94323262254393
 30
0.0
 10
294.250923761344
 20
75.9068761847722
 30
0.0
 10
292.6066227499278
 20
73.05749153853901
 30
0.0
 10
290.7305529397414
 20
70.22750708625714
 30
0.0
 10
287.8268326781518
 20
65.84530256532578
 30
0.0
 10
284.6052592943544
 20
61.91394800121802
 30
0.0
 10
280.8802928646215
 20
58.20695528058715
 30
0.0
 10
278.0633459455667
 20
55.40730920042226
 30
0.0
 10
275.1331845761277
 20
52.91035243936844
 30
0.0
 10
271.9243149819321
 20
50.57531516612137
 30
0.0
 10
269.1278448491677
 20
48.54402227247771
 30
0.0
 10
266.2925743285007
 20
46.74732423249448
 30
0.0
 10
263.2600936231498
 20
45.08538863856318
 30
0.0
 10
260.6774131970919
 20
43.67286450035972
 30
0.0
 10
258.1000080734959
 20
42.42720679176136
 30
0.0
 10
255.3836148789167
 20
41.27997384628808
 30
0.0
 10
252.5977384147694
 20
40.10557578461743
 30
0.0
 10
249.8351378769943
 20
39.09310528519608
 30
0.0
 10
246.9420112840219
 20
38.18646650419308
 30
0.0
 10
243.9649104885964
 20
37.25654372237532
 30
0.0
 10
241.0305073453413
 20
36.48043099656973
 30
0.0
 10
237.9750952231668
 20
35.81615199147321
 30
0.0
 10
235.0671547196078
 20
35.18538461441329
 30
0.0
 10
232.2174147979027
 20
34.67950194869368
 30
0.0
 10
229.2674871931172
 20
34.26992585067189
 30
0.0
 10
226.1595158329458
 20
33.84094955869878
 30
0.0
 10
223.1224488442302
 20
33.53085597577527
 30
0.0
 10
219.9890699048552
 20
33.32236579485816
 30
0.0
 10
216.7064752672752
 20
33.1064659671669
 30
0.0
 10
213.5067782398091
 20
33.00133672524983
 30
0.0
 10
210.2129009145149
 20
33.00098414125876
 30
0.0
 10
210.2129009145149
 20
33.00098414125876
 30
0.0
 10
209.5429805655613
 20
33.00239716870389
 30
0.0
 10
209.5429805655613
 20
33.00239716870389
 30
0.0
  0
SPLINE
  5
80
330
79
100
AcDbEntity
  8
レイヤー 1
 62
     1
370
    18
100
AcDbSpline
210
0.0
220
0.0
230
1.0
 70
     9
 71
     3
 72
   209
 73
   205
 74
     0
 42
0.0000000001
 43
0.0000000001
 40
0.0
 40
0.0
 40
0.0
 40
0.0
 40
1.0
 40
1.0
 40
1.0
 40
2.0
 40
2.0
 40
2.0
 40
3.0
 40
3.0
 40
3.0
 40
4.0
 40
4.0
 40
4.0
 40
5.0
 40
5.0
 40
5.0
 40
6.0
 40
6.0
 40
6.0
 40
7.0
 40
7.0
 40
7.0
 40
8.0
 40
8.0
 40
8.0
 40
9.0
 40
9.0
 40
9.0
 40
10.0
 40
10.0
 40
10.0
 40
11.0
 40
11.0
 40
11.0
 40
12.0
 40
12.0
 40
12.0
 40
13.0
 40
13.0
 40
13.0
 40
14.0
 40
14.0
 40
14.0
 40
15.0
 40
15.0
 40
15.0
 40
16.0
 40
16.0
 40
16.0
 40
17.0
 40
17.0
 40
17.0
 40
18.0
 40
18.0
 40
18.0
 40
19.0
 40
19.0
 40
19.0
 40
20.0
 40
20.0
 40
20.0
 40
21.0
 40
21.0
 40
21.0
 40
22.0
 40
22.0
 40
22.0
 40
23.0
 40
23.0
 40
23.0
 40
24.0
 40
24.0
 40
24.0
 40
25.0
 40
25.0
 40
25.0
 40
26.0
 40
26.0
 40
26.0
 40
27.0
 40
27.0
 40
27.0
 40
28.0
 40
28.0
 40
28.0
 40
29.0
 40
29.0
 40
29.0
 40
30.0
 40
30.0
 40
30.0
 40
31.0
 40
31.0
 40
31.0
 40
32.0
 40
32.0
 40
32.0
 40
33.0
 40
33.0
 40
33.0
 40
34.0
 40
34.0
 40
34.0
 40
35.0
 40
35.0
 40
35.0
 40
36.0
 40
36.0
 40
36.0
 40
37.0
 40
37.0
 40
37.0
 40
38.0
 40
38.0
 40
38.0
 40
39.0
 40
39.0
 40
39.0
 40
40.0
 40
40.0
 40
40.0
 40
41.0
 40
41.0
 40
41.0
 40
42.0
 40
42.0
 40
42.0
 40
43.0
 40
43.0
 40
43.0
 40
44.0
 40
44.0
 40
44.0
 40
45.0
 40
45.0
 40
45.0
 40
46.0
 40
46.0
 40
46.0
 40
47.0
 40
47.0
 40
47.0
 40
48.0
 40
48.0
 40
48.0
 40
49.0
 40
49.0
 40
49.0
 40
50.0
 40
50.0
 40
50.0
 40
51.0
 40
51.0
 40
51.0
 40
52.0
 40
52.0
 40
52.0
 40
53.0
 40
53.0
 40
53.0
 40
54.0
 40
54.0
 40
54.0
 40
55.0
 40
55.0
 40
55.0
 40
56.0
 40
56.0
 40
56.0
 40
57.0
 40
57.0
 40
57.0
 40
58.0
 40
58.0
 40
58.0
 40
59.0
 40
59.0
 40
59.0
 40
60.0
 40
60.0
 40
60.0
 40
61.0
 40
61.0
 40
61.0
 40
62.0
 40
62.0
 40
62.0
 40
63.0
 40
63.0
 40
63.0
 40
64.0
 40
64.0
 40
64.0
 40
65.0
 40
65.0
 40
65.0
 40
66.0
 40
66.0
 40
66.0
 40
67.0
 40
67.0
 40
67.0
 40
68.0
 40
68.0
 40
68.0
 40
68.0
 10
209.530922731363
 20
27.20241204747322
 30
0.0
 10
206.4070608682659
 20
27.21334753415804
 30
0.0
 10
203.3735251024227
 20
27.31600599665679
 30
0.0
 10
200.2578022774095
 20
27.51708922228062
 30
0.0
 10
196.9748415984342
 20
27.72663715517094
 30
0.0
 10
193.7956213572585
 20
28.04555072083286
 30
0.0
 10
190.538068257487
 20
28.49216697828278
 30
0.0
 10
187.3383712300209
 20
28.92855291703002
 30
0.0
 10
184.2462688409284
 20
29.47570944155143
 30
0.0
 10
181.0850276918164
 20
30.16539064288997
 30
0.0
 10
178.0641957155751
 20
30.82261527668427
 30
0.0
 10
175.1587206084727
 20
31.58391140042244
 30
0.0
 10
172.2027963843581
 20
32.49266568537185
 30
0.0
 10
169.3198974186075
 20
33.37708090901414
 30
0.0
 10
166.5636487756334
 20
34.35886045232744
 30
0.0
 10
163.7770509946189
 20
35.4941001591427
 30
0.0
 10
160.8444134627999
 20
36.68684066279146
 30
0.0
 10
158.0609916291859
 20
37.98612343580241
 30
0.0
 10
155.2673529342734
 20
39.46708385752418
 30
0.0
 10
151.9858133571858
 20
41.20345504578366
 30
0.0
 10
148.9138217129886
 20
43.08658461023394
 30
0.0
 10
145.8763994488011
 20
45.22370922229597
 30
0.0
 10
141.3788380587308
 20
48.38495037140799
 30
0.0
 10
137.3472904285809
 20
51.85487207599841
 30
0.0
 10
133.5506983105251
 20
55.83208947375357
 30
0.0
 10
130.3488911620742
 20
59.18876981315149
 30
0.0
 10
127.5245480536495
 20
62.68656449340226
 30
0.0
 10
124.9161155388393
 20
66.52584349770503
 30
0.0
 10
122.7832138602276
 20
69.67086040026621
 30
0.0
 10
120.9134959448421
 20
72.84938623938313
 30
0.0
 10
119.2004114488783
 20
76.24275146273728
 30
0.0
 10
117.6640603513077
 20
79.29392719405727
 30
0.0
 10
116.3347917901708
 20
82.33169935075498
 30
0.0
 10
115.1367598351752
 20
85.52998065929513
 30
0.0
 10
113.9919976691203
 20
88.5938547972553
 30
0.0
 10
113.0243241769305
 20
91.61574721695066
 30
0.0
 10
112.1790699996245
 20
94.76746052386131
 30
0.0
 10
111.3207675231681
 20
97.97633011805693
 30
0.0
 10
110.626849930975
 20
101.1231126320543
 30
0.0
 10
110.0567619896299
 20
104.3870068607034
 30
0.0
 10
109.4827875499405
 20
107.6918331300866
 30
0.0
 10
109.0559294533946
 20
110.9165716953611
 30
0.0
 10
108.751835181281
 20
114.2460949930042
 30
0.0
 10
108.3757707112958
 20
118.4014615080787
 30
0.0
 10
108.1926854181016
 20
122.451698781236
 30
0.0
 10
108.1926854181016
 20
126.6275313166775
 30
0.0
 10
108.1926854181016
 20
126.6275313166775
 30
0.0
 10
108.1926854181016
 20
245.8332718976346
 30
0.0
 10
108.1926854181016
 20
245.8332718976346
 30
0.0
 10
108.1926854181016
 20
257.0639386700005
 30
0.0
 10
117.3289279220566
 20
266.2005256835041
 30
0.0
 10
128.5588949094021
 20
266.2005256835041
 30
0.0
 10
128.5588949094021
 20
266.2005256835041
 30
0.0
 10
153.510160450175
 20
266.2005256835041
 30
0.0
 10
153.510160450175
 20
266.2005256835041
 30
0.0
 10
164.7397829279719
 20
266.2005256835041
 30
0.0
 10
173.876025431927
 20
257.0643047113958
 30
0.0
 10
173.876025431927
 20
245.8346714676755
 30
0.0
 10
173.876025431927
 20
245.8346714676755
 30
0.0
 10
173.876025431927
 20
127.6188360107114
 30
0.0
 10
173.876025431927
 20
127.6188360107114
 30
0.0
 10
173.876025431927
 20
126.5633341154946
 30
0.0
 10
173.8989568487507
 20
125.534628603599
 30
0.0
 10
173.9465745279109
 20
124.4738298740736
 30
0.0
 10
174.0266622320196
 20
122.5938735655429
 30
0.0
 10
174.1882264443544
 20
120.7721286047896
 30
0.0
 10
174.4404612634916
 20
118.904165534917
 30
0.0
 10
174.6680098202924
 20
117.2023637266673
 30
0.0
 10
174.9713935414622
 20
115.5654804364678
 30
0.0
 10
175.368268541363
 20
113.9000136196641
 30
0.0
 10
175.7270429383816
 20
112.3848390934044
 30
0.0
 10
176.1556666463636
 20
110.9384480516925
 30
0.0
 10
176.6774263576047
 20
109.4786534353582
 30
0.0
 10
177.1423958229561
 20
108.1719610155731
 30
0.0
 10
177.6662656551819
 20
106.9358284576953
 30
0.0
 10
178.2783406977535
 20
105.7004064507613
 30
0.0
 10
178.9362678080491
 20
104.3640754438797
 30
0.0
 10
179.6693410636167
 20
103.1191255947443
 30
0.0
 10
180.5188262488156
 20
101.8946310000526
 30
0.0
 10
181.6755816535286
 20
100.2217572279556
 30
0.0
 10
182.9699255591837
 20
98.74503858005008
 30
0.0
 10
184.4752169677701
 20
97.38120063890342
 30
0.0
 10
185.7067740082065
 20
96.26817641500631
 30
0.0
 10
186.9947660190608
 20
95.30756536856136
 30
0.0
 10
188.4132840851124
 20
94.4432662727759
 30
0.0
 10
189.5855639513558
 20
93.73029299618005
 30
0.0
 10
190.7716026676934
 20
93.11646310809567
 30
0.0
 10
192.0394839336524
 20
92.56684118711763
 30
0.0
 10
193.3934495230492
 20
91.98333890522683
 30
0.0
 10
194.7400081571527
 20
91.50039034781176
 30
0.0
 10
196.1571051213166
 20
91.09046704876059
 30
0.0
 10
197.5308154142132
 20
90.69464710935216
 30
0.0
 10
198.8816158221329
 20
90.37820432310857
 30
0.0
 10
200.2856644871465
 20
90.12279355657087
 30
0.0
 10
201.7221831771085
 20
89.86456211810461
 30
0.0
 10
203.1262318421221
 20
89.67335393571154
 30
0.0
 10
204.5775644426707
 20
89.5382415971494
 30
0.0
 10
206.4250614921763
 20
89.36997021454173
 30
0.0
 10
208.2263296666392
 20
89.28812228195857
 30
0.0
 10
210.0844203847619
 20
89.28812228195857
 30
0.0
 10
210.0844203847619
 20
89.28812228195857
 30
0.0
 10
210.2223533952526
 20
89.28847755743047
 30
0.0
 10
210.2223533952526
 20
89.28847755743047
 30
0.0
 10
211.9753041055348
 20
89.28882744994071
 30
0.0
 10
213.6749850268764
 20
89.36255787628676
 30
0.0
 10
215.4187631704292
 20
89.51284478386908
 30
0.0
 10
216.9970906033028
 20
89.64795712243121
 30
0.0
 10
218.5200381262511
 20
89.85256887944657
 30
0.0
 10
220.0743790818087
 20
90.1386679106115
 30
0.0
 10
221.5585262168543
 20
90.40889797069748
 30
0.0
 10
222.9805755057783
 20
90.75073757022138
 30
0.0
 10
224.4209483963145
 20
91.18359228609625
 30
0.0
 10
225.6768364236155
 20
91.55894620513761
 30
0.0
 10
226.8699375856979
 20
91.9925114719563
 30
0.0
 10
228.0686800916374
 20
92.50968489983264
 30
0.0
 10
229.2991605397347
 20
93.03674144538232
 30
0.0
 10
230.4538058234629
 20
93.62905025260728
 30
0.0
 10
231.597168419477
 20
94.32049168242031
 30
0.0
 10
234.1816144569711
 20
95.87624297394219
 30
0.0
 10
236.3635441507073
 20
97.76995813256707
 30
0.0
 10
238.2667871515336
 20
100.110286857161
 30
0.0
 10
239.1631794649488
 20
101.2176589712776
 30
0.0
 10
239.9505775699494
 20
102.3564245180035
 30
0.0
 10
240.6734231982952
 20
103.5918465249375
 30
0.0
 10
241.3874623013068
 20
104.8166963951012
 30
0.0
 10
242.002691759432
 20
106.0482426696142
 30
0.0
 10
242.5547898427901
 20
107.3566899349121
 30
0.0
 10
243.081135837396
 20
108.6083469543203
 30
0.0
 10
243.5281154447603
 20
109.848710520091
 30
0.0
 10
243.9225142822811
 20
111.1494063205471
 30
0.0
 10
244.3980666503263
 20
112.7256128665126
 30
0.0
 10
244.7794171886966
 20
114.2817194335064
 30
0.0
 10
245.088097744175
 20
115.9076753114636
 30
0.0
 10
245.4031301944544
 20
117.575252249252
 30
0.0
 10
245.6366646046607
 20
119.2043840746097
 30
0.0
 10
245.8024598248884
 20
120.8885405344209
 30
0.0
 10
246.019414713072
 20
123.127626515442
 30
0.0
 10
246.1245547209125
 20
125.3049699258135
 30
0.0
 10
246.1245547209125
 20
127.5458107523475
 30
0.0
 10
246.1245547209125
 20
127.5458107523475
 30
0.0
 10
246.1245547209125
 20
245.8332718976346
 30
0.0
 10
246.1245547209125
 20
245.8332718976346
 30
0.0
 10
246.1245547209125
 20
257.063594160452
 30
0.0
 10
255.2604311834723
 20
266.2005256835041
 30
0.0
 10
266.4900644271926
 20
266.2005256835041
 30
0.0
 10
266.4900644271926
 20
266.2005256835041
 30
0.0
 10
291.441319202042
 20
266.2005256835041
 30
0.0
 10
291.441319202042
 20
266.2005256835041
 30
0.0
 10
302.671296955311
 20
266.2005256835041
 30
0.0
 10
311.8071949497175
 20
257.0643047113958
 30
0.0
 10
311.8071949497175
 20
245.8343269581269
 30
0.0
 10
311.8071949497175
 20
245.8343269581269
 30
0.0
 10
311.8071949497175
 20
127.0618071344401
 30
0.0
 10
311.8071949497175
 20
127.0618071344401
 30
0.0
 10
311.8071949497175
 20
125.5822570486825
 30
0.0
 10
311.7863736538785
 20
124.1598524842866
 30
0.0
 10
311.7440420431035
 20
122.7134614425747
 30
0.0
 10
311.6516273567117
 20
119.4957745571215
 30
0.0
 10
311.4508859491555
 20
116.3655823310703
 30
0.0
 10
311.1298676454706
 20
113.1436644377243
 30
0.0
 10
310.7947244502962
 20
109.7629922380486
 30
0.0
 10
310.3329309323452
 20
106.4962665715476
 30
0.0
 10
309.7191010442608
 20
103.1565156466826
 30
0.0
 10
309.1483133178952
 20
100.0386719347614
 30
0.0
 10
308.4639235679036
 20
97.03617432605563
 30
0.0
 10
307.6271314063832
 20
93.97654196191167
 30
0.0
 10
306.7663527675467
 20
90.81953182069247
 30
0.0
 10
305.7803449078214
 20
87.79340301014258
 30
0.0
 10
304.6129958344913
 20
84.72564775679982
 30
0.0
 10
303.5207929064332
 20
81.84980585383225
 30
0.0
 10
302.3231054609861
 20
79.11260212933751
 30
0.0
 10
300.9518713304695
 20
76.35846360734809
 30
0.0
 10
299.336853630678
 20
73.10832284583153
 30
0.0
 10
297.5747303536662
 20
70.05468171805491
 30
0.0
 10
295.5642372240148
 20
67.02220101270409
 30
0.0
 10
292.4428730551445
 20
62.31121057436089
 30
0.0
 10
288.9782266530159
 20
58.08281341796085
 30
0.0
 10
284.9717313265978
 20
54.09536839298386
 30
0.0
 10
281.9396166626423
 20
51.08229326454605
 30
0.0
 10
278.7878925898082
 20
48.3965937175558
 30
0.0
 10
275.3366605282253
 20
45.88516755546392
 30
0.0
 10
272.3359392968792
 20
43.70570864114606
 30
0.0
 10
269.2974727381227
 20
41.78024746592077
 30
0.0
 10
266.0469820840959
 20
39.99907119598711
 30
0.0
 10
263.2878912373465
 20
38.48988790609476
 30
0.0
 10
260.5379944891732
 20
37.16097462042981
 30
0.0
 10
257.6406261223846
 20
35.93718788520109
 30
0.0
 10
254.6790497884896
 20
34.68870950467418
 30
0.0
 10
251.7467782980659
 20
33.61414654209288
 30
0.0
 10
248.6765522653048
 20
32.65212246820281
 30
0.0
 10
245.5297589853841
 20
31.66892989744437
 30
0.0
 10
242.4323812938299
 20
30.84978039288163
 30
0.0
 10
239.2076427285553
 20
30.14881112086721
 30
0.0
 10
236.1518860968323
 20
29.48594245173496
 30
0.0
 10
233.1610264513126
 20
28.9550101737644
 30
0.0
 10
230.0653928393478
 20
28.52497343833724
 30
0.0
 10
226.8159572458134
 20
28.07659426093197
 30
0.0
 10
223.6459095713672
 20
27.75274451939509
 30
0.0
 10
220.3738870705576
 20
27.53507908026766
 30
0.0
 10
216.9551250339231
 20
27.31036196131884
 30
0.0
 10
213.6273781136396
 20
27.20135160401917
 30
0.0
 10
210.2018981408089
 20
27.2009990200281
 30
0.0
 10
210.2018981408089
 20
27.2009990200281
 30
0.0
 10
209.530922731363
 20
27.20241204747322
 30
0.0
 10
209.530922731363
 20
27.20241204747322
 30
0.0
  0
LINE
  5
81
330
79
100
AcDbEntity
  8
レイヤー 1
 62
    29
370
    25
100
AcDbLine
 10
0.0
 20
148.5000011496697
 30
0.0
 11
2.645833332671875
 21
148.5000011496697
 31
0.0
  0
LWPOLYLINE
  5
82
330
79
100
AcDbEntity
  8
レイヤー 1
100
AcDbPolyline
 90
        4
 70
     1
 43
0.0
 10
0.0
 20
297.0000884267266
 10
419.9999449633593
 20
297.0000884267266
 10
419.9999449633593
 20
0.0
 10
0.0
 20
0.0
  0
ENDBLK
  5
7C
330
79
100
AcDbEntity
  8
0
100
AcDbBlockEnd
  0
BLOCK
  5
89
330
87
100
AcDbEntity
  8
0
100
AcDbBlockBegin
  2
Block_1
 70
     0
 10
0.0
 20
0.0
 30
0.0
  3
Block_1
  1

  0
LINE
  5
8B
330
87
100
AcDbEntity
  8
レイヤー 1
 62
    29
370
    25
100
AcDbLine
 10
417.3541546943811
 20
148.5000011496697
 30
0.0
 11
419.9999880270529
 21
148.5000011496697
 31
0.0
  0
LINE
  5
8C
330
87
100
AcDbEntity
  8
レイヤー 1
  6
AI-Linetype-2
 62
    29
370
    25
100
AcDbLine
 10
209.9999940135265
 20
297.0000022993394
 30
0.0
 11
209.9999940135265
 21
-0.0000861273871312
 31
0.0
  0
LINE
  5
8E
330
87
100
AcDbEntity
  8
レイヤー 1
 62
    29
370
    25
100
AcDbLine
 10
0.0
 20
248.4999911216858
 30
0.0
 11
0.3527777776895833
 21
248.4999911216858
 31
0.0
  0
LWPOLYLINE
  5
8F
330
87
100
AcDbEntity
  8
レイヤー 1
100
AcDbPolyline
 90
        4
 70
     1
 43
0.0
 10
0.0
 20
297.0000884267266
 10
419.9999449633593
 20
297.0000884267266
 10
419.9999449633593
 20
0.0
 10
0.0
 20
0.0
  0
ENDBLK
  5
8A
330
87
100
AcDbEntity
  8
0
100
AcDbBlockEnd
  0
BLOCK
  5
96
330
94
100
AcDbEntity
  8
0
100
AcDbBlockBegin
  2
Block_2
 70
     0
 10
0.0
 20
0.0
 30
0.0
  3
Block_2
  1

  0
LINE
  5
98
330
94
100
AcDbEntity
  8
レイヤー 1
 62
    29
370
    25
100
AcDbLine
 10
419.6472102493634
 20
248.4999911216858
 30
0.0
 11
419.9999880270529
 21
248.4999911216858
 31
0.0
  0
LINE
  5
99
330
94
100
AcDbEntity
  8
レイヤー 1
 62
    29
370
    25
100
AcDbLine
 10
0.0
 20
48.49999502876856
 30
0.0
 11
0.3527777776895833
 21
48.49999502876856
 31
0.0
  0
LWPOLYLINE
  5
9A
330
94
100
AcDbEntity
  8
レイヤー 1
100
AcDbPolyline
 90
        4
 70
     1
 43
0.0
 10
0.0
 20
297.0000884267266
 10
419.9999449633593
 20
297.0000884267266
 10
419.9999449633593
 20
0.0
 10
0.0
 20
0.0
  0
ENDBLK
  5
97
330
94
100
AcDbEntity
  8
0
100
AcDbBlockEnd
  0
BLOCK
  5
A1
330
9F
100
AcDbEntity
  8
0
100
AcDbBlockBegin
  2
Block_3
 70
     0
 10
0.0
 20
0.0
 30
0.0
  3
Block_3
  1

  0
LINE
  5
A3
330
9F
100
AcDbEntity
  8
レイヤー 1
 62
    29
370
    25
100
AcDbLine
 10
419.6472102493634
 20
48.49999502876856
 30
0.0
 11
419.9999880270529
 21
48.49999502876856
 31
0.0
  0
LINE
  5
A4
330
9F
100
AcDbEntity
  8
レイヤー 1
 62
    29
370
    18
100
AcDbLine
 10
0.0
 20
267.5056139807039
 30
0.0
 11
419.9999449633593
 21
267.5056139807039
 31
0.0
  0
LWPOLYLINE
  5
A5
330
9F
100
AcDbEntity
  8
レイヤー 1
100
AcDbPolyline
 90
        4
 70
     1
 43
0.0
 10
0.0
 20
297.0000884267266
 10
419.9999449633593
 20
297.0000884267266
 10
419.9999449633593
 20
0.0
 10
0.0
 20
0.0
  0
ENDBLK
  5
A2
330
9F
100
AcDbEntity
  8
0
100
AcDbBlockEnd
  0
BLOCK
  5
AA
330
A8
100
AcDbEntity
  8
0
100
AcDbBlockBegin
  2
Block_4
 70
     0
 10
0.0
 20
0.0
 30
0.0
  3
Block_4
  1

  0
SPLINE
  5
AC
330
A8
100
AcDbEntity
  8
レイヤー 1
  6
AI-Linetype-7
 62
   255
370
    18
100
AcDbSpline
210
0.0
220
0.0
230
1.0
 70
     9
 71
     3
 72
   239
 73
   235
 74
     0
 42
0.0000000001
 43
0.0000000001
 40
0.0
 40
0.0
 40
0.0
 40
0.0
 40
1.0
 40
1.0
 40
1.0
 40
2.0
 40
2.0
 40
2.0
 40
3.0
 40
3.0
 40
3.0
 40
4.0
 40
4.0
 40
4.0
 40
5.0
 40
5.0
 40
5.0
 40
6.0
 40
6.0
 40
6.0
 40
7.0
 40
7.0
 40
7.0
 40
8.0
 40
8.0
 40
8.0
 40
9.0
 40
9.0
 40
9.0
 40
10.0
 40
10.0
 40
10.0
 40
11.0
 40
11.0
 40
11.0
 40
12.0
 40
12.0
 40
12.0
 40
13.0
 40
13.0
 40
13.0
 40
14.0
 40
14.0
 40
14.0
 40
15.0
 40
15.0
 40
15.0
 40
16.0
 40
16.0
 40
16.0
 40
17.0
 40
17.0
 40
17.0
 40
18.0
 40
18.0
 40
18.0
 40
19.0
 40
19.0
 40
19.0
 40
20.0
 40
20.0
 40
20.0
 40
21.0
 40
21.0
 40
21.0
 40
22.0
 40
22.0
 40
22.0
 40
23.0
 40
23.0
 40
23.0
 40
24.0
 40
24.0
 40
24.0
 40
25.0
 40
25.0
 40
25.0
 40
26.0
 40
26.0
 40
26.0
 40
27.0
 40
27.0
 40
27.0
 40
28.0
 40
28.0
 40
28.0
 40
29.0
 40
29.0
 40
29.0
 40
30.0
 40
30.0
 40
30.0
 40
31.0
 40
31.0
 40
31.0
 40
32.0
 40
32.0
 40
32.0
 40
33.0
 40
33.0
 40
33.0
 40
34.0
 40
34.0
 40
34.0
 40
35.0
 40
35.0
 40
35.0
 40
36.0
 40
36.0
 40
36.0
 40
37.0
 40
37.0
 40
37.0
 40
38.0
 40
38.0
 40
38.0
 40
39.0
 40
39.0
 40
39.0
 40
40.0
 40
40.0
 40
40.0
 40
41.0
 40
41.0
 40
41.0
 40
42.0
 40
42.0
 40
42.0
 40
43.0
 40
43.0
 40
43.0
 40
44.0
 40
44.0
 40
44.0
 40
45.0
 40
45.0
 40
45.0
 40
46.0
 40
46.0
 40
46.0
 40
47.0
 40
47.0
 40
47.0
 40
48.0
 40
48.0
 40
48.0
 40
49.0
 40
49.0
 40
49.0
 40
50.0
 40
50.0
 40
50.0
 40
51.0
 40
51.0
 40
51.0
 40
52.0
 40
52.0
 40
52.0
 40
53.0
 40
53.0
 40
53.0
 40
54.0
 40
54.0
 40
54.0
 40
55.0
 40
55.0
 40
55.0
 40
56.0
 40
56.0
 40
56.0
 40
57.0
 40
57.0
 40
57.0
 40
58.0
 40
58.0
 40
58.0
 40
59.0
 40
59.0
 40
59.0
 40
60.0
 40
60.0
 40
60.0
 40
61.0
 40
61.0
 40
61.0
 40
62.0
 40
62.0
 40
62.0
 40
63.0
 40
63.0
 40
63.0
 40
64.0
 40
64.0
 40
64.0
 40
65.0
 40
65.0
 40
65.0
 40
66.0
 40
66.0
 40
66.0
 40
67.0
 40
67.0
 40
67.0
 40
68.0
 40
68.0
 40
68.0
 40
69.0
 40
69.0
 40
69.0
 40
70.0
 40
70.0
 40
70.0
 40
71.0
 40
71.0
 40
71.0
 40
72.0
 40
72.0
 40
72.0
 40
73.0
 40
73.0
 40
73.0
 40
74.0
 40
74.0
 40
74.0
 40
75.0
 40
75.0
 40
75.0
 40
76.0
 40
76.0
 40
76.0
 40
77.0
 40
77.0
 40
77.0
 40
78.0
 40
78.0
 40
78.0
 40
78.0
 10
209.5616702085688
 20
37.20246379769944
 30
0.0
 10
209.77757003626
 20
37.20140335424539
 30
0.0
 10
209.983586746278
 20
37.20105077025432
 30
0.0
 10
210.1994865739692
 20
37.20105077025432
 30
0.0
 10
213.4235145883
 20
37.20105077025432
 30
0.0
 10
216.4965612929896
 20
37.30194631279772
 30
0.0
 10
219.7138929029708
 20
37.51325985712424
 30
0.0
 10
222.7640081908368
 20
37.71610600270341
 30
0.0
 10
225.6645632709493
 20
38.0124407355327
 30
0.0
 10
228.6931467120325
 20
38.43048154082099
 30
0.0
 10
231.5524252418624
 20
38.82770912471283
 30
0.0
 10
234.2638661116815
 20
39.30889745365341
 30
0.0
 10
237.0853777822543
 20
39.92061452927224
 30
0.0
 10
240.0310851450704
 20
40.56125964104377
 30
0.0
 10
242.8116647749091
 20
41.29644840055777
 30
0.0
 10
245.6889223968026
 20
42.19532764227642
 30
0.0
 10
248.4649372751233
 20
43.0652761563615
 30
0.0
 10
251.0719702198926
 20
44.02059844294043
 30
0.0
 10
253.7527282080462
 20
45.15019411441775
 30
0.0
 10
256.3488229746498
 20
46.24733321835082
 30
0.0
 10
258.7713495243371
 20
47.41784747315802
 30
0.0
 10
261.2443036591898
 20
48.7703973436288
 30
0.0
 10
264.132499459249
 20
50.35296116735697
 30
0.0
 10
266.7906920719742
 20
52.03747290264004
 30
0.0
 10
269.4552150476535
 20
53.97316439656801
 30
0.0
 10
272.5025096635909
 20
56.19037402125785
 30
0.0
 10
275.2467650679071
 20
58.5285818589437
 30
0.0
 10
277.9194055498235
 20
61.18535336978125
 30
0.0
 10
281.4500039986479
 20
64.69902240407265
 30
0.0
 10
284.4782644620293
 20
68.39472167106592
 30
0.0
 10
287.2288717611464
 20
72.54726751421182
 30
0.0
 10
289.0160365759665
 20
75.24213962793155
 30
0.0
 10
290.5601499043022
 20
77.91725088926636
 30
0.0
 10
291.9991232247975
 20
80.81285364461884
 30
0.0
 10
293.2296252047416
 20
83.28405831692043
 30
0.0
 10
294.2858268849789
 20
85.69846736037062
 30
0.0
 10
295.2658488912986
 20
88.27939294091573
 30
0.0
 10
296.3217060619873
 20
91.05398133438711
 30
0.0
 10
297.1997747737903
 20
93.74849817263493
 30
0.0
 10
297.98082098399
 20
96.61235221990615
 30
0.0
 10
298.7463642645062
 20
99.41023268863487
 30
0.0
 10
299.3612492130829
 20
102.1086252593035
 30
0.0
 10
299.8837194752678
 20
104.961896403881
 30
0.0
 10
300.450975978761
 20
108.0476468981725
 30
0.0
 10
300.8693828254446
 20
111.0113333530523
 30
0.0
 10
301.17875240002
 20
114.1337633483383
 30
0.0
 10
301.4779158792204
 20
117.130264337715
 30
0.0
 10
301.6617117233585
 20
119.996228505971
 30
0.0
 10
301.7481405563446
 20
123.0064775795185
 30
0.0
 10
301.788362046135
 20
124.3703155206652
 30
0.0
 10
301.8077622400863
 20
125.6706560456494
 30
0.0
 10
301.8077622400863
 20
127.0352045377399
 30
0.0
 10
301.8077622400863
 20
127.0352045377399
 30
0.0
 10
301.8077622400863
 20
127.061311901964
 30
0.0
 10
301.8077622400863
 20
127.061311901964
 30
0.0
 10
301.8077622400863
 20
127.061311901964
 30
0.0
 10
301.8077622400863
 20
245.8334656842556
 30
0.0
 10
301.8077622400863
 20
245.8334656842556
 30
0.0
 10
301.8077622400863
 20
245.8334656842556
 30
0.0
 10
301.8077622400863
 20
245.8341547033527
 30
0.0
 10
301.8077622400863
 20
245.8341547033527
 30
0.0
 10
301.8077622400863
 20
251.5593866355151
 30
0.0
 10
297.1666157297448
 20
256.2001886363081
 30
0.0
 10
291.4417283071309
 20
256.2001886363081
 30
0.0
 10
291.4417283071309
 20
256.2001886363081
 30
0.0
 10
291.4413837975824
 20
256.2001886363081
 30
0.0
 10
291.4413837975824
 20
256.2001886363081
 30
0.0
 10
291.4413837975824
 20
256.2001886363081
 30
0.0
 10
266.4904735322815
 20
256.2001886363081
 30
0.0
 10
266.4904735322815
 20
256.2001886363081
 30
0.0
 10
260.7655861096676
 20
256.2005331458566
 30
0.0
 10
256.1244395993261
 20
251.5593866355151
 30
0.0
 10
256.1244395993261
 20
245.834520744748
 30
0.0
 10
256.1244395993261
 20
245.834520744748
 30
0.0
 10
256.1244395993261
 20
245.8334656842556
 30
0.0
 10
256.1244395993261
 20
245.8334656842556
 30
0.0
 10
256.1244395993261
 20
245.8334656842556
 30
0.0
 10
256.1244395993261
 20
127.6694896802679
 30
0.0
 10
256.1244395993261
 20
127.6694896802679
 30
0.0
 10
256.1244395993261
 20
127.6275133449648
 30
0.0
 10
256.1244395993261
 20
127.5876471306465
 30
0.0
 10
256.1244395993261
 20
127.5460260708153
 30
0.0
 10
256.1244395993261
 20
124.9580488104488
 30
0.0
 10
256.0048517222944
 20
122.4910697630784
 30
0.0
 10
255.7547377900653
 20
119.9150857413699
 30
0.0
 10
255.5585826658738
 20
117.9162521067514
 30
0.0
 10
255.2862478677648
 20
116.019361000726
 30
0.0
 10
254.9130148356316
 20
114.0459241793878
 30
0.0
 10
254.5365950901744
 20
112.061193904412
 30
0.0
 10
254.0779882855474
 20
110.1883000416261
 30
0.0
 10
253.4948412791285
 20
108.2543741591343
 30
0.0
 10
252.9953024337673
 20
106.6076077512615
 30
0.0
 10
252.4379290479474
 20
105.0620840869614
 30
0.0
 10
251.7708078390755
 20
103.4756391478507
 30
0.0
 10
251.0458520897451
 20
101.7555029720655
 30
0.0
 10
250.2482263575226
 20
100.1598854662252
 30
0.0
 10
249.3077152900494
 20
98.54768843836222
 30
0.0
 10
248.3220519398726
 20
96.86176636711486
 30
0.0
 10
247.259842874383
 20
95.3257705450162
 30
0.0
 10
246.0307619963265
 20
93.80847513184844
 30
0.0
 10
243.3986875137489
 20
90.56926716553586
 30
0.0
 10
240.3393996591534
 20
87.91144597716764
 30
0.0
 10
236.7636489276255
 20
85.75808904411223
 30
0.0
 10
235.217425478305
 20
84.82428514691187
 30
0.0
 10
233.6810851466579
 20
84.03547670594697
 30
0.0
 10
232.0205491227675
 20
83.32356925576688
 30
0.0
 10
230.4552699890442
 20
82.64905724048682
 30
0.0
 10
228.9256260617465
 20
82.09272814923593
 30
0.0
 10
227.2926292698913
 20
81.6048380329842
 30
0.0
 10
225.485353710176
 20
81.06191251635562
 30
0.0
 10
223.7334580603861
 20
80.64069576366687
 30
0.0
 10
221.8771329536996
 20
80.30238200405364
 30
0.0
 10
219.9940006977684
 20
79.95595612116499
 30
0.0
 10
218.1828494056322
 20
79.7125385932853
 30
0.0
 10
216.2750201214412
 20
79.54990855453472
 30
0.0
 10
214.2359757629558
 20
79.37386955820016
 30
0.0
 10
212.2847598074974
 20
79.28920633665014
 30
0.0
 10
210.237576410928
 20
79.28850116866801
 30
0.0
 10
210.185727723875
 20
79.28814589319609
 30
0.0
 10
210.1363336673553
 20
79.28814589319609
 30
0.0
 10
210.0844849803022
 20
79.28814589319609
 30
0.0
 10
207.9060649775916
 20
79.28814589319609
 30
0.0
 10
205.8296198012445
 20
79.38269223241942
 30
0.0
 10
203.6600493875616
 20
79.58059681916193
 30
0.0
 10
201.9053330658431
 20
79.7432268579125
 30
0.0
 10
200.2395002076441
 20
79.97042013924134
 30
0.0
 10
198.5052606722161
 20
80.28297642714063
 30
0.0
 10
196.7512333695948
 20
80.60118482482041
 30
0.0
 10
195.094594609972
 20
80.98924253346362
 30
0.0
 10
193.3822098990286
 20
81.48312926904436
 30
0.0
 10
191.5453065181401
 20
82.01441143952516
 30
0.0
 10
189.8255148519034
 20
82.63106738249978
 30
0.0
 10
188.0697219378458
 20
83.38848239085535
 30
0.0
 10
186.3696965069557
 20
84.12508148633364
 30
0.0
 10
184.7966659083907
 20
84.93893684806865
 30
0.0
 10
183.213386150757
 20
85.9013188889115
 30
0.0
 10
181.2445356127835
 20
87.1004059043995
 30
0.0
 10
179.4739503199861
 20
88.42191223477115
 30
0.0
 10
177.7640417714227
 20
89.9677857915814
 30
0.0
 10
175.6801788738588
 20
91.85549356495389
 30
0.0
 10
173.8986554028958
 20
93.88678645859753
 30
0.0
 10
172.2991621646346
 20
96.19925297345453
 30
0.0
 10
171.1625067388934
 20
97.83790187509023
 30
0.0
 10
170.1948440126271
 20
99.48113706009067
 30
0.0
 10
169.313254843875
 20
101.2697229767984
 30
0.0
 10
168.5216149650582
 20
102.8688717055111
 30
0.0
 10
167.8566254090178
 20
104.4380265716552
 30
0.0
 10
167.2586752579358
 20
106.1190070840659
 30
0.0
 10
166.608499612482
 20
107.9386311579112
 30
0.0
 10
166.0846297802562
 20
109.7074616051957
 30
0.0
 10
165.6394265502514
 20
111.5877731891983
 30
0.0
 10
165.1617640612215
 20
113.5933139940897
 30
0.0
 10
164.8026343887309
 20
115.5282949370739
 30
0.0
 10
164.5295782737547
 20
117.5715810693755
 30
0.0
 10
164.2360776702582
 20
119.7496350306908
 30
0.0
 10
164.050516214684
 20
121.838428721168
 30
0.0
 10
163.9559698754607
 20
124.0341172649984
 30
0.0
 10
163.9019895355761
 20
125.2473291719759
 30
0.0
 10
163.8762374468239
 20
126.4044398521608
 30
0.0
 10
163.8762374468239
 20
127.6190513291792
 30
0.0
 10
163.8762374468239
 20
127.6190513291792
 30
0.0
 10
163.8762374468239
 20
127.6687898952475
 30
0.0
 10
163.8762374468239
 20
127.6687898952475
 30
0.0
 10
163.8762374468239
 20
127.6687898952475
 30
0.0
 10
163.8762374468239
 20
245.8334656842556
 30
0.0
 10
163.8762374468239
 20
245.8334656842556
 30
0.0
 10
163.8762374468239
 20
245.8334656842556
 30
0.0
 10
163.8762374468239
 20
245.834520744748
 30
0.0
 10
163.8762374468239
 20
245.834520744748
 30
0.0
 10
163.8762374468239
 20
251.5593866355151
 30
0.0
 10
159.2350909364824
 20
256.2001886363081
 30
0.0
 10
153.5102142797919
 20
256.2001886363081
 30
0.0
 10
153.5102142797919
 20
256.2001886363081
 30
0.0
 10
128.559304014491
 20
256.2001886363081
 30
0.0
 10
128.559304014491
 20
256.2001886363081
 30
0.0
 10
128.559304014491
 20
256.2001886363081
 30
0.0
 10
128.5589487390191
 20
256.2001886363081
 30
0.0
 10
128.5589487390191
 20
256.2001886363081
 30
0.0
 10
122.8337168068567
 20
256.2001886363081
 30
0.0
 10
118.1922257869667
 20
251.5590421259666
 30
0.0
 10
118.1922257869667
 20
245.8338101938041
 30
0.0
 10
118.1922257869667
 20
245.8338101938041
 30
0.0
 10
118.1922257869667
 20
245.8334656842556
 30
0.0
 10
118.1922257869667
 20
245.8334656842556
 30
0.0
 10
118.1922257869667
 20
245.8334656842556
 30
0.0
 10
118.1922257869667
 20
126.7610933622713
 30
0.0
 10
118.1922257869667
 20
126.7610933622713
 30
0.0
 10
118.1922257869667
 20
126.7159410795677
 30
0.0
 10
118.1922257869667
 20
126.6728989178489
 30
0.0
 10
118.1922257869667
 20
126.6277466351453
 30
0.0
 10
118.1922257869667
 20
122.7369634533381
 30
0.0
 10
118.3597973845539
 20
119.0278552287608
 30
0.0
 10
118.7108095508073
 20
115.1529410180325
 30
0.0
 10
118.9919724060972
 20
112.0738976940138
 30
0.0
 10
119.3793195637967
 20
109.1497221779806
 30
0.0
 10
119.9088415058029
 20
106.1034826225355
 30
0.0
 10
120.430601217044
 20
103.1143993543754
 30
0.0
 10
121.0539589473298
 20
100.2872355740221
 30
0.0
 10
121.83818110493
 20
97.3556531026956
 30
0.0
 10
122.6051239554869
 20
94.49709588973293
 30
0.0
 10
123.4666023793438
 20
91.80716533484986
 30
0.0
 10
124.5027148465327
 20
89.03468706236319
 30
0.0
 10
125.5779829770962
 20
86.1641366107425
 30
0.0
 10
126.7516731793038
 20
83.48267345460676
 30
0.0
 10
128.130325031037
 20
80.74476456212989
 30
0.0
 10
129.6536170635338
 20
77.72604808983499
 30
0.0
 10
131.2915661801491
 20
74.94121592025667
 30
0.0
 10
133.1895123466668
 20
72.14298555901774
 30
0.0
 10
135.492440253399
 20
68.75349606808453
 30
0.0
 10
137.9565986288409
 20
65.70125989331048
 30
0.0
 10
140.7848174696866
 20
62.73581320995624
 30
0.0
 10
144.1347960217734
 20
59.22673045902958
 30
0.0
 10
147.6604529117611
 20
56.19284480067618
 30
0.0
 10
151.6292029107689
 20
53.4030764552229
 30
0.0
 10
154.3328923157462
 20
51.50089928081238
 30
0.0
 10
157.0256435425578
 20
49.84989648208506
 30
0.0
 10
159.9477089376064
 20
48.3040229252748
 30
0.0
 10
162.4580746562442
 20
46.97334941113535
 30
0.0
 10
164.9155258614132
 20
45.82611646566206
 30
0.0
 10
167.547245068519
 20
44.75613978644552
 30
0.0
 10
170.0749008601234
 20
43.7263819055384
 30
0.0
 10
172.5288208424201
 20
42.85219969207965
 30
0.0
 10
175.138319183646
 20
42.05174521348609
 30
0.0
 10
177.8412980376794
 20
41.22095505425639
 30
0.0
 10
180.4515069298491
 20
40.53727047224686
 30
0.0
 10
183.2148072526446
 20
39.9361362993218
 30
0.0
 10
186.1312097719893
 20
39.29937230293286
 30
0.0
 10
188.9354529014424
 20
38.8030147879338
 30
0.0
 10
191.893498012465
 20
38.39979058471293
 30
0.0
 10
194.9301989597852
 20
37.98351269937999
 30
0.0
 10
197.8395605652319
 20
37.69176424991544
 30
0.0
 10
200.8988484198274
 20
37.49632505962956
 30
0.0
 10
203.8283207701692
 20
37.30759034813567
 30
0.0
 10
206.6261904729745
 20
37.21234153241105
 30
0.0
 10
209.5616702085688
 20
37.20246379769944
 30
0.0
  0
SPLINE
  5
AE
330
A8
100
AcDbEntity
  8
レイヤー 1
 62
   255
370
    18
100
AcDbSpline
210
0.0
220
0.0
230
1.0
 70
     9
 71
     3
 72
   125
 73
   121
 74
     0
 42
0.0000000001
 43
0.0000000001
 40
0.0
 40
0.0
 40
0.0
 40
0.0
 40
1.0
 40
1.0
 40
1.0
 40
2.0
 40
2.0
 40
2.0
 40
3.0
 40
3.0
 40
3.0
 40
4.0
 40
4.0
 40
4.0
 40
5.0
 40
5.0
 40
5.0
 40
6.0
 40
6.0
 40
6.0
 40
7.0
 40
7.0
 40
7.0
 40
8.0
 40
8.0
 40
8.0
 40
9.0
 40
9.0
 40
9.0
 40
10.0
 40
10.0
 40
10.0
 40
11.0
 40
11.0
 40
11.0
 40
12.0
 40
12.0
 40
12.0
 40
13.0
 40
13.0
 40
13.0
 40
14.0
 40
14.0
 40
14.0
 40
15.0
 40
15.0
 40
15.0
 40
16.0
 40
16.0
 40
16.0
 40
17.0
 40
17.0
 40
17.0
 40
18.0
 40
18.0
 40
18.0
 40
19.0
 40
19.0
 40
19.0
 40
20.0
 40
20.0
 40
20.0
 40
21.0
 40
21.0
 40
21.0
 40
22.0
 40
22.0
 40
22.0
 40
23.0
 40
23.0
 40
23.0
 40
24.0
 40
24.0
 40
24.0
 40
25.0
 40
25.0
 40
25.0
 40
26.0
 40
26.0
 40
26.0
 40
27.0
 40
27.0
 40
27.0
 40
28.0
 40
28.0
 40
28.0
 40
29.0
 40
29.0
 40
29.0
 40
30.0
 40
30.0
 40
30.0
 40
31.0
 40
31.0
 40
31.0
 40
32.0
 40
32.0
 40
32.0
 40
33.0
 40
33.0
 40
33.0
 40
34.0
 40
34.0
 40
34.0
 40
35.0
 40
35.0
 40
35.0
 40
36.0
 40
36.0
 40
36.0
 40
37.0
 40
37.0
 40
37.0
 40
38.0
 40
38.0
 40
38.0
 40
39.0
 40
39.0
 40
39.0
 40
40.0
 40
40.0
 40
40.0
 40
40.0
 10
224.1308282927629
 20
45.62616097051349
 30
0.0
 10
230.3347777744475
 20
46.26785845129653
 30
0.0
 10
236.1979427171007
 20
47.42073812358861
 30
0.0
 10
242.1828056577703
 20
49.17615961328919
 30
0.0
 10
247.9747217194191
 20
50.87373041364604
 30
0.0
 10
253.317526520872
 20
53.13044559422064
 30
0.0
 10
258.5725029192978
 20
56.09942350044725
 30
0.0
 10
265.7049702297977
 20
60.13167629857928
 30
0.0
 10
271.8059113564735
 20
65.27059065988407
 30
0.0
 10
276.9914044853312
 20
71.61423876349563
 30
0.0
 10
281.1626399714845
 20
76.76550163893037
 30
0.0
 10
284.4445240581206
 20
82.25719377792474
 30
0.0
 10
287.005349659694
 20
88.37118320375084
 30
0.0
 10
289.3823578852825
 20
94.04738173782714
 30
0.0
 10
291.0732322812899
 20
99.70733987646749
 30
0.0
 10
292.1992832724906
 20
105.7578318861311
 30
0.0
 10
293.4043776732309
 20
112.2200235722054
 30
0.0
 10
294.0189181122592
 20
118.485005073596
 30
0.0
 10
294.092298646095
 20
125.0586563645415
 30
0.0
 10
294.092298646095
 20
125.0586563645415
 30
0.0
 10
294.1078231076254
 20
127.0613764975044
 30
0.0
 10
294.1078231076254
 20
127.0613764975044
 30
0.0
 10
294.1078231076254
 20
127.0613764975044
 30
0.0
 10
294.1000501109368
 20
246.0385134611683
 30
0.0
 10
294.1000501109368
 20
246.0385134611683
 30
0.0
 10
293.9931660235069
 20
247.421740830343
 30
0.0
 10
292.8282931125568
 20
248.5001849083068
 30
0.0
 10
291.4411684791145
 20
248.5005509497021
 30
0.0
 10
291.4411684791145
 20
248.5005509497021
 30
0.0
 10
266.4906027233621
 20
248.5005509497021
 30
0.0
 10
266.4906027233621
 20
248.5005509497021
 30
0.0
 10
265.0181258492728
 20
248.5001849083068
 30
0.0
 10
263.8243141362466
 20
247.3063947271274
 30
0.0
 10
263.8243141362466
 20
245.8338963211913
 30
0.0
 10
263.8243141362466
 20
245.8338963211913
 30
0.0
 10
263.8243141362466
 20
245.8335518116427
 30
0.0
 10
263.8243141362466
 20
245.8335518116427
 30
0.0
 10
263.8243141362466
 20
245.8335518116427
 30
0.0
 10
263.8161966300095
 20
126.4440153865476
 30
0.0
 10
263.8161966300095
 20
126.4440153865476
 30
0.0
 10
263.7752861211222
 20
121.2610091859933
 30
0.0
 10
263.2503396965572
 20
116.3189443509387
 30
0.0
 10
262.2018894811618
 20
111.2428222378143
 30
0.0
 10
261.2433993216249
 20
106.5932137116872
 30
0.0
 10
259.7839492148392
 20
102.2653340401888
 30
0.0
 10
257.7307799648642
 20
97.98472753830223
 30
0.0
 10
255.4454974065705
 20
93.22152775447241
 30
0.0
 10
252.4683966111451
 20
89.0460504945028
 30
0.0
 10
248.7106156469153
 20
85.33306115454292
 30
0.0
 10
244.6931821423315
 20
81.41652588398343
 30
0.0
 10
240.1419956878486
 20
78.39427818881614
 30
0.0
 10
234.973448122409
 20
76.21093277615398
 30
0.0
 10
230.6991827493999
 20
74.40612261289533
 30
0.0
 10
226.4041176123985
 20
73.18727474502241
 30
0.0
 10
221.8187170533778
 20
72.47854324224277
 30
0.0
 10
217.9064020247877
 20
71.87282547743382
 30
0.0
 10
214.130275927099
 20
71.58249005541438
 30
0.0
 10
210.1710430043691
 20
71.58249005541438
 30
0.0
 10
208.9712454379373
 20
71.58249005541438
 30
0.0
 10
207.8275383323747
 20
71.60894731214877
 30
0.0
 10
206.6291618678306
 20
71.66468788050777
 30
0.0
 10
201.8123370195882
 20
71.84707338868157
 30
0.0
 10
197.2336328649168
 20
72.51664384512496
 30
0.0
 10
192.5663897562746
 20
73.7206778024113
 30
0.0
 10
187.9312290993388
 20
74.91553381000646
 30
0.0
 10
183.6643922134697
 20
76.6854193177834
 30
0.0
 10
179.5442948634255
 20
79.12240988554708
 30
0.0
 10
173.1632567078756
 20
82.93241096118693
 30
0.0
 10
167.9784848958852
 20
88.14858158874844
 30
0.0
 10
164.2069343156377
 20
94.55255116112207
 30
0.0
 10
161.7960457291365
 20
98.65183798125068
 30
0.0
 10
160.0134671976811
 20
102.8731673089442
 30
0.0
 10
158.7561688344157
 20
107.4596336943807
 30
0.0
 10
157.4244241108989
 20
112.3142146359568
 30
0.0
 10
156.6409125042425
 20
117.0813009181309
 30
0.0
 10
156.3488114707869
 20
122.1066186387713
 30
0.0
 10
156.2320442656837
 20
123.9685743233915
 30
0.0
 10
156.1759430388911
 20
125.7469326128775
 30
0.0
 10
156.1759430388911
 20
127.6124195203701
 30
0.0
 10
156.1759430388911
 20
127.6124195203701
 30
0.0
 10
156.1759430388911
 20
127.6607477504741
 30
0.0
 10
156.1759430388911
 20
127.6607477504741
 30
0.0
 10
156.1759430388911
 20
127.6607477504741
 30
0.0
 10
156.1681915740493
 20
246.0385134611683
 30
0.0
 10
156.1681915740493
 20
246.0385134611683
 30
0.0
 10
156.061296720696
 20
247.4213963207944
 30
0.0
 10
154.8967790852179
 20
248.4998403987583
 30
0.0
 10
153.5100097272475
 20
248.5005509497021
 30
0.0
 10
153.5100097272475
 20
248.5005509497021
 30
0.0
 10
128.3541270464976
 20
248.4927779530135
 30
0.0
 10
128.3541270464976
 20
248.4927779530135
 30
0.0
 10
126.9708889113996
 20
248.3851833146398
 30
0.0
 10
125.8928001089076
 20
247.2206549132383
 30
0.0
 10
125.8924448334357
 20
245.8335518116427
 30
0.0
 10
125.8924448334357
 20
245.8335518116427
 30
0.0
 10
125.9002070642009
 20
125.3546438963414
 30
0.0
 10
125.9002070642009
 20
125.3546438963414
 30
0.0
 10
125.9467804487921
 20
118.7040700827643
 30
0.0
 10
126.5602550614046
 20
112.3628981415327
 30
0.0
 10
127.7889806639892
 20
105.8262708611302
 30
0.0
 10
128.9439704572659
 20
99.67594644385815
 30
0.0
 10
130.6905800386706
 20
93.92601748343581
 30
0.0
 10
133.1519069762606
 20
88.17221817355429
 30
0.0
 10
135.8644136724955
 20
81.83562174976408
 30
0.0
 10
139.3576220693815
 20
76.16613038596064
 30
0.0
 10
143.7976826626183
 20
70.89421919004012
 30
0.0
 10
148.9990339966315
 20
64.77881942824975
 30
0.0
 10
155.0347120957085
 20
59.82969753041205
 30
0.0
 10
162.0507567106537
 20
55.92727100245699
 30
0.0
 10
167.3794689183873
 20
52.96393444008747
 30
0.0
 10
172.7907234607628
 20
50.71815205471684
 30
0.0
 10
178.6517675165078
 20
49.03681626683422
 30
0.0
 10
184.6899110120415
 20
47.30291047503136
 30
0.0
 10
190.601414950722
 20
46.17331749503491
 30
0.0
 10
196.8533373870388
 20
45.5591323314786
 30
0.0
 10
201.3449021577801
 20
45.11463157797509
 30
0.0
 10
205.64774029147
 20
44.90226028167536
 30
0.0
 10
210.1611814185426
 20
44.90226028167536
 30
0.0
 10
214.8996734081892
 20
44.90226028167536
 30
0.0
 10
219.417356309078
 20
45.13614996735365
 30
0.0
 10
224.1308282927629
 20
45.62616097051349
 30
0.0
  0
SPLINE
  5
AF
330
A8
100
AcDbEntity
  8
レイヤー 1
  6
AI-Linetype-8
 62
   112
370
    18
100
AcDbSpline
210
0.0
220
0.0
230
1.0
 70
     9
 71
     3
 72
   236
 73
   232
 74
     0
 42
0.0000000001
 43
0.0000000001
 40
0.0
 40
0.0
 40
0.0
 40
0.0
 40
1.0
 40
1.0
 40
1.0
 40
2.0
 40
2.0
 40
2.0
 40
3.0
 40
3.0
 40
3.0
 40
4.0
 40
4.0
 40
4.0
 40
5.0
 40
5.0
 40
5.0
 40
6.0
 40
6.0
 40
6.0
 40
7.0
 40
7.0
 40
7.0
 40
8.0
 40
8.0
 40
8.0
 40
9.0
 40
9.0
 40
9.0
 40
10.0
 40
10.0
 40
10.0
 40
11.0
 40
11.0
 40
11.0
 40
12.0
 40
12.0
 40
12.0
 40
13.0
 40
13.0
 40
13.0
 40
14.0
 40
14.0
 40
14.0
 40
15.0
 40
15.0
 40
15.0
 40
16.0
 40
16.0
 40
16.0
 40
17.0
 40
17.0
 40
17.0
 40
18.0
 40
18.0
 40
18.0
 40
19.0
 40
19.0
 40
19.0
 40
20.0
 40
20.0
 40
20.0
 40
21.0
 40
21.0
 40
21.0
 40
22.0
 40
22.0
 40
22.0
 40
23.0
 40
23.0
 40
23.0
 40
24.0
 40
24.0
 40
24.0
 40
25.0
 40
25.0
 40
25.0
 40
26.0
 40
26.0
 40
26.0
 40
27.0
 40
27.0
 40
27.0
 40
28.0
 40
28.0
 40
28.0
 40
29.0
 40
29.0
 40
29.0
 40
30.0
 40
30.0
 40
30.0
 40
31.0
 40
31.0
 40
31.0
 40
32.0
 40
32.0
 40
32.0
 40
33.0
 40
33.0
 40
33.0
 40
34.0
 40
34.0
 40
34.0
 40
35.0
 40
35.0
 40
35.0
 40
36.0
 40
36.0
 40
36.0
 40
37.0
 40
37.0
 40
37.0
 40
38.0
 40
38.0
 40
38.0
 40
39.0
 40
39.0
 40
39.0
 40
40.0
 40
40.0
 40
40.0
 40
41.0
 40
41.0
 40
41.0
 40
42.0
 40
42.0
 40
42.0
 40
43.0
 40
43.0
 40
43.0
 40
44.0
 40
44.0
 40
44.0
 40
45.0
 40
45.0
 40
45.0
 40
46.0
 40
46.0
 40
46.0
 40
47.0
 40
47.0
 40
47.0
 40
48.0
 40
48.0
 40
48.0
 40
49.0
 40
49.0
 40
49.0
 40
50.0
 40
50.0
 40
50.0
 40
51.0
 40
51.0
 40
51.0
 40
52.0
 40
52.0
 40
52.0
 40
53.0
 40
53.0
 40
53.0
 40
54.0
 40
54.0
 40
54.0
 40
55.0
 40
55.0
 40
55.0
 40
56.0
 40
56.0
 40
56.0
 40
57.0
 40
57.0
 40
57.0
 40
58.0
 40
58.0
 40
58.0
 40
59.0
 40
59.0
 40
59.0
 40
60.0
 40
60.0
 40
60.0
 40
61.0
 40
61.0
 40
61.0
 40
62.0
 40
62.0
 40
62.0
 40
63.0
 40
63.0
 40
63.0
 40
64.0
 40
64.0
 40
64.0
 40
65.0
 40
65.0
 40
65.0
 40
66.0
 40
66.0
 40
66.0
 40
67.0
 40
67.0
 40
67.0
 40
68.0
 40
68.0
 40
68.0
 40
69.0
 40
69.0
 40
69.0
 40
70.0
 40
70.0
 40
70.0
 40
71.0
 40
71.0
 40
71.0
 40
72.0
 40
72.0
 40
72.0
 40
73.0
 40
73.0
 40
73.0
 40
74.0
 40
74.0
 40
74.0
 40
75.0
 40
75.0
 40
75.0
 40
76.0
 40
76.0
 40
76.0
 40
77.0
 40
77.0
 40
77.0
 40
77.0
 10
200.3864119982432
 20
29.51285995169433
 30
0.0
 10
203.4784928554889
 20
29.31353964602584
 30
0.0
 10
206.4316071735983
 20
29.21334927146457
 30
0.0
 10
209.5304059670402
 20
29.20241378477975
 30
0.0
 10
209.7568779315018
 20
29.20135603280654
 30
0.0
 10
209.972777759193
 20
29.20100344881547
 30
0.0
 10
210.1992712555014
 20
29.20100344881547
 30
0.0
 10
213.6025088306055
 20
29.20100344881547
 30
0.0
 10
216.8459585707342
 20
29.30754302669683
 30
0.0
 10
220.2414446809965
 20
29.53084980968137
 30
0.0
 10
223.4852389306738
 20
29.74639705338154
 30
0.0
 10
226.5699128326262
 20
30.06142681218002
 30
0.0
 10
229.7904311559313
 20
30.50592756568353
 30
0.0
 10
232.8543052938915
 20
30.93137801774594
 30
0.0
 10
235.759425125522
 20
31.44749100216824
 30
0.0
 10
238.7827332641433
 20
32.1029527160072
 30
0.0
 10
241.9651402186428
 20
32.79474942129215
 30
0.0
 10
244.9693926728614
 20
33.58920728055669
 30
0.0
 10
248.0780745839766
 20
34.56040392117625
 30
0.0
 10
251.1020932735418
 20
35.50796397698999
 30
0.0
 10
253.942294587122
 20
36.54866003606276
 30
0.0
 10
256.8625943707344
 20
37.7795011425937
 30
0.0
 10
259.7127003338349
 20
38.98353240839919
 30
0.0
 10
262.3715819656571
 20
40.26834847185294
 30
0.0
 10
265.0858435074048
 20
41.75319000895732
 30
0.0
 10
268.2777890700291
 20
43.50190971134675
 30
0.0
 10
271.2153573947613
 20
45.36316561094653
 30
0.0
 10
274.1599881652382
 20
47.50275831094604
 30
0.0
 10
277.5445576291815
 20
49.96550096746197
 30
0.0
 10
280.5921967546675
 20
52.56230090204769
 30
0.0
 10
283.5608140024605
 20
55.51328895028726
 30
0.0
 10
287.4808804958924
 20
59.41430514227804
 30
0.0
 10
290.8432075621091
 20
63.51746231186586
 30
0.0
 10
293.8972201142427
 20
68.1275598991465
 30
0.0
 10
295.8696018750886
 20
71.10147936420976
 30
0.0
 10
297.5735030383996
 20
74.05422764092384
 30
0.0
 10
299.1617135889466
 20
77.25003817004567
 30
0.0
 10
300.5107268535833
 20
79.95972419435197
 30
0.0
 10
301.6689033601839
 20
82.60661797047792
 30
0.0
 10
302.7438162152754
 20
85.43660242275977
 30
0.0
 10
303.8928201551466
 20
88.45602406303681
 30
0.0
 10
304.8477790918111
 20
91.38760653436339
 30
0.0
 10
305.6983301034257
 20
94.5043951857923
 30
0.0
 10
306.5245501281757
 20
97.5248826524851
 30
0.0
 10
307.1884630918769
 20
100.4377647148808
 30
0.0
 10
307.752554413893
 20
103.5182291407871
 30
0.0
 10
308.3600324071765
 20
106.8233999197188
 30
0.0
 10
308.8080670750333
 20
109.9980446434532
 30
0.0
 10
309.1393345377868
 20
113.3423818516828
 30
0.0
 10
309.4571876599947
 20
116.527254202639
 30
0.0
 10
309.6529767427908
 20
119.5738490335559
 30
0.0
 10
309.7447024100855
 20
122.7731800196268
 30
0.0
 10
309.787378530409
 20
124.2160506043898
 30
0.0
 10
309.8078337848527
 20
125.5918817841945
 30
0.0
 10
309.8078337848527
 20
127.0354413880545
 30
0.0
 10
309.8078337848527
 20
127.0354413880545
 30
0.0
 10
309.8078337848527
 20
127.0619040277506
 30
0.0
 10
309.8078337848527
 20
127.0619040277506
 30
0.0
 10
309.8078337848527
 20
127.0619040277506
 30
0.0
 10
309.8078337848527
 20
245.8329919836264
 30
0.0
 10
309.8078337848527
 20
245.8329919836264
 30
0.0
 10
309.8078337848527
 20
245.8329919836264
 30
0.0
 10
309.8078337848527
 20
245.8344130855141
 30
0.0
 10
309.8078337848527
 20
245.8344130855141
 30
0.0
 10
309.8078337848527
 20
255.9774847450334
 30
0.0
 10
301.5849506895778
 20
264.2003678403085
 30
0.0
 10
291.4415345205098
 20
264.2003678403085
 30
0.0
 10
291.4415345205098
 20
264.2003678403085
 30
0.0
 10
291.4411684791145
 20
264.2003678403085
 30
0.0
 10
291.4411684791145
 20
264.2003678403085
 30
0.0
 10
291.4411684791145
 20
264.2003678403085
 30
0.0
 10
266.4902582138136
 20
264.2003678403085
 30
0.0
 10
266.4902582138136
 20
264.2003678403085
 30
0.0
 10
256.3471865542943
 20
264.2003678403085
 30
0.0
 10
248.1243034590193
 20
255.9774847450334
 30
0.0
 10
248.1243034590193
 20
245.8344130855141
 30
0.0
 10
248.1243034590193
 20
245.8344130855141
 30
0.0
 10
248.1243034590193
 20
245.8329919836264
 30
0.0
 10
248.1243034590193
 20
245.8329919836264
 30
0.0
 10
248.1243034590193
 20
245.8329919836264
 30
0.0
 10
248.1243034590193
 20
127.6630408921565
 30
0.0
 10
248.1243034590193
 20
127.6630408921565
 30
0.0
 10
248.1243034590193
 20
127.62352995331
 30
0.0
 10
248.1243034590193
 20
127.5857846258998
 30
0.0
 10
248.1243034590193
 20
127.5459184115814
 30
0.0
 10
248.1243034590193
 20
125.2218139335383
 30
0.0
 10
248.0170533301941
 20
123.0060146448127
 30
0.0
 10
247.7926914867172
 20
120.6928591108587
 30
0.0
 10
247.619812288898
 20
118.936377177704
 30
0.0
 10
247.3809810443831
 20
117.2691447494642
 30
0.0
 10
247.0529002949533
 20
115.5348944481128
 30
0.0
 10
246.7301163798322
 20
113.8338031908069
 30
0.0
 10
246.3367726028038
 20
112.2279580577449
 30
0.0
 10
245.8372337574426
 20
110.5698981962345
 30
0.0
 10
245.4199035030982
 20
109.1947668014502
 30
0.0
 10
244.9542342527263
 20
107.9043093941393
 30
0.0
 10
244.3975498860035
 20
106.5796271163672
 30
0.0
 10
243.809106045276
 20
105.1843957426112
 30
0.0
 10
243.1624616226947
 20
103.8900518369561
 30
0.0
 10
242.3997605459539
 20
102.5819490812067
 30
0.0
 10
241.6229561095704
 20
101.254446131506
 30
0.0
 10
240.78616394805
 20
100.0440656623805
 30
0.0
 10
239.8181351803884
 20
98.84850986976488
 30
0.0
 10
237.7769591690714
 20
96.33778887565513
 30
0.0
 10
235.4048817363962
 20
94.2779124554073
 30
0.0
 10
232.6323980809478
 20
92.60892518165462
 30
0.0
 10
231.4029726933428
 20
91.86596880841372
 30
0.0
 10
230.1812987705797
 20
91.23909062117894
 30
0.0
 10
228.8608582666238
 20
90.67287841225475
 30
0.0
 10
227.5816943129505
 20
90.12149087984051
 30
0.0
 10
226.3314476295065
 20
89.66711508310622
 30
0.0
 10
224.9965377245126
 20
89.26811919629733
 30
0.0
 10
223.4746452620567
 20
88.81092272763451
 30
0.0
 10
221.999326184192
 20
88.45602406303681
 30
0.0
 10
220.4361787033002
 20
88.17133536783618
 30
0.0
 10
218.8074021534145
 20
87.87182737908727
 30
0.0
 10
217.2410679591989
 20
87.6612190027429
 30
0.0
 10
215.5907810943771
 20
87.52045993736196
 30
0.0
 10
213.7792637608455
 20
87.36382651794041
 30
0.0
 10
212.0457132445146
 20
87.2890356481403
 30
0.0
 10
210.2274995066337
 20
87.28833048015818
 30
0.0
 10
210.1788160010577
 20
87.28833048015818
 30
0.0
 10
210.1329531674103
 20
87.28833048015818
 30
0.0
 10
210.0846141713829
 20
87.28833048015818
 30
0.0
 10
208.1545640213121
 20
87.28833048015818
 30
0.0
 10
206.3148399684951
 20
87.37193864121584
 30
0.0
 10
204.3929073246613
 20
87.54691719409635
 30
0.0
 10
202.8734910245855
 20
87.6880315349492
 30
0.0
 10
201.4306204398224
 20
87.88452578572742
 30
0.0
 10
199.9288387222617
 20
88.15546101379556
 30
0.0
 10
198.4475337909914
 20
88.42427535495557
 30
0.0
 10
197.0484159188911
 20
88.75200621187504
 30
0.0
 10
195.6016696017072
 20
89.16899195667097
 30
0.0
 10
194.0949570912332
 20
89.6050226199463
 30
0.0
 10
192.6842120218702
 20
90.11090797714675
 30
0.0
 10
191.2441621090357
 20
90.73178954505252
 30
0.0
 10
189.8884309082028
 20
91.31916755936421
 30
0.0
 10
188.634308492338
 20
91.96827737840225
 30
0.0
 10
187.372068570236
 20
92.73522022895921
 30
0.0
 10
185.8403145219535
 20
93.66866885068764
 30
0.0
 10
184.462728496636
 20
94.69666381163943
 30
0.0
 10
183.131694324063
 20
95.8992820499998
 30
0.0
 10
181.5089036275828
 20
97.37001484449974
 30
0.0
 10
180.1210899750435
 20
98.95292856073812
 30
0.0
 10
178.8754295749643
 20
100.7545627765963
 30
0.0
 10
177.96561215508
 20
102.0658414797461
 30
0.0
 10
177.1912731151531
 20
103.3809959153168
 30
0.0
 10
176.485717559774
 20
104.8129175559908
 30
0.0
 10
175.833776302884
 20
106.1294823275258
 30
0.0
 10
175.2862645028907
 20
107.4217053462728
 30
0.0
 10
174.7937881032742
 20
108.8060093077865
 30
0.0
 10
174.2431003558804
 20
110.3465914132499
 30
0.0
 10
173.7996627373118
 20
111.8444866324664
 30
0.0
 10
173.4228984823062
 20
113.4365729154342
 30
0.0
 10
173.0073230734745
 20
115.1792959984947
 30
0.0
 10
172.6954665705956
 20
116.8606317863773
 30
0.0
 10
172.4584009375169
 20
118.6361586380113
 30
0.0
 10
172.1969935516502
 20
120.5732604679035
 30
0.0
 10
172.0322426259915
 20
122.4313404201029
 30
0.0
 10
171.9482899553853
 20
124.3843219869974
 30
0.0
 10
171.8992511743375
 20
125.4789903115122
 30
0.0
 10
171.8759644820418
 20
126.5232095190148
 30
0.0
 10
171.8759644820418
 20
127.6189436699453
 30
0.0
 10
171.8759644820418
 20
127.6189436699453
 30
0.0
 10
171.8759644820418
 20
127.666216839557
 30
0.0
 10
171.8759644820418
 20
127.666216839557
 30
0.0
 10
171.8759644820418
 20
127.666216839557
 30
0.0
 10
171.8759644820418
 20
245.8329919836264
 30
0.0
 10
171.8759644820418
 20
245.8329919836264
 30
0.0
 10
171.8759644820418
 20
245.8329919836264
 30
0.0
 10
171.8759644820418
 20
245.8344130855141
 30
0.0
 10
171.8759644820418
 20
245.8344130855141
 30
0.0
 10
171.8759644820418
 20
255.9774847450334
 30
0.0
 10
163.6530706208434
 20
264.2003678403085
 30
0.0
 10
153.5099989613241
 20
264.2003678403085
 30
0.0
 10
153.5099989613241
 20
264.2003678403085
 30
0.0
 10
128.5587334205513
 20
264.2003678403085
 30
0.0
 10
128.5587334205513
 20
264.2003678403085
 30
0.0
 10
118.4153172514834
 20
264.2003678403085
 30
0.0
 10
110.192423390285
 20
255.9774847450334
 30
0.0
 10
110.192423390285
 20
245.8340470441187
 30
0.0
 10
110.192423390285
 20
245.8340470441187
 30
0.0
 10
110.192423390285
 20
245.8333580250217
 30
0.0
 10
110.192423390285
 20
245.8333580250217
 30
0.0
 10
110.192423390285
 20
245.8333580250217
 30
0.0
 10
110.192423390285
 20
126.7652167109302
 30
0.0
 10
110.192423390285
 20
126.7652167109302
 30
0.0
 10
110.192423390285
 20
126.7186540922624
 30
0.0
 10
110.1920681148131
 20
126.6742015945793
 30
0.0
 10
110.1920681148131
 20
126.6276389759114
 30
0.0
 10
110.1920681148131
 20
122.4909621038445
 30
0.0
 10
110.370577890566
 20
118.5479641935889
 30
0.0
 10
110.7434556472273
 20
114.42823288494
 30
0.0
 10
111.0450845228843
 20
111.1287034498654
 30
0.0
 10
111.4599493807721
 20
107.9949692350184
 30
0.0
 10
112.0275719256606
 20
104.7307197308974
 30
0.0
 10
112.5906081871844
 20
101.5031604936943
 30
0.0
 10
113.2640597590103
 20
98.45056904344835
 30
0.0
 10
114.1107242722807
 20
95.2854521619154
 30
0.0
 10
114.945395546893
 20
92.17500463936401
 30
0.0
 10
115.8827306669657
 20
89.24801383436388
 30
0.0
 10
117.0098474845822
 20
86.23105759054347
 30
0.0
 10
118.1888345210984
 20
83.0842804595078
 30
0.0
 10
119.4750609205164
 20
80.14493575741601
 30
0.0
 10
120.9867149898271
 20
77.14350397512602
 30
0.0
 10
122.6677062681612
 20
73.81187055649821
 30
0.0
 10
124.4756923788203
 20
70.73811868382643
 30
0.0
 10
126.5708379640984
 20
67.6499027930783
 30
0.0
 10
129.1256561804193
 20
63.88893511552462
 30
0.0
 10
131.8593286820417
 20
60.50297684746378
 30
0.0
 10
134.9969278633862
 20
57.21296987162883
 30
0.0
 10
138.7130877677848
 20
53.32042107838539
 30
0.0
 10
142.6243369699591
 20
49.95421289678608
 30
0.0
 10
147.0270075112576
 20
46.85929521872679
 30
0.0
 10
150.0097388846167
 20
44.76097368604825
 30
0.0
 10
152.9804877852412
 20
42.93993389327706
 30
0.0
 10
156.2038160145515
 20
41.23390107713456
 30
0.0
 10
158.9547785891404
 20
39.77622196474671
 30
0.0
 10
161.647529815952
 20
38.51892360148138
 30
0.0
 10
164.531483842195
 20
37.34628845976608
 30
0.0
 10
167.2817466317635
 20
36.22586804649909
 30
0.0
 10
169.9512111662795
 20
35.2751320432849
 30
0.0
 10
172.7903681852909
 20
34.40412308574576
 30
0.0
 10
175.7092468670156
 20
33.50700945546331
 30
0.0
 10
178.5275933561114
 20
32.76864474854884
 30
0.0
 10
181.5113797899629
 20
32.11953492951081
 30
0.0
 10
184.6362751817055
 20
31.43726068346556
 30
0.0
 10
187.6408936773193
 20
30.9056259289937
 30
0.0
 10
190.8098862912732
 20
30.47347368962013
 30
0.0
 10
194.0395771813078
 20
30.03108844006303
 30
0.0
 10
197.1330791404411
 20
29.7206449646293
 30
0.0
 10
200.3864119982432
 20
29.51285995169433
 30
0.0
  0
LWPOLYLINE
  5
B1
330
A8
100
AcDbEntity
  8
レイヤー 1
100
AcDbPolyline
 90
        4
 70
     1
 43
0.0
 10
0.0
 20
297.0000884267266
 10
419.9999449633593
 20
297.0000884267266
 10
419.9999449633593
 20
0.0
 10
0.0
 20
0.0
  0
ENDBLK
  5
AB
330
A8
100
AcDbEntity
  8
0
100
AcDbBlockEnd
  0
BLOCK
  5
BE
330
BC
100
AcDbEntity
  8
0
100
AcDbBlockBegin
  2
Block_5
 70
     0
 10
0.0
 20
0.0
 30
0.0
  3
Block_5
  1

  0
SPLINE
  5
C0
330
BC
100
AcDbEntity
  8
レイヤー 1
 62
   252
370
    18
100
AcDbSpline
210
0.0
220
0.0
230
1.0
 70
     9
 71
     3
 72
    17
 73
    13
 74
     0
 42
0.0000000001
 43
0.0000000001
 40
0.0
 40
0.0
 40
0.0
 40
0.0
 40
1.0
 40
1.0
 40
1.0
 40
2.0
 40
2.0
 40
2.0
 40
3.0
 40
3.0
 40
3.0
 40
4.0
 40
4.0
 40
4.0
 40
4.0
 10
282.9660182669321
 20
163.500291401996
 30
0.0
 10
282.9660182669321
 20
165.7093835204487
 30
0.0
 10
281.1749561878443
 20
167.5004348336132
 30
0.0
 10
278.9658533034682
 20
167.5004348336132
 30
0.0
 10
276.7567719509389
 20
167.5004348336132
 30
0.0
 10
274.9660759132463
 20
165.7093835204487
 30
0.0
 10
274.9660759132463
 20
163.500291401996
 30
0.0
 10
274.9660759132463
 20
161.2911885176199
 30
0.0
 10
276.7567719509389
 20
159.5001372044555
 30
0.0
 10
278.9658533034682
 20
159.5001372044555
 30
0.0
 10
281.1749561878443
 20
159.5001372044555
 30
0.0
 10
282.9660182669321
 20
161.2911885176199
 30
0.0
 10
282.9660182669321
 20
163.500291401996
 30
0.0
  0
LWPOLYLINE
  5
C1
330
BC
100
AcDbEntity
  8
レイヤー 1
100
AcDbPolyline
 90
        4
 70
     1
 43
0.0
 10
0.0
 20
297.0000884267266
 10
419.9999449633593
 20
297.0000884267266
 10
419.9999449633593
 20
0.0
 10
0.0
 20
0.0
  0
ENDBLK
  5
BF
330
BC
100
AcDbEntity
  8
0
100
AcDbBlockEnd
  0
BLOCK
  5
CF
330
CD
100
AcDbEntity
  8
0
100
AcDbBlockBegin
  2
Block_6
 70
     0
 10
0.0
 20
0.0
 30
0.0
  3
Block_6
  1

  0
SPLINE
  5
D1
330
CD
100
AcDbEntity
  8
レイヤー 1
 62
   112
370
    18
100
AcDbSpline
210
0.0
220
0.0
230
1.0
 70
     9
 71
     3
 72
    65
 73
    61
 74
     0
 42
0.0000000001
 43
0.0000000001
 40
0.0
 40
0.0
 40
0.0
 40
0.0
 40
1.0
 40
1.0
 40
1.0
 40
2.0
 40
2.0
 40
2.0
 40
3.0
 40
3.0
 40
3.0
 40
4.0
 40
4.0
 40
4.0
 40
5.0
 40
5.0
 40
5.0
 40
6.0
 40
6.0
 40
6.0
 40
7.0
 40
7.0
 40
7.0
 40
8.0
 40
8.0
 40
8.0
 40
9.0
 40
9.0
 40
9.0
 40
10.0
 40
10.0
 40
10.0
 40
11.0
 40
11.0
 40
11.0
 40
12.0
 40
12.0
 40
12.0
 40
13.0
 40
13.0
 40
13.0
 40
14.0
 40
14.0
 40
14.0
 40
15.0
 40
15.0
 40
15.0
 40
16.0
 40
16.0
 40
16.0
 40
17.0
 40
17.0
 40
17.0
 40
18.0
 40
18.0
 40
18.0
 40
19.0
 40
19.0
 40
19.0
 40
20.0
 40
20.0
 40
20.0
 40
20.0
 10
364.0530153847897
 20
253.2064221914727
 30
0.0
 10
366.6529858838142
 20
253.9031496896709
 30
0.0
 10
368.5001168919245
 20
255.8102684229181
 30
0.0
 10
368.5001168919245
 20
258.5019645892374
 30
0.0
 10
368.5001168919245
 20
258.5019645892374
 30
0.0
 10
368.5001168919245
 20
264.205664674617
 30
0.0
 10
368.5001168919245
 20
264.205664674617
 30
0.0
 10
368.5001168919245
 20
264.205664674617
 30
0.0
 10
366.5001958990434
 20
264.205664674617
 30
0.0
 10
366.5001958990434
 20
264.205664674617
 30
0.0
 10
366.5001958990434
 20
264.205664674617
 30
0.0
 10
366.5001958990434
 20
258.5019645892374
 30
0.0
 10
366.5001958990434
 20
258.5019645892374
 30
0.0
 10
366.5001958990434
 20
257.1561165060777
 30
0.0
 10
365.576651926835
 20
255.952443207225
 30
0.0
 10
364.276645145476
 20
255.6042517129001
 30
0.0
 10
364.276645145476
 20
255.6042517129001
 30
0.0
 10
339.9473377649481
 20
249.6916927137273
 30
0.0
 10
339.9473377649481
 20
249.6916927137273
 30
0.0
 10
337.3473672659236
 20
248.9949436836823
 30
0.0
 10
335.5002362578133
 20
246.5875970859768
 30
0.0
 10
335.5002362578133
 20
243.8959009196576
 30
0.0
 10
335.5002362578133
 20
243.8959009196576
 30
0.0
 10
335.5002362578133
 20
49.50724943830678
 30
0.0
 10
335.5002362578133
 20
49.50724943830678
 30
0.0
 10
335.5002362578133
 20
46.81555327198752
 30
0.0
 10
337.3473672659236
 20
44.40818514243527
 30
0.0
 10
339.9473377649481
 20
43.71180215378559
 30
0.0
 10
339.9473377649481
 20
43.71180215378559
 30
0.0
 10
364.276645145476
 20
37.79889864506416
 30
0.0
 10
364.276645145476
 20
37.79889864506416
 30
0.0
 10
365.5763074172865
 20
37.45070715073932
 30
0.0
 10
366.5001958990434
 20
36.24703385188659
 30
0.0
 10
366.5001958990434
 20
34.90118576872696
 30
0.0
 10
366.5001958990434
 20
34.90118576872696
 30
0.0
 10
366.5001958990434
 20
29.20099537437293
 30
0.0
 10
366.5001958990434
 20
29.20099537437293
 30
0.0
 10
366.5001958990434
 20
29.20099537437293
 30
0.0
 10
368.5001168919245
 20
29.20099537437293
 30
0.0
 10
368.5001168919245
 20
29.20099537437293
 30
0.0
 10
368.5001168919245
 20
29.20099537437293
 30
0.0
 10
368.5001168919245
 20
34.90118576872696
 30
0.0
 10
368.5001168919245
 20
34.90118576872696
 30
0.0
 10
368.5001168919245
 20
37.59288193504623
 30
0.0
 10
366.6529858838142
 20
39.50034517784193
 30
0.0
 10
364.0530153847897
 20
40.19672816649161
 30
0.0
 10
364.0530153847897
 20
40.19672816649161
 30
0.0
 10
339.723686472415
 20
46.10928716566451
 30
0.0
 10
339.723686472415
 20
46.10928716566451
 30
0.0
 10
338.4240457324513
 20
46.45782316953789
 30
0.0
 10
337.5001357188476
 20
48.16140135514714
 30
0.0
 10
337.5001357188476
 20
49.50724943830678
 30
0.0
 10
337.5001357188476
 20
49.50724943830678
 30
0.0
 10
337.5001357188476
 20
243.8959009196576
 30
0.0
 10
337.5001357188476
 20
243.8959009196576
 30
0.0
 10
337.5001357188476
 20
245.2417490028172
 30
0.0
 10
338.4240457324513
 20
246.9453056565797
 30
0.0
 10
339.723686472415
 20
247.2938631922998
 30
0.0
 10
339.723686472415
 20
247.2938631922998
 30
0.0
 10
364.0530153847897
 20
253.2064221914727
 30
0.0
 10
364.0530153847897
 20
253.2064221914727
 30
0.0
  0
LWPOLYLINE
  5
D2
330
CD
100
AcDbEntity
  8
レイヤー 1
100
AcDbPolyline
 90
        4
 70
     1
 43
0.0
 10
0.0
 20
297.0000884267266
 10
419.9999449633593
 20
297.0000884267266
 10
419.9999449633593
 20
0.0
 10
0.0
 20
0.0
  0
ENDBLK
  5
D0
330
CD
100
AcDbEntity
  8
0
100
AcDbBlockEnd
  0
BLOCK
  5
E1
330
DF
100
AcDbEntity
  8
0
100
AcDbBlockBegin
  2
Block_7
 70
     0
 10
0.0
 20
0.0
 30
0.0
  3
Block_7
  1

  0
LINE
  5
E3
330
DF
100
AcDbEntity
  8
レイヤー 1
 62
    29
370
    18
100
AcDbLine
 10
49.02323505447596
 20
44.89435809390608
 30
0.0
 11
420.0001172181336
 21
44.89435809390608
 31
0.0
  0
LWPOLYLINE
  5
E4
330
DF
100
AcDbEntity
  8
レイヤー 1
100
AcDbPolyline
 90
        4
 70
     1
 43
0.0
 10
0.0
 20
297.0000884267266
 10
419.9999449633593
 20
297.0000884267266
 10
419.9999449633593
 20
0.0
 10
0.0
 20
0.0
  0
ENDBLK
  5
E2
330
DF
100
AcDbEntity
  8
0
100
AcDbBlockEnd
  0
BLOCK
  5
F3
330
F1
100
AcDbEntity
  8
0
100
AcDbBlockBegin
  2
Block_8
 70
     0
 10
0.0
 20
0.0
 30
0.0
  3
Block_8
  1

  0
CIRCLE
  5
F5
330
F1
100
AcDbEntity
  8
レイヤー 1
 62
   252
370
    18
100
AcDbCircle
 10
15.14019914619443
 20
21.27267534465911
 30
0.0
 40
2.296229988425062
  0
SPLINE
  5
F6
330
F1
100
AcDbEntity
  8
レイヤー 1
100
AcDbSpline
210
0.0
220
0.0
230
1.0
 70
     9
 71
     3
 72
    17
 73
    13
 74
     0
 42
0.0000000001
 43
0.0000000001
 40
0.0
 40
0.0
 40
0.0
 40
0.0
 40
1.0
 40
1.0
 40
1.0
 40
2.0
 40
2.0
 40
2.0
 40
3.0
 40
3.0
 40
3.0
 40
4.0
 40
4.0
 40
4.0
 40
4.0
 10
15.1402701340018
 20
16.34818116944947
 30
0.0
 10
15.93296103608973
 20
16.34818116944947
 30
0.0
 10
16.57536906781661
 20
15.70577179198217
 30
0.0
 10
16.57536906781661
 20
14.91308088989423
 30
0.0
 10
16.57536906781661
 20
14.12038864206588
 30
0.0
 10
15.93296103608973
 20
13.477980610339
 30
0.0
 10
15.1402701340018
 20
13.477980610339
 30
0.0
 10
14.34757788617344
 20
13.477980610339
 30
0.0
 10
13.70516985444656
 20
14.12038864206588
 30
0.0
 10
13.70516985444656
 20
14.91308088989423
 30
0.0
 10
13.70516985444656
 20
15.70577179198217
 30
0.0
 10
14.34757788617344
 20
16.34818116944947
 30
0.0
 10
15.1402701340018
 20
16.34818116944947
 30
0.0
  0
CIRCLE
  5
F7
330
F1
100
AcDbEntity
  8
レイヤー 1
 62
    29
370
    18
100
AcDbCircle
 10
15.14026979756669
 20
14.91308088989423
 30
0.0
 40
1.435099774902663
  0
LWPOLYLINE
  5
F8
330
F1
100
AcDbEntity
  8
レイヤー 1
100
AcDbPolyline
 90
        4
 70
     1
 43
0.0
 10
0.0
 20
297.0000884267266
 10
419.9999449633593
 20
297.0000884267266
 10
419.9999449633593
 20
0.0
 10
0.0
 20
0.0
  0
ENDBLK
  5
F4
330
F1
100
AcDbEntity
  8
0
100
AcDbBlockEnd
  0
BLOCK
  5
FE
330
FC
100
AcDbEntity
  8
0
100
AcDbBlockBegin
  2
Block_9
 70
     0
 10
0.0
 20
0.0
 30
0.0
  3
Block_9
  1

  0
LWPOLYLINE
  5
100
330
FC
100
AcDbEntity
  8
レイヤー 1
100
AcDbPolyline
 90
        4
 70
     1
 43
0.0
 10
224.9480480055577
 20
291.8615131920086
 10
194.853287203077
 20
291.8615131920086
 10
194.853287203077
 20
278.7082032248651
 10
224.9480480055577
 20
278.7082032248651
  0
LWPOLYLINE
  5
101
330
FC
100
AcDbEntity
  8
レイヤー 1
100
AcDbPolyline
 90
        4
 70
     1
 43
0.0
 10
0.0
 20
297.0000884267266
 10
419.9999449633593
 20
297.0000884267266
 10
419.9999449633593
 20
0.0
 10
0.0
 20
0.0
  0
ENDBLK
  5
FF
330
FC
100
AcDbEntity
  8
0
100
AcDbBlockEnd
  0
ENDSEC
  0
SECTION
  2
ENTITIES
  0
INSERT
  5
7A
330
70
100
AcDbEntity
  8
レイヤー 1
100
AcDbBlockReference
  2
Block_0
 10
0.0
 20
0.0
 30
0.0
  0
LINE
  5
83
330
70
100
AcDbEntity
  8
レイヤー 1
  6
AI-Linetype-0
 62
    29
370
    25
100
AcDbLine
 10
3.347543771224779
 20
148.5000011496697
 30
0.0
 11
4.400232396085373
 21
148.5000011496697
 31
0.0
  0
LINE
  5
85
330
70
100
AcDbEntity
  8
レイヤー 1
  6
AI-Linetype-1
 62
    29
370
    25
100
AcDbLine
 10
4.750964311895484
 20
148.5000011496697
 30
0.0
 11
417.0031855918212
 21
148.5000011496697
 31
0.0
  0
INSERT
  5
88
330
70
100
AcDbEntity
  8
レイヤー 1
100
AcDbBlockReference
  2
Block_1
 10
0.0
 20
0.0
 30
0.0
  0
LINE
  5
90
330
70
100
AcDbEntity
  8
レイヤー 1
  6
AI-Linetype-3
 62
    29
370
    25
100
AcDbLine
 10
1.057486694124547
 20
248.4999911216858
 30
0.0
 11
2.114408850141258
 21
248.4999911216858
 31
0.0
  0
LINE
  5
92
330
70
100
AcDbEntity
  8
レイヤー 1
  6
AI-Linetype-4
 62
    29
370
    25
100
AcDbLine
 10
2.466869201308348
 20
248.4999911216858
 30
0.0
 11
419.2949922996901
 21
248.4999911216858
 31
0.0
  0
INSERT
  5
95
330
70
100
AcDbEntity
  8
レイヤー 1
100
AcDbBlockReference
  2
Block_2
 10
0.0
 20
0.0
 30
0.0
  0
LINE
  5
9B
330
70
100
AcDbEntity
  8
レイヤー 1
  6
AI-Linetype-5
 62
    29
370
    25
100
AcDbLine
 10
1.057486694124547
 20
48.49999502876856
 30
0.0
 11
2.114408850141258
 21
48.49999502876856
 31
0.0
  0
LINE
  5
9D
330
70
100
AcDbEntity
  8
レイヤー 1
  6
AI-Linetype-6
 62
    29
370
    25
100
AcDbLine
 10
2.466869201308348
 20
48.49999502876856
 30
0.0
 11
419.2949922996901
 21
48.49999502876856
 31
0.0
  0
INSERT
  5
A0
330
70
100
AcDbEntity
  8
レイヤー 1
100
AcDbBlockReference
  2
Block_3
 10
0.0
 20
0.0
 30
0.0
  0
LWPOLYLINE
  5
A6
330
70
100
AcDbEntity
  8
レイヤー 1
100
AcDbPolyline
 90
        4
 70
     1
 43
0.0
 10
0.0
 20
25.81274934759141
 10
420.0002894729079
 20
25.81274934759141
 10
420.0002894729079
 20
25.9891382364362
 10
0.0
 20
25.9891382364362
  0
HATCH
  5
A7
330
70
100
AcDbEntity
  8
レイヤー 1
 62
    29
440
 33554687
100
AcDbHatch
 10
0.0
 20
0.0
 30
0.0
210
0.0
220
0.0
230
1.0
  2
SOLID
 70
     1
 71
     1
 91
        1
 92
        1
 93
        4
 72
     1
 10
0.0
 20
25.81274934759141
 11
420.0002894729079
 21
25.81274934759141
 72
     1
 10
420.0002894729079
 20
25.81274934759141
 11
420.0002894729079
 21
25.9891382364362
 72
     1
 10
420.0002894729079
 20
25.9891382364362
 11
0.0
 21
25.9891382364362
 72
     1
 10
0.0
 20
25.9891382364362
 11
0.0
 21
25.81274934759141
 97
        1
330
A6
 75
     2
 76
     1
 98
        1
 10
0.0
 20
0.0
450
        0
451
        0
460
0.0
461
0.0
452
        0
462
0.0
453
        0
470

  0
INSERT
  5
A9
330
70
100
AcDbEntity
  8
レイヤー 1
100
AcDbBlockReference
  2
Block_4
 10
0.0
 20
0.0
 30
0.0
  0
LINE
  5
B2
330
70
100
AcDbEntity
  8
レイヤー 1
 62
   252
370
    18
100
AcDbLine
 10
136.0342138162247
 20
238.7304324083078
 30
0.0
 11
146.0340448650214
 21
238.7304324083078
 31
0.0
  0
LINE
  5
B3
330
70
100
AcDbEntity
  8
レイヤー 1
 62
   252
370
    18
100
AcDbLine
 10
141.0342100850485
 20
233.7304576713308
 30
0.0
 11
141.0342100850485
 21
243.7302779542041
 31
0.0
  0
LINE
  5
B4
330
70
100
AcDbEntity
  8
レイヤー 1
 62
   252
370
    18
100
AcDbLine
 10
273.9660292894186
 20
238.7304324083078
 30
0.0
 11
283.965849572292
 21
238.7304324083078
 31
0.0
  0
LINE
  5
B5
330
70
100
AcDbEntity
  8
レイヤー 1
 62
   252
370
    18
100
AcDbLine
 10
278.9660040263957
 20
233.7304576713308
 30
0.0
 11
278.9660040263957
 21
243.7302779542041
 31
0.0
  0
LINE
  5
B6
330
70
100
AcDbEntity
  8
レイヤー 1
 62
   252
370
    18
100
AcDbLine
 10
155.2794107684718
 20
73.39428730295406
 30
0.0
 11
165.2792418172685
 21
73.39428730295406
 31
0.0
  0
LINE
  5
B7
330
70
100
AcDbEntity
  8
レイヤー 1
 62
   252
370
    18
100
AcDbLine
 10
160.2793962713722
 20
68.39429641709196
 30
0.0
 11
160.2793962713722
 21
78.39413284885036
 31
0.0
  0
LINE
  5
B8
330
70
100
AcDbEntity
  8
レイヤー 1
 62
   252
370
    18
100
AcDbLine
 10
264.7206418541215
 20
73.39428730295406
 30
0.0
 11
254.7208000394014
 21
73.39428730295406
 31
0.0
  0
LINE
  5
B9
330
70
100
AcDbEntity
  8
レイヤー 1
 62
   252
370
    18
100
AcDbLine
 10
259.7206455852977
 20
68.39429641709196
 30
0.0
 11
259.7206455852977
 21
78.39413284885036
 31
0.0
  0
LINE
  5
BA
330
70
100
AcDbEntity
  8
レイヤー 1
 62
   252
370
    18
100
AcDbLine
 10
273.9660292894186
 20
163.500291401996
 30
0.0
 11
283.965849572292
 21
163.500291401996
 31
0.0
  0
LINE
  5
BB
330
70
100
AcDbEntity
  8
レイヤー 1
 62
   252
370
    18
100
AcDbLine
 10
278.9660040263957
 20
158.5002736013254
 30
0.0
 11
278.9660040263957
 21
168.5001046501221
 31
0.0
  0
INSERT
  5
BD
330
70
100
AcDbEntity
  8
レイヤー 1
100
AcDbBlockReference
  2
Block_5
 10
0.0
 20
0.0
 30
0.0
  0
LWPOLYLINE
  5
C2
330
70
100
AcDbEntity
  8
レイヤー 1
 62
   140
370
    18
100
AcDbPolyline
 90
        4
 70
     1
 43
0.0
 10
365.999881907198
 20
267.5057431717846
 10
364.9997706878299
 20
267.5057431717846
 10
364.9997706878299
 20
261.4058571056012
 10
365.999881907198
 20
261.4058571056012
  0
LWPOLYLINE
  5
C3
330
70
100
AcDbEntity
  8
レイヤー 1
 62
   140
370
    18
100
AcDbPolyline
 90
        4
 70
     1
 43
0.0
 10
415.0000348219228
 20
267.5057431717846
 10
365.9999249708915
 20
267.5057431717846
 10
365.9999249708915
 20
267.0058598168749
 10
415.0000348219228
 20
267.0058598168749
  0
LWPOLYLINE
  5
C4
330
70
100
AcDbEntity
  8
レイヤー 1
 62
     1
370
    18
100
AcDbPolyline
 90
        4
 70
     1
 43
0.0
 10
370.0000253388151
 20
266.2057579222724
 10
368.9999141194471
 20
266.2057579222724
 10
368.9999141194471
 20
260.4057458862332
 10
370.0000253388151
 20
260.4057458862332
  0
LWPOLYLINE
  5
C5
330
70
100
AcDbEntity
  8
レイヤー 1
 62
     1
370
    18
100
AcDbPolyline
 90
        4
 70
     1
 43
0.0
 10
413.9998805388611
 20
266.2057579222724
 10
370.0000253388151
 20
266.2057579222724
 10
370.0000253388151
 20
265.7058745673626
 10
413.9998805388611
 20
265.7058745673626
  0
LWPOLYLINE
  5
C6
330
70
100
AcDbEntity
  8
レイヤー 1
 62
     1
370
    18
100
AcDbPolyline
 90
        7
 70
     0
 43
0.0
 10
414.9999917582292
 20
266.205693326732
 10
413.9998374751675
 20
266.205693326732
 10
413.9998374751675
 20
185.3860571503766
 10
413.9998374751675
 20
27.20085906302401
 10
414.9999917582292
 20
27.20085906302401
 10
414.9999917582292
 20
185.3860571503766
 10
414.9999917582292
 20
266.205693326732
  0
LINE
  5
C7
330
70
100
AcDbEntity
  8
レイヤー 1
 62
   133
370
    18
100
AcDbLine
 10
390.4999798964071
 20
274.3765770120266
 30
0.0
 11
390.4999798964071
 21
262.5257069249285
 31
0.0
  0
LWPOLYLINE
  5
C8
330
70
100
AcDbEntity
  8
レイヤー 1
 62
   140
370
    18
100
AcDbPolyline
 90
        4
 70
     1
 43
0.0
 10
365.999881907198
 20
25.90094379201381
 10
364.9997706878299
 20
25.90094379201381
 10
364.9997706878299
 20
32.00082447523548
 10
365.999881907198
 20
32.00082447523548
  0
LWPOLYLINE
  5
C9
330
70
100
AcDbEntity
  8
レイヤー 1
 62
   140
370
    18
100
AcDbPolyline
 90
        4
 70
     1
 43
0.0
 10
415.0000348219228
 20
25.90094379201381
 10
365.9999249708915
 20
25.90094379201381
 10
365.9999249708915
 20
26.40082983840441
 10
415.0000348219228
 20
26.40082983840441
  0
LWPOLYLINE
  5
CA
330
70
100
AcDbEntity
  8
レイヤー 1
 62
     1
370
    18
100
AcDbPolyline
 90
        4
 70
     1
 43
0.0
 10
370.0000253388151
 20
27.2009317330069
 10
368.9999141194471
 20
27.2009317330069
 10
368.9999141194471
 20
33.00095184348859
 10
370.0000253388151
 20
33.00095184348859
  0
LWPOLYLINE
  5
CB
330
70
100
AcDbEntity
  8
レイヤー 1
 62
     1
370
    18
100
AcDbPolyline
 90
        4
 70
     1
 43
0.0
 10
413.9998805388611
 20
27.2009317330069
 10
370.0000253388151
 20
27.2009317330069
 10
370.0000253388151
 20
27.7008177793975
 10
413.9998805388611
 20
27.7008177793975
  0
LINE
  5
CC
330
70
100
AcDbEntity
  8
レイヤー 1
 62
   133
370
    18
100
AcDbLine
 10
390.4999798964071
 20
19.03010322306976
 30
0.0
 11
390.4999798964071
 21
30.88096658146568
 31
0.0
  0
INSERT
  5
CE
330
70
100
AcDbEntity
  8
レイヤー 1
100
AcDbBlockReference
  2
Block_6
 10
0.0
 20
0.0
 30
0.0
  0
LINE
  5
D3
330
70
100
AcDbEntity
  8
レイヤー 1
 62
    29
370
    35
100
AcDbLine
 10
81.60815393738877
 20
48.49999502876856
 30
0.0
 11
81.60815393738877
 21
248.4999480579922
 31
0.0
  0
LINE
  5
D4
330
70
100
AcDbEntity
  8
レイヤー 1
 62
    29
370
    35
100
AcDbLine
 10
81.60815393738877
 20
248.4999911216858
 30
0.0
 11
79.03605103106293
 21
240.9537032478671
 31
0.0
  0
LINE
  5
D5
330
70
100
AcDbEntity
  8
レイヤー 1
 62
    29
370
    35
100
AcDbLine
 10
81.60815393738877
 20
248.4999911216858
 30
0.0
 11
84.1802514607529
 21
240.9537032478671
 31
0.0
  0
LINE
  5
D6
330
70
100
AcDbEntity
  8
レイヤー 1
 62
    29
370
    35
100
AcDbLine
 10
81.60815393738877
 20
48.49999502876856
 30
0.0
 11
84.1802514607529
 21
56.04626137074049
 31
0.0
  0
LINE
  5
D7
330
70
100
AcDbEntity
  8
レイヤー 1
 62
    29
370
    35
100
AcDbLine
 10
81.60815393738877
 20
48.49999502876856
 30
0.0
 11
79.03605103106293
 21
56.04626137074049
 31
0.0
  0
MTEXT
  5
D8
330
70
100
AcDbEntity
  8
レイヤー 1
100
AcDbMText
 10
78.51389836361805
 20
109.3988348793343
 30
0.0
 40
0.2
 41
0.0
 46
0.0
 71
     7
 72
     1
  1
\C29;\FMS UI Gothic|b0|i0|c128;\H5.696928;\W1.000000;TOP面 H200(基準寸)
 11
-0.0000000000000002
 21
1.0
 31
0.0
 73
     1
 44
1.0
  0
LINE
  5
D9
330
70
100
AcDbEntity
  8
レイヤー 1
 62
    29
370
    35
100
AcDbLine
 10
53.22940596203444
 20
44.89435809390608
 30
0.0
 11
53.22940596203444
 21
248.5000557172261
 31
0.0
  0
LINE
  5
DA
330
70
100
AcDbEntity
  8
レイヤー 1
 62
    29
370
    35
100
AcDbLine
 10
53.22940596203444
 20
248.4999911216858
 30
0.0
 11
50.65730305570862
 21
240.8175358488126
 31
0.0
  0
LINE
  5
DB
330
70
100
AcDbEntity
  8
レイヤー 1
 62
    29
370
    35
100
AcDbLine
 10
53.22940596203444
 20
248.4999911216858
 30
0.0
 11
55.80150348539858
 21
240.8175358488126
 31
0.0
  0
LINE
  5
DC
330
70
100
AcDbEntity
  8
レイヤー 1
 62
    29
370
    35
100
AcDbLine
 10
53.22940596203444
 20
44.89435809390608
 30
0.0
 11
55.80150348539858
 21
52.57679721789422
 31
0.0
  0
LINE
  5
DD
330
70
100
AcDbEntity
  8
レイヤー 1
 62
    29
370
    35
100
AcDbLine
 10
53.22940596203444
 20
44.89435809390608
 30
0.0
 11
50.65730305570862
 21
52.57679721789422
 31
0.0
  0
MTEXT
  5
DE
330
70
100
AcDbEntity
  8
レイヤー 1
100
AcDbMText
 10
50.13541953634852
 20
104.0115668142749
 30
0.0
 40
0.2
 41
0.0
 46
0.0
 71
     7
 72
     1
  1
\C29;\FMS UI Gothic|b0|i0|c128;\H5.696928;\W1.018028;TOP面 H203.5(参考寸)
 11
-0.0000000000000002
 21
1.0
 31
0.0
 73
     1
 44
1.0
  0
INSERT
  5
E0
330
70
100
AcDbEntity
  8
レイヤー 1
100
AcDbBlockReference
  2
Block_7
 10
0.0
 20
0.0
 30
0.0
  0
MTEXT
  5
E5
330
70
100
AcDbEntity
  8
レイヤー 1
100
AcDbMText
 10
332.2202039100005
 20
16.17954643692669
 30
0.0
 40
0.2
 41
0.0
 46
0.0
 71
     7
 72
     1
  1
\C29;\FKozuka Gothic Pr6N R|b0|i0|c128;\H3.102177;\W1.000000;※成型文字の断面は
 73
     1
 44
1.0
  0
MTEXT
  5
E6
330
70
100
AcDbEntity
  8
レイヤー 1
100
AcDbMText
 10
332.2202039100005
 20
8.511452905857606
 30
0.0
 40
0.2
 41
0.0
 46
0.0
 71
     7
 72
     1
  1
\C29;\FKozuka Gothic Pr6N R|b0|i0|c128;\H3.102177;\W1.000000;　実際のものと異なる場合があります
 73
     1
 44
1.0
  0
MTEXT
  5
E7
330
70
100
AcDbEntity
  8
レイヤー 1
100
AcDbMText
 10
20.53173556344313
 20
40.79992132226466
 30
0.0
 40
0.2
 41
0.0
 46
0.0
 71
     7
 72
     1
  1
\C29;\FKozuka Gothic Pr6N R|b0|i0|c128;\H2.497667;\W1.000000;材質：アクリル
 73
     1
 44
1.0
  0
MTEXT
  5
E8
330
70
100
AcDbEntity
  8
レイヤー 1
100
AcDbMText
 10
20.53173556344313
 20
34.62631021269695
 30
0.0
 40
0.2
 41
0.0
 46
0.0
 71
     7
 72
     1
  1
\C29;\FKozuka Gothic Pr6N R|b0|i0|c128;\H2.497667;\W1.000000;色：乳白色
 73
     1
 44
1.0
  0
SPLINE
  5
E9
330
70
100
AcDbEntity
  8
レイヤー 1
100
AcDbSpline
210
0.0
220
0.0
230
1.0
 70
    11
 71
     3
 72
    17
 73
    13
 74
     0
 42
0.0000000001
 43
0.0000000001
 40
0.0
 40
0.0
 40
0.0
 40
0.0
 40
1.0
 40
1.0
 40
1.0
 40
2.0
 40
2.0
 40
2.0
 40
3.0
 40
3.0
 40
3.0
 40
4.0
 40
4.0
 40
4.0
 40
4.0
 10
61.45600330087949
 20
10.50819189550697
 30
0.0
 10
61.45600330087949
 20
10.50819189550697
 30
0.0
 10
10.38471819300115
 20
10.50819189550697
 30
0.0
 10
10.38471819300115
 20
10.50819189550697
 30
0.0
 10
10.38471819300115
 20
10.50819189550697
 30
0.0
 10
10.38471819300115
 20
25.81310193158248
 30
0.0
 10
10.38471819300115
 20
25.81310193158248
 30
0.0
 10
10.38471819300115
 20
25.81310193158248
 30
0.0
 10
61.45600330087949
 20
25.81310193158248
 30
0.0
 10
61.45600330087949
 20
25.81310193158248
 30
0.0
 10
61.45600330087949
 20
25.81310193158248
 30
0.0
 10
61.45600330087949
 20
10.50819189550697
 30
0.0
 10
61.45600330087949
 20
10.50819189550697
 30
0.0
  0
SPLINE
  5
EA
330
70
100
AcDbEntity
  8
レイヤー 1
100
AcDbSpline
210
0.0
220
0.0
230
1.0
 70
    11
 71
     3
 72
    17
 73
    13
 74
     0
 42
0.0000000001
 43
0.0000000001
 40
0.0
 40
0.0
 40
0.0
 40
0.0
 40
1.0
 40
1.0
 40
1.0
 40
2.0
 40
2.0
 40
2.0
 40
3.0
 40
3.0
 40
3.0
 40
4.0
 40
4.0
 40
4.0
 40
4.0
 10
61.45600330087949
 20
25.9891382364362
 30
0.0
 10
61.45600330087949
 20
25.9891382364362
 30
0.0
 10
10.38471819300115
 20
25.9891382364362
 30
0.0
 10
10.38471819300115
 20
25.9891382364362
 30
0.0
 10
10.38471819300115
 20
25.9891382364362
 30
0.0
 10
10.38471819300115
 20
32.50812016840021
 30
0.0
 10
10.38471819300115
 20
32.50812016840021
 30
0.0
 10
10.38471819300115
 20
32.50812016840021
 30
0.0
 10
61.45600330087949
 20
32.50812016840021
 30
0.0
 10
61.45600330087949
 20
32.50812016840021
 30
0.0
 10
61.45600330087949
 20
32.50812016840021
 30
0.0
 10
61.45600330087949
 20
25.9891382364362
 30
0.0
 10
61.45600330087949
 20
25.9891382364362
 30
0.0
  0
LWPOLYLINE
  5
EB
330
70
100
AcDbEntity
  8
レイヤー 1
100
AcDbPolyline
 90
        4
 70
     1
 43
0.0
 10
10.3843669547505
 20
25.81274934759141
 10
61.45600868384119
 20
25.81274934759141
 10
61.45600868384119
 20
25.9891382364362
 10
10.3843669547505
 20
25.9891382364362
  0
HATCH
  5
EC
330
70
100
AcDbEntity
  8
レイヤー 1
 62
   255
440
 33554687
100
AcDbHatch
 10
0.0
 20
0.0
 30
0.0
210
0.0
220
0.0
230
1.0
  2
SOLID
 70
     1
 71
     1
 91
        1
 92
        1
 93
        4
 72
     1
 10
10.3843669547505
 20
25.81274934759141
 11
61.45600868384119
 21
25.81274934759141
 72
     1
 10
61.45600868384119
 20
25.81274934759141
 11
61.45600868384119
 21
25.9891382364362
 72
     1
 10
61.45600868384119
 20
25.9891382364362
 11
10.3843669547505
 21
25.9891382364362
 72
     1
 10
10.3843669547505
 20
25.9891382364362
 11
10.3843669547505
 21
25.81274934759141
 97
        1
330
EB
 75
     2
 76
     1
 98
        1
 10
0.0
 20
0.0
450
        0
451
        0
460
0.0
461
0.0
452
        0
462
0.0
453
        0
470

  0
LINE
  5
ED
330
70
100
AcDbEntity
  8
レイヤー 1
 62
   252
370
    18
100
AcDbLine
 10
12.26999959638929
 20
27.94384504255424
 30
0.0
 11
18.0103993688698
 21
27.94384504255424
 31
0.0
  0
LINE
  5
EE
330
70
100
AcDbEntity
  8
レイヤー 1
 62
   252
370
    18
100
AcDbLine
 10
15.14023379901035
 20
25.07357450494173
 30
0.0
 11
15.14023379901035
 21
30.81397293168182
 31
0.0
  0
LINE
  5
EF
330
70
100
AcDbEntity
  8
レイヤー 1
 62
   252
370
    18
100
AcDbLine
 10
12.26999959638929
 20
21.27267601752933
 30
0.0
 11
18.0103993688698
 21
21.27267601752933
 31
0.0
  0
LINE
  5
F0
330
70
100
AcDbEntity
  8
レイヤー 1
 62
   252
370
    18
100
AcDbLine
 10
15.14023379901035
 20
18.40240547991681
 30
0.0
 11
15.14023379901035
 21
24.1428039066569
 31
0.0
  0
INSERT
  5
F2
330
70
100
AcDbEntity
  8
レイヤー 1
100
AcDbBlockReference
  2
Block_8
 10
0.0
 20
0.0
 30
0.0
  0
MTEXT
  5
F9
330
70
100
AcDbEntity
  8
レイヤー 1
100
AcDbMText
 10
20.84093288324431
 20
26.58407931192973
 30
0.0
 40
0.2
 41
0.0
 46
0.0
 71
     7
 72
     1
  1
\C29;\FKozuka Gothic Pr6N R|b0|i0|c128;\H2.437423;\W1.000000;ベース仮固定穴位置
 73
     1
 44
1.0
  0
MTEXT
  5
FA
330
70
100
AcDbEntity
  8
レイヤー 1
100
AcDbMText
 10
20.84093288324431
 20
19.95709363650314
 30
0.0
 40
0.2
 41
0.0
 46
0.0
 71
     7
 72
     1
  1
\C29;\FKozuka Gothic Pr6N R|b0|i0|c128;\H2.437423;\W1.000000;ベース電源穴位置 
 73
     1
 44
1.0
  0
MTEXT
  5
FB
330
70
100
AcDbEntity
  8
レイヤー 1
100
AcDbMText
 10
20.84093288324431
 20
13.65704752262676
 30
0.0
 40
0.2
 41
0.0
 46
0.0
 71
     7
 72
     1
  1
\C29;\FKozuka Gothic Pr6N R|b0|i0|c128;\H2.437423;\W1.000000;本体/ベース仮固定穴位置
 73
     1
 44
1.0
  0
INSERT
  5
FD
330
70
100
AcDbEntity
  8
レイヤー 1
100
AcDbBlockReference
  2
Block_9
 10
0.0
 20
0.0
 30
0.0
  0
MTEXT
  5
102
330
70
100
AcDbEntity
  8
レイヤー 1
100
AcDbMText
 10
197.823067170596
 20
282.325230506675
 30
0.0
 40
0.2
 41
0.0
 46
0.0
 71
     7
 72
     1
  1
\C29;\FA-OTF Shin Go Pro B|b0|i0|c128;\H5.696928;\W1.000000;↑上↑
 73
     1
 44
1.0
  0
ENDSEC
  0
SECTION
  2
OBJECTS
  0
DICTIONARY
  5
C
330
0
100
AcDbDictionary
281
     1
  3
ACAD_COLOR
350
63
  3
ACAD_DETAILVIEWSTYLE
350
6A
  3
ACAD_GROUP
350
D
  3
ACAD_LAYOUT
350
62
  3
ACAD_MATERIAL
350
10
  3
ACAD_MLEADERSTYLE
350
66
  3
ACAD_MLINESTYLE
350
5F
  3
ACAD_PLOTSETTINGS
350
61
  3
ACAD_PLOTSTYLENAME
350
E
  3
ACAD_SCALELIST
350
42
  3
ACAD_SECTIONVIEWSTYLE
350
68
  3
ACAD_TABLESTYLE
350
64
  3
ACAD_VISUALSTYLE
350
29
  3
ACDB_RECOMPOSE_DATA
350
10E
  3
AcDbVariableDictionary
350
103
  0
DICTIONARY
  5
63
102
{ACAD_REACTORS
330
C
102
}
330
C
100
AcDbDictionary
281
     1
  0
DICTIONARY
  5
6A
102
{ACAD_REACTORS
330
C
102
}
330
C
100
AcDbDictionary
281
     1
  3
Imperial24
350
6B
  0
DICTIONARY
  5
D
102
{ACAD_REACTORS
330
C
102
}
330
C
100
AcDbDictionary
281
     1
  0
DICTIONARY
  5
62
102
{ACAD_REACTORS
330
C
102
}
330
C
100
AcDbDictionary
281
     1
  3
Layout1
350
6F
  3
Layout2
350
77
  3
Model
350
73
  0
DICTIONARY
  5
10
102
{ACAD_REACTORS
330
C
102
}
330
C
100
AcDbDictionary
281
     1
  3
ByBlock
350
19
  3
ByLayer
350
11
  3
Global
350
21
  0
DICTIONARY
  5
66
102
{ACAD_REACTORS
330
C
102
}
330
C
100
AcDbDictionary
281
     1
  3
Standard
350
67
  0
DICTIONARY
  5
5F
102
{ACAD_REACTORS
330
C
102
}
330
C
100
AcDbDictionary
281
     1
  3
Standard
350
60
  0
DICTIONARY
  5
61
102
{ACAD_REACTORS
330
C
102
}
330
C
100
AcDbDictionary
281
     1
  0
ACDBDICTIONARYWDFLT
  5
E
102
{ACAD_REACTORS
330
C
102
}
330
C
100
AcDbDictionary
281
     1
  3
Normal
350
F
100
AcDbDictionaryWithDefault
340
F
  0
DICTIONARY
  5
42
102
{ACAD_REACTORS
330
C
102
}
330
C
100
AcDbDictionary
281
     1
  3
A0
350
43
  3
A1
350
44
  3
A2
350
45
  3
A3
350
46
  3
A4
350
47
  3
A5
350
48
  3
A6
350
49
  3
A7
350
4A
  3
A8
350
4B
  3
A9
350
4C
  3
B0
350
4D
  3
B1
350
4E
  3
B2
350
4F
  3
B3
350
50
  3
B4
350
51
  3
B5
350
52
  3
B6
350
53
  0
DICTIONARY
  5
68
102
{ACAD_REACTORS
330
C
102
}
330
C
100
AcDbDictionary
281
     1
  3
Imperial24
350
69
  0
DICTIONARY
  5
64
102
{ACAD_REACTORS
330
C
102
}
330
C
100
AcDbDictionary
281
     1
  3
Standard
350
65
  0
DICTIONARY
  5
29
102
{ACAD_REACTORS
330
C
102
}
330
C
100
AcDbDictionary
281
     1
  3
2dWireframe
350
2F
  3
Basic
350
2E
  3
Brighten
350
35
  3
ColorChange
350
39
  3
Conceptual
350
32
  3
Dim
350
34
  3
EdgeColorOff
350
41
  3
Facepattern
350
38
  3
Flat
350
2A
  3
FlatWithEdges
350
2B
  3
Gouraud
350
2C
  3
GouraudWithEdges
350
2D
  3
Hidden
350
31
  3
JitterOff
350
3F
  3
Linepattern
350
37
  3
OverhangOff
350
40
  3
Realistic
350
33
  3
Shaded
350
3E
  3
Shaded with edges
350
3D
  3
Shades of Gray
350
3A
  3
Sketchy
350
3B
  3
Thicken
350
36
  3
Wireframe
350
30
  3
X-Ray
350
3C
  0
XRECORD
  5
10E
102
{ACAD_REACTORS
330
C
102
}
330
C
100
AcDbXrecord
280
     1
 90
        1
330
65
  0
DICTIONARY
  5
103
102
{ACAD_REACTORS
330
C
102
}
330
C
100
AcDbDictionary
281
     1
  3
CANNOSCALE
350
108
  3
CMLEADERSTYLE
350
105
  3
CTABLESTYLE
350
104
  3
CVIEWDETAILSTYLE
350
106
  3
CVIEWSECTIONSTYLE
350
107
  0
ACDBDETAILVIEWSTYLE
  5
6B
102
{ACAD_XDICTIONARY
360
143
102
}
102
{ACAD_REACTORS
330
6A
102
}
330
6A
100
AcDbModelDocViewStyle
 70
     0
  3
Imperial24
290
     0
100
AcDbDetailViewStyle
 70
     0
 71
     0
 90
        3
 71
     1
340
55
 62
   256
 40
0.24
340
0
 62
   256
 40
0.24
300

 40
0.36
280
     3
 71
     2
340
5D
 90
       25
 62
   256
 71
     3
340
55
 62
   256
 40
0.24
 90
        1
 40
0.75
 90
        1
300
%<\AcVar ViewType \f "%tc1">% %<\AcVar ViewDetailId>%\PSCALE %<\AcVar ViewScale \f "%sn">%
 71
     4
340
5D
 90
       25
 62
   256
340
5D
 90
       25
 62
   256
280
     0
  0
LAYOUT
  5
6F
102
{ACAD_REACTORS
330
62
102
}
330
62
100
AcDbPlotSettings
  1

  2

  4

  6

 40
0.0
 41
0.0
 42
0.0
 43
0.0
 44
0.0
 45
0.0
 46
0.0
 47
0.0
 48
0.0
 49
0.0
140
0.0
141
0.0
142
1.0
143
1.0
 70
   688
 72
     0
 73
     0
 74
     5
  7

 75
    16
147
1.0
 76
     0
 77
     2
 78
   300
148
0.0
149
0.0
100
AcDbLayout
  1
Layout1
 70
     1
 71
     1
 10
0.0
 20
0.0
 11
12.0
 21
9.0
 12
0.0
 22
0.0
 32
0.0
 14
0.0
 24
0.0
 34
0.0
 15
0.0
 25
0.0
 35
0.0
146
0.0
 13
0.0
 23
0.0
 33
0.0
 16
1.0
 26
0.0
 36
0.0
 17
0.0
 27
1.0
 37
0.0
 76
     0
330
6C
  0
LAYOUT
  5
77
102
{ACAD_REACTORS
330
62
102
}
330
62
100
AcDbPlotSettings
  1

  2

  4

  6

 40
0.0
 41
0.0
 42
0.0
 43
0.0
 44
0.0
 45
0.0
 46
0.0
 47
0.0
 48
0.0
 49
0.0
140
0.0
141
0.0
142
1.0
143
1.0
 70
   688
 72
     0
 73
     0
 74
     5
  7

 75
    16
147
1.0
 76
     0
 77
     2
 78
   300
148
0.0
149
0.0
100
AcDbLayout
  1
Layout2
 70
     1
 71
     2
 10
0.0
 20
0.0
 11
12.0
 21
9.0
 12
0.0
 22
0.0
 32
0.0
 14
0.0
 24
0.0
 34
0.0
 15
0.0
 25
0.0
 35
0.0
146
0.0
 13
0.0
 23
0.0
 33
0.0
 16
1.0
 26
0.0
 36
0.0
 17
0.0
 27
1.0
 37
0.0
 76
     0
330
74
  0
LAYOUT
  5
73
102
{ACAD_REACTORS
330
62
102
}
330
62
100
AcDbPlotSettings
  1

  2

  4

  6

 40
0.0
 41
0.0
 42
0.0
 43
0.0
 44
0.0
 45
0.0
 46
0.0
 47
0.0
 48
0.0
 49
0.0
140
0.0
141
0.0
142
1.0
143
1.0
 70
  1712
 72
     0
 73
     0
 74
     0
  7

 75
     0
147
1.0
 76
     0
 77
     2
 78
   300
148
0.0
149
0.0
100
AcDbLayout
  1
Model
 70
     1
 71
     0
 10
0.0
 20
0.0
 11
12.0
 21
9.0
 12
0.0
 22
0.0
 32
0.0
 14
0.0
 24
0.0
 34
0.0
 15
0.0
 25
0.0
 35
0.0
146
0.0
 13
0.0
 23
0.0
 33
0.0
 16
1.0
 26
0.0
 36
0.0
 17
0.0
 27
1.0
 37
0.0
 76
     0
330
70
  0
MATERIAL
  5
19
102
{ACAD_XDICTIONARY
360
1A
102
}
102
{ACAD_REACTORS
330
10
102
}
330
10
100
AcDbMaterial
  1
ByBlock
 72
     0
 43
0.0208333333333333
 43
0.0
 43
0.0
 43
0.0
 43
0.0
 43
0.0208333333333333
 43
0.0
 43
0.0
 43
0.0
 43
0.0
 43
1.0
 43
0.0
 43
0.0
 43
0.0
 43
0.0
 43
1.0
 77
     0
 47
0.0208333333333333
 47
0.0
 47
0.0
 47
0.0
 47
0.0
 47
0.0208333333333333
 47
0.0
 47
0.0
 47
0.0
 47
0.0
 47
1.0
 47
0.0
 47
0.0
 47
0.0
 47
0.0
 47
1.0
171
     0
 49
0.0208333333333333
 49
0.0
 49
0.0
 49
0.0
 49
0.0
 49
0.0208333333333333
 49
0.0
 49
0.0
 49
0.0
 49
0.0
 49
1.0
 49
0.0
 49
0.0
 49
0.0
 49
0.0
 49
1.0
175
     0
142
0.0208333333333333
142
0.0
142
0.0
142
0.0
142
0.0
142
0.0208333333333333
142
0.0
142
0.0
142
0.0
142
0.0
142
1.0
142
0.0
142
0.0
142
0.0
142
0.0
142
1.0
179
     0
144
0.0208333333333333
144
0.0
144
0.0
144
0.0
144
0.0
144
0.0208333333333333
144
0.0
144
0.0
144
0.0
144
0.0
144
1.0
144
0.0
144
0.0
144
0.0
144
0.0
144
1.0
147
0.0208333333333333
147
0.0
147
0.0
147
0.0
147
0.0
147
0.0208333333333333
147
0.0
147
0.0
147
0.0
147
0.0
147
1.0
147
0.0
147
0.0
147
0.0
147
0.0
147
1.0
  0
MATERIAL
  5
11
102
{ACAD_XDICTIONARY
360
12
102
}
102
{ACAD_REACTORS
330
10
102
}
330
10
100
AcDbMaterial
  1
ByLayer
 72
     0
 43
0.0208333333333333
 43
0.0
 43
0.0
 43
0.0
 43
0.0
 43
0.0208333333333333
 43
0.0
 43
0.0
 43
0.0
 43
0.0
 43
1.0
 43
0.0
 43
0.0
 43
0.0
 43
0.0
 43
1.0
 77
     0
 47
0.0208333333333333
 47
0.0
 47
0.0
 47
0.0
 47
0.0
 47
0.0208333333333333
 47
0.0
 47
0.0
 47
0.0
 47
0.0
 47
1.0
 47
0.0
 47
0.0
 47
0.0
 47
0.0
 47
1.0
171
     0
 49
0.0208333333333333
 49
0.0
 49
0.0
 49
0.0
 49
0.0
 49
0.0208333333333333
 49
0.0
 49
0.0
 49
0.0
 49
0.0
 49
1.0
 49
0.0
 49
0.0
 49
0.0
 49
0.0
 49
1.0
175
     0
142
0.0208333333333333
142
0.0
142
0.0
142
0.0
142
0.0
142
0.0208333333333333
142
0.0
142
0.0
142
0.0
142
0.0
142
1.0
142
0.0
142
0.0
142
0.0
142
0.0
142
1.0
179
     0
144
0.0208333333333333
144
0.0
144
0.0
144
0.0
144
0.0
144
0.0208333333333333
144
0.0
144
0.0
144
0.0
144
0.0
144
1.0
144
0.0
144
0.0
144
0.0
144
0.0
144
1.0
147
0.0208333333333333
147
0.0
147
0.0
147
0.0
147
0.0
147
0.0208333333333333
147
0.0
147
0.0
147
0.0
147
0.0
147
1.0
147
0.0
147
0.0
147
0.0
147
0.0
147
1.0
  0
MATERIAL
  5
21
102
{ACAD_XDICTIONARY
360
22
102
}
102
{ACAD_REACTORS
330
10
102
}
330
10
100
AcDbMaterial
  1
Global
 72
     0
 43
0.0208333333333333
 43
0.0
 43
0.0
 43
0.0
 43
0.0
 43
0.0208333333333333
 43
0.0
 43
0.0
 43
0.0
 43
0.0
 43
1.0
 43
0.0
 43
0.0
 43
0.0
 43
0.0
 43
1.0
 77
     0
 47
0.0208333333333333
 47
0.0
 47
0.0
 47
0.0
 47
0.0
 47
0.0208333333333333
 47
0.0
 47
0.0
 47
0.0
 47
0.0
 47
1.0
 47
0.0
 47
0.0
 47
0.0
 47
0.0
 47
1.0
171
     0
 49
0.0208333333333333
 49
0.0
 49
0.0
 49
0.0
 49
0.0
 49
0.0208333333333333
 49
0.0
 49
0.0
 49
0.0
 49
0.0
 49
1.0
 49
0.0
 49
0.0
 49
0.0
 49
0.0
 49
1.0
175
     0
142
0.0208333333333333
142
0.0
142
0.0
142
0.0
142
0.0
142
0.0208333333333333
142
0.0
142
0.0
142
0.0
142
0.0
142
1.0
142
0.0
142
0.0
142
0.0
142
0.0
142
1.0
179
     0
144
0.0208333333333333
144
0.0
144
0.0
144
0.0
144
0.0
144
0.0208333333333333
144
0.0
144
0.0
144
0.0
144
0.0
144
1.0
144
0.0
144
0.0
144
0.0
144
0.0
144
1.0
147
0.0208333333333333
147
0.0
147
0.0
147
0.0
147
0.0
147
0.0208333333333333
147
0.0
147
0.0
147
0.0
147
0.0
147
1.0
147
0.0
147
0.0
147
0.0
147
0.0
147
1.0
  0
MLEADERSTYLE
  5
67
102
{ACAD_XDICTIONARY
360
13F
102
}
102
{ACAD_REACTORS
330
66
102
}
330
66
100
AcDbMLeaderStyle
179
     2
170
     2
171
     1
172
     0
 90
        2
 40
0.0
 41
0.0
173
     1
 91
-1056964608
340
5B
 92
       -2
290
     1
 42
0.09
291
     1
 43
0.36
  3
Standard
 44
0.18
300

342
55
174
     1
178
     6
175
     1
176
     0
 93
-1056964608
 45
0.18
292
     0
297
     0
 46
0.18
 94
-1056964608
 47
1.0
 49
1.0
140
1.0
293
     1
141
0.0
294
     1
177
     0
142
1.0
295
     0
296
     0
143
0.125
271
     0
272
     9
273
     9
  0
MLINESTYLE
  5
60
102
{ACAD_REACTORS
330
5F
102
}
330
5F
100
AcDbMlineStyle
  2
STANDARD
 70
     0
  3

 62
   256
 51
90.0
 52
90.0
 71
     2
 49
0.5
 62
   256
  6
BYLAYER
 49
-0.5
 62
   256
  6
BYLAYER
  0
ACDBPLACEHOLDER
  5
F
102
{ACAD_REACTORS
330
E
102
}
330
E
  0
SCALE
  5
43
102
{ACAD_REACTORS
330
42
102
}
330
42
100
AcDbScale
 70
     0
300
1:1
140
1.0
141
1.0
290
     1
  0
SCALE
  5
44
102
{ACAD_REACTORS
330
42
102
}
330
42
100
AcDbScale
 70
     0
300
1/128" = 1'-0"
140
0.0078125
141
12.0
290
     0
  0
SCALE
  5
45
102
{ACAD_REACTORS
330
42
102
}
330
42
100
AcDbScale
 70
     0
300
1/64" = 1'-0"
140
0.015625
141
12.0
290
     0
  0
SCALE
  5
46
102
{ACAD_REACTORS
330
42
102
}
330
42
100
AcDbScale
 70
     0
300
1/32" = 1'-0"
140
0.03125
141
12.0
290
     0
  0
SCALE
  5
47
102
{ACAD_REACTORS
330
42
102
}
330
42
100
AcDbScale
 70
     0
300
1/16" = 1'-0"
140
0.0625
141
12.0
290
     0
  0
SCALE
  5
48
102
{ACAD_REACTORS
330
42
102
}
330
42
100
AcDbScale
 70
     0
300
3/32" = 1'-0"
140
0.09375
141
12.0
290
     0
  0
SCALE
  5
49
102
{ACAD_REACTORS
330
42
102
}
330
42
100
AcDbScale
 70
     0
300
1/8" = 1'-0"
140
0.125
141
12.0
290
     0
  0
SCALE
  5
4A
102
{ACAD_REACTORS
330
42
102
}
330
42
100
AcDbScale
 70
     0
300
3/16" = 1'-0"
140
0.1875
141
12.0
290
     0
  0
SCALE
  5
4B
102
{ACAD_REACTORS
330
42
102
}
330
42
100
AcDbScale
 70
     0
300
1/4" = 1'-0"
140
0.25
141
12.0
290
     0
  0
SCALE
  5
4C
102
{ACAD_REACTORS
330
42
102
}
330
42
100
AcDbScale
 70
     0
300
3/8" = 1'-0"
140
0.375
141
12.0
290
     0
  0
SCALE
  5
4D
102
{ACAD_REACTORS
330
42
102
}
330
42
100
AcDbScale
 70
     0
300
1/2" = 1'-0"
140
0.5
141
12.0
290
     0
  0
SCALE
  5
4E
102
{ACAD_REACTORS
330
42
102
}
330
42
100
AcDbScale
 70
     0
300
3/4" = 1'-0"
140
0.75
141
12.0
290
     0
  0
SCALE
  5
4F
102
{ACAD_REACTORS
330
42
102
}
330
42
100
AcDbScale
 70
     0
300
1" = 1'-0"
140
1.0
141
12.0
290
     0
  0
SCALE
  5
50
102
{ACAD_REACTORS
330
42
102
}
330
42
100
AcDbScale
 70
     0
300
1-1/2" = 1'-0"
140
1.5
141
12.0
290
     0
  0
SCALE
  5
51
102
{ACAD_REACTORS
330
42
102
}
330
42
100
AcDbScale
 70
     0
300
3" = 1'-0"
140
3.0
141
12.0
290
     0
  0
SCALE
  5
52
102
{ACAD_REACTORS
330
42
102
}
330
42
100
AcDbScale
 70
     0
300
6" = 1'-0"
140
6.0
141
12.0
290
     0
  0
SCALE
  5
53
102
{ACAD_REACTORS
330
42
102
}
330
42
100
AcDbScale
 70
     0
300
1'-0" = 1'-0"
140
12.0
141
12.0
290
     0
  0
ACDBSECTIONVIEWSTYLE
  5
69
102
{ACAD_XDICTIONARY
360
141
102
}
102
{ACAD_REACTORS
330
68
102
}
330
68
100
AcDbModelDocViewStyle
 70
     0
  3
Imperial24
290
     0
100
AcDbSectionViewStyle
 70
     0
 71
     0
 90
       78
 71
     1
340
55
 62
   256
 40
0.24
340
0
340
0
 62
   256
 40
0.24
300
I, O, Q, S, X, Z
 40
0.48
 90
        3
 40
0.18
 90
        1
 71
     2
340
5D
 90
       25
 62
   256
340
5D
 90
       50
 62
   256
 40
0.24
 40
0.0
 40
0.24
 71
     3
340
55
 62
   256
 40
0.24
 90
        1
 40
0.75
 90
        1
300
%<\AcVar ViewType \f "%tc1">% %<\AcVar ViewSectionStartId>%-%<\AcVar ViewSectionEndId>%\PSCALE %<\AcVar ViewScale \f "%sn">%
 71
     4
 62
   256
 62
   257
300
ANSI31
 40
1.0
 90
        0
290
     0
290
     0
 90
        6
 40
0.0
 40
1.570796326794896
 40
0.2617993877991494
 40
1.308996938995747
 40
-0.2617993877991494
 40
1.832595714594046
  0
TABLESTYLE
  5
65
102
{ACAD_XDICTIONARY
360
109
102
}
102
{ACAD_REACTORS
330
64
102
}
330
64
100
AcDbTableStyle
280
     0
  3
Standard
 70
     0
 71
     0
 40
0.06
 41
0.06
280
     0
281
     0
  7
Standard
140
0.18
170
     2
 62
     0
 63
     7
283
     0
 90
      512
 91
        0
  1

274
    -2
284
     1
 64
     0
275
    -2
285
     1
 65
     0
276
    -2
286
     1
 66
     0
277
    -2
287
     1
 67
     0
278
    -2
288
     1
 68
     0
279
    -2
289
     1
 69
     0
  7
Standard
140
0.25
170
     5
 62
     0
 63
     7
283
     0
 90
      512
 91
        0
  1

274
    -2
284
     1
 64
     0
275
    -2
285
     1
 65
     0
276
    -2
286
     1
 66
     0
277
    -2
287
     1
 67
     0
278
    -2
288
     1
 68
     0
279
    -2
289
     1
 69
     0
  7
Standard
140
0.18
170
     5
 62
     0
 63
     7
283
     0
 90
      512
 91
        0
  1

274
    -2
284
     1
 64
     0
275
    -2
285
     1
 65
     0
276
    -2
286
     1
 66
     0
277
    -2
287
     1
 67
     0
278
    -2
288
     1
 68
     0
279
    -2
289
     1
 69
     0
  0
VISUALSTYLE
  5
2F
102
{ACAD_XDICTIONARY
360
119
102
}
102
{ACAD_REACTORS
330
29
102
}
330
29
100
AcDbVisualStyle
  2
2dWireframe
 70
     4
177
     2
291
     0
 71
     0
176
     1
 72
     2
176
     1
 73
     0
176
     1
 90
        0
176
     1
 40
0.6
176
     1
 41
30.0
176
     1
 63
     7
421
 16777215
176
     1
 74
     1
176
     1
 91
        4
176
     1
 64
     7
176
     1
 65
   257
176
     1
 75
     1
176
     1
175
     1
176
     1
 42
1.0
176
     1
 92
        0
176
     1
 66
   257
176
     1
 43
1.0
176
     1
 76
     1
176
     1
 77
     6
176
     1
 78
     2
176
     1
 67
     7
176
     1
 79
     5
176
     1
170
     0
176
     1
171
     0
176
     1
290
     0
176
     1
 93
        1
176
     1
 44
0.0
176
     1
173
     0
176
     1
1001
ACAD
1000
AcDbSavedByObjectVersion
1070
     0
  0
VISUALSTYLE
  5
2E
102
{ACAD_XDICTIONARY
360
117
102
}
102
{ACAD_REACTORS
330
29
102
}
330
29
100
AcDbVisualStyle
  2
Basic
 70
     7
177
     2
291
     1
 71
     1
176
     1
 72
     0
176
     1
 73
     1
176
     1
 90
        0
176
     1
 40
0.6
176
     1
 41
30.0
176
     1
 63
     7
421
 16777215
176
     1
 74
     0
176
     1
 91
        4
176
     1
 64
     7
176
     1
 65
   257
176
     1
 75
     1
176
     1
175
     1
176
     1
 42
1.0
176
     1
 92
        8
176
     1
 66
     7
176
     1
 43
1.0
176
     1
 76
     1
176
     1
 77
     6
176
     1
 78
     2
176
     1
 67
     7
176
     1
 79
     5
176
     1
170
     0
176
     1
171
     0
176
     1
290
     0
176
     1
 93
        1
176
     1
 44
0.0
176
     1
173
     0
176
     1
1001
ACAD
1000
AcDbSavedByObjectVersion
1070
     0
  0
VISUALSTYLE
  5
35
102
{ACAD_XDICTIONARY
360
125
102
}
102
{ACAD_REACTORS
330
29
102
}
330
29
100
AcDbVisualStyle
  2
Brighten
 70
    12
177
     2
291
     1
 71
     2
176
     1
 72
     2
176
     1
 73
     0
176
     1
 90
        0
176
     1
 40
0.6
176
     1
 41
30.0
176
     1
 63
     7
421
 16777215
176
     1
 74
     1
176
     1
 91
        4
176
     1
 64
     7
176
     1
 65
   257
176
     1
 75
     1
176
     1
175
     1
176
     1
 42
1.0
176
     1
 92
        8
176
     1
 66
     7
176
     1
 43
1.0
176
     1
 76
     1
176
     1
 77
     6
176
     1
 78
     2
176
     1
 67
     7
176
     1
 79
     5
176
     1
170
     0
176
     1
171
     0
176
     1
290
     0
176
     1
 93
        1
176
     1
 44
50.0
176
     1
173
     0
176
     1
1001
ACAD
1000
AcDbSavedByObjectVersion
1070
     0
  0
VISUALSTYLE
  5
39
102
{ACAD_XDICTIONARY
360
12D
102
}
102
{ACAD_REACTORS
330
29
102
}
330
29
100
AcDbVisualStyle
  2
ColorChange
 70
    16
177
     2
291
     1
 71
     2
176
     1
 72
     2
176
     1
 73
     3
176
     1
 90
        0
176
     1
 40
0.6
176
     1
 41
30.0
176
     1
 63
     8
421
  8421504
176
     1
 74
     1
176
     1
 91
        4
176
     1
 64
     7
176
     1
 65
   257
176
     1
 75
     1
176
     1
175
     1
176
     1
 42
1.0
176
     1
 92
        8
176
     1
 66
     8
424
  8421504
176
     1
 43
1.0
176
     1
 76
     1
176
     1
 77
     6
176
     1
 78
     2
176
     1
 67
     7
176
     1
 79
     5
176
     1
170
     0
176
     1
171
     0
176
     1
290
     0
176
     1
 93
        1
176
     1
 44
0.0
176
     1
173
     0
176
     1
1001
ACAD
1000
AcDbSavedByObjectVersion
1070
     0
  0
VISUALSTYLE
  5
32
102
{ACAD_XDICTIONARY
360
11F
102
}
102
{ACAD_REACTORS
330
29
102
}
330
29
100
AcDbVisualStyle
  2
Conceptual
 70
     9
177
     2
291
     0
 71
     3
176
     1
 72
     2
176
     1
 73
     0
176
     1
 90
        0
176
     1
 40
0.6
176
     1
 41
30.0
176
     1
 63
     7
421
 16777215
176
     1
 74
     2
176
     1
 91
        2
176
     1
 64
     7
176
     1
 65
   257
176
     1
 75
     1
176
     1
175
     1
176
     1
 42
179.0
176
     1
 92
        8
176
     1
 66
     7
176
     1
 43
1.0
176
     1
 76
     1
176
     1
 77
     6
176
     1
 78
     2
176
     1
 67
     7
176
     1
 79
     3
176
     1
170
     0
176
     1
171
     0
176
     1
290
     0
176
     1
 93
        1
176
     1
 44
0.0
176
     1
173
     0
176
     1
1001
ACAD
1000
AcDbSavedByObjectVersion
1070
     0
  0
VISUALSTYLE
  5
34
102
{ACAD_XDICTIONARY
360
123
102
}
102
{ACAD_REACTORS
330
29
102
}
330
29
100
AcDbVisualStyle
  2
Dim
 70
    11
177
     2
291
     1
 71
     2
176
     1
 72
     2
176
     1
 73
     0
176
     1
 90
        0
176
     1
 40
0.6
176
     1
 41
30.0
176
     1
 63
     7
421
 16777215
176
     1
 74
     1
176
     1
 91
        4
176
     1
 64
     7
176
     1
 65
   257
176
     1
 75
     1
176
     1
175
     1
176
     1
 42
1.0
176
     1
 92
        8
176
     1
 66
     7
176
     1
 43
1.0
176
     1
 76
     1
176
     1
 77
     6
176
     1
 78
     2
176
     1
 67
     7
176
     1
 79
     5
176
     1
170
     0
176
     1
171
     0
176
     1
290
     0
176
     1
 93
        1
176
     1
 44
-50.0
176
     1
173
     0
176
     1
1001
ACAD
1000
AcDbSavedByObjectVersion
1070
     0
  0
VISUALSTYLE
  5
41
102
{ACAD_XDICTIONARY
360
13D
102
}
102
{ACAD_REACTORS
330
29
102
}
330
29
100
AcDbVisualStyle
  2
EdgeColorOff
 70
    22
177
     2
291
     1
 71
     2
176
     0
 72
     2
176
     0
 73
     0
176
     0
 90
        0
176
     0
 40
0.6
176
     0
 41
30.0
176
     0
 63
     7
421
 16777215
176
     0
 74
     1
176
     0
 91
        4
176
     0
 64
     7
176
     0
 65
   257
176
     0
 75
     1
176
     0
175
     1
176
     0
 42
1.0
176
     0
 92
        8
176
     2
 66
     7
176
     0
 43
1.0
176
     0
 76
     1
176
     0
 77
     6
176
     0
 78
     2
176
     0
 67
     7
176
     0
 79
     5
176
     0
170
     0
176
     0
171
     0
176
     0
290
     0
176
     0
 93
        1
176
     0
 44
0.0
176
     0
173
     0
176
     0
1001
ACAD
1000
AcDbSavedByObjectVersion
1070
     0
  0
VISUALSTYLE
  5
38
102
{ACAD_XDICTIONARY
360
12B
102
}
102
{ACAD_REACTORS
330
29
102
}
330
29
100
AcDbVisualStyle
  2
Facepattern
 70
    15
177
     2
291
     1
 71
     2
176
     1
 72
     2
176
     1
 73
     0
176
     1
 90
        0
176
     1
 40
0.6
176
     1
 41
30.0
176
     1
 63
     7
421
 16777215
176
     1
 74
     1
176
     1
 91
        4
176
     1
 64
     7
176
     1
 65
   257
176
     1
 75
     1
176
     1
175
     1
176
     1
 42
1.0
176
     1
 92
        8
176
     1
 66
     7
176
     1
 43
1.0
176
     1
 76
     1
176
     1
 77
     6
176
     1
 78
     2
176
     1
 67
     7
176
     1
 79
     5
176
     1
170
     0
176
     1
171
     0
176
     1
290
     0
176
     1
 93
        1
176
     1
 44
0.0
176
     1
173
     0
176
     1
1001
ACAD
1000
AcDbSavedByObjectVersion
1070
     0
  0
VISUALSTYLE
  5
2A
102
{ACAD_XDICTIONARY
360
10F
102
}
102
{ACAD_REACTORS
330
29
102
}
330
29
100
AcDbVisualStyle
  2
Flat
 70
     0
177
     2
291
     1
 71
     2
176
     1
 72
     1
176
     1
 73
     1
176
     1
 90
        2
176
     1
 40
0.6
176
     1
 41
30.0
176
     1
 63
     7
421
 16777215
176
     1
 74
     0
176
     1
 91
        0
176
     1
 64
     7
176
     1
 65
   257
176
     1
 75
     1
176
     1
175
     1
176
     1
 42
1.0
176
     1
 92
        8
176
     1
 66
     7
176
     1
 43
1.0
176
     1
 76
     1
176
     1
 77
     6
176
     1
 78
     2
176
     1
 67
     7
176
     1
 79
     5
176
     1
170
     0
176
     1
171
     0
176
     1
290
     0
176
     1
 93
       13
176
     1
 44
0.0
176
     1
173
     0
176
     1
1001
ACAD
1000
AcDbSavedByObjectVersion
1070
     0
  0
VISUALSTYLE
  5
2B
102
{ACAD_XDICTIONARY
360
111
102
}
102
{ACAD_REACTORS
330
29
102
}
330
29
100
AcDbVisualStyle
  2
FlatWithEdges
 70
     1
177
     2
291
     1
 71
     2
176
     1
 72
     1
176
     1
 73
     1
176
     1
 90
        2
176
     1
 40
0.6
176
     1
 41
30.0
176
     1
 63
     7
421
 16777215
176
     1
 74
     1
176
     1
 91
        0
176
     1
 64
     7
176
     1
 65
   257
176
     1
 75
     1
176
     1
175
     1
176
     1
 42
1.0
176
     1
 92
        0
176
     1
 66
   257
176
     1
 43
1.0
176
     1
 76
     1
176
     1
 77
     6
176
     1
 78
     2
176
     1
 67
     7
176
     1
 79
     5
176
     1
170
     0
176
     1
171
     0
176
     1
290
     0
176
     1
 93
       13
176
     1
 44
0.0
176
     1
173
     0
176
     1
1001
ACAD
1000
AcDbSavedByObjectVersion
1070
     0
  0
VISUALSTYLE
  5
2C
102
{ACAD_XDICTIONARY
360
113
102
}
102
{ACAD_REACTORS
330
29
102
}
330
29
100
AcDbVisualStyle
  2
Gouraud
 70
     2
177
     2
291
     1
 71
     2
176
     1
 72
     2
176
     1
 73
     1
176
     1
 90
        2
176
     1
 40
0.6
176
     1
 41
30.0
176
     1
 63
     7
421
 16777215
176
     1
 74
     0
176
     1
 91
        0
176
     1
 64
     7
176
     1
 65
   257
176
     1
 75
     1
176
     1
175
     1
176
     1
 42
1.0
176
     1
 92
        0
176
     1
 66
     7
176
     1
 43
1.0
176
     1
 76
     1
176
     1
 77
     6
176
     1
 78
     2
176
     1
 67
     7
176
     1
 79
     5
176
     1
170
     0
176
     1
171
     0
176
     1
290
     0
176
     1
 93
       13
176
     1
 44
0.0
176
     1
173
     0
176
     1
1001
ACAD
1000
AcDbSavedByObjectVersion
1070
     0
  0
VISUALSTYLE
  5
2D
102
{ACAD_XDICTIONARY
360
115
102
}
102
{ACAD_REACTORS
330
29
102
}
330
29
100
AcDbVisualStyle
  2
GouraudWithEdges
 70
     3
177
     2
291
     1
 71
     2
176
     1
 72
     2
176
     1
 73
     1
176
     1
 90
        2
176
     1
 40
0.6
176
     1
 41
30.0
176
     1
 63
     7
421
 16777215
176
     1
 74
     1
176
     1
 91
        0
176
     1
 64
     7
176
     1
 65
   257
176
     1
 75
     1
176
     1
175
     1
176
     1
 42
1.0
176
     1
 92
        0
176
     1
 66
   257
176
     1
 43
1.0
176
     1
 76
     1
176
     1
 77
     6
176
     1
 78
     2
176
     1
 67
     7
176
     1
 79
     5
176
     1
170
     0
176
     1
171
     0
176
     1
290
     0
176
     1
 93
       13
176
     1
 44
0.0
176
     1
173
     0
176
     1
1001
ACAD
1000
AcDbSavedByObjectVersion
1070
     0
  0
VISUALSTYLE
  5
31
102
{ACAD_XDICTIONARY
360
11D
102
}
102
{ACAD_REACTORS
330
29
102
}
330
29
100
AcDbVisualStyle
  2
Hidden
 70
     6
177
     2
291
     0
 71
     1
176
     1
 72
     2
176
     1
 73
     2
176
     1
 90
        0
176
     1
 40
0.6
176
     1
 41
30.0
176
     1
 63
     7
421
 16777215
176
     1
 74
     2
176
     1
 91
        2
176
     1
 64
     7
176
     1
 65
   257
176
     1
 75
     2
176
     1
175
     1
176
     1
 42
40.0
176
     1
 92
        0
176
     1
 66
   257
176
     1
 43
1.0
176
     1
 76
     1
176
     1
 77
     6
176
     1
 78
     2
176
     1
 67
     7
176
     1
 79
     3
176
     1
170
     0
176
     1
171
     0
176
     1
290
     0
176
     1
 93
        1
176
     1
 44
0.0
176
     1
173
     0
176
     1
1001
ACAD
1000
AcDbSavedByObjectVersion
1070
     0
  0
VISUALSTYLE
  5
3F
102
{ACAD_XDICTIONARY
360
139
102
}
102
{ACAD_REACTORS
330
29
102
}
330
29
100
AcDbVisualStyle
  2
JitterOff
 70
    20
177
     2
291
     1
 71
     2
176
     0
 72
     2
176
     0
 73
     0
176
     0
 90
        0
176
     0
 40
0.6
176
     0
 41
30.0
176
     0
 63
     7
421
 16777215
176
     0
 74
     1
176
     0
 91
        4
176
     0
 64
     7
176
     0
 65
   257
176
     0
 75
     1
176
     0
175
     1
176
     0
 42
1.0
176
     0
 92
       10
176
     2
 66
     7
176
     0
 43
1.0
176
     0
 76
     1
176
     0
 77
     6
176
     0
 78
     2
176
     0
 67
     7
176
     0
 79
     5
176
     0
170
     0
176
     0
171
     0
176
     0
290
     0
176
     0
 93
        1
176
     0
 44
0.0
176
     0
173
     0
176
     0
1001
ACAD
1000
AcDbSavedByObjectVersion
1070
     0
  0
VISUALSTYLE
  5
37
102
{ACAD_XDICTIONARY
360
129
102
}
102
{ACAD_REACTORS
330
29
102
}
330
29
100
AcDbVisualStyle
  2
Linepattern
 70
    14
177
     2
291
     1
 71
     2
176
     1
 72
     2
176
     1
 73
     0
176
     1
 90
        0
176
     1
 40
0.6
176
     1
 41
30.0
176
     1
 63
     7
421
 16777215
176
     1
 74
     1
176
     1
 91
        4
176
     1
 64
     7
176
     1
 65
   257
176
     1
 75
     7
176
     1
175
     7
176
     1
 42
1.0
176
     1
 92
        8
176
     1
 66
     7
176
     1
 43
1.0
176
     1
 76
     1
176
     1
 77
     6
176
     1
 78
     2
176
     1
 67
     7
176
     1
 79
     5
176
     1
170
     0
176
     1
171
     0
176
     1
290
     0
176
     1
 93
        1
176
     1
 44
0.0
176
     1
173
     0
176
     1
1001
ACAD
1000
AcDbSavedByObjectVersion
1070
     0
  0
VISUALSTYLE
  5
40
102
{ACAD_XDICTIONARY
360
13B
102
}
102
{ACAD_REACTORS
330
29
102
}
330
29
100
AcDbVisualStyle
  2
OverhangOff
 70
    21
177
     2
291
     1
 71
     2
176
     0
 72
     2
176
     0
 73
     0
176
     0
 90
        0
176
     0
 40
0.6
176
     0
 41
30.0
176
     0
 63
     7
421
 16777215
176
     0
 74
     1
176
     0
 91
        4
176
     0
 64
     7
176
     0
 65
   257
176
     0
 75
     1
176
     0
175
     1
176
     0
 42
1.0
176
     0
 92
        9
176
     2
 66
     7
176
     0
 43
1.0
176
     0
 76
     1
176
     0
 77
     6
176
     0
 78
     2
176
     0
 67
     7
176
     0
 79
     5
176
     0
170
     0
176
     0
171
     0
176
     0
290
     0
176
     0
 93
        1
176
     0
 44
0.0
176
     0
173
     0
176
     0
1001
ACAD
1000
AcDbSavedByObjectVersion
1070
     0
  0
VISUALSTYLE
  5
33
102
{ACAD_XDICTIONARY
360
121
102
}
102
{ACAD_REACTORS
330
29
102
}
330
29
100
AcDbVisualStyle
  2
Realistic
 70
     8
177
     2
291
     0
 71
     2
176
     1
 72
     3
176
     1
 73
     0
176
     1
 90
        2
176
     1
 40
0.6
176
     1
 41
30.0
176
     1
 63
     7
421
 16777215
176
     1
 74
     0
176
     1
 91
        0
176
     1
 64
     7
176
     1
 65
   257
176
     1
 75
     1
176
     1
175
     1
176
     1
 42
1.0
176
     1
 92
        8
176
     1
 66
   257
176
     1
 43
1.0
176
     1
 76
     1
176
     1
 77
     6
176
     1
 78
     2
176
     1
 67
     7
176
     1
 79
     3
176
     1
170
     0
176
     1
171
     0
176
     1
290
     0
176
     1
 93
       13
176
     1
 44
0.0
176
     1
173
     0
176
     1
1001
ACAD
1000
AcDbSavedByObjectVersion
1070
     0
  0
VISUALSTYLE
  5
3E
102
{ACAD_XDICTIONARY
360
137
102
}
102
{ACAD_REACTORS
330
29
102
}
330
29
100
AcDbVisualStyle
  2
Shaded
 70
    27
177
     2
291
     0
 71
     2
176
     1
 72
     2
176
     1
 73
     1
176
     1
 90
        2
176
     1
 40
0.6
176
     1
 41
30.0
176
     1
 63
     7
421
 16777215
176
     1
 74
     0
176
     1
 91
        4
176
     1
 64
     7
176
     1
 65
   257
176
     1
 75
     1
176
     1
175
     1
176
     1
 42
1.0
176
     1
 92
        8
176
     1
 66
   257
176
     1
 43
1.0
176
     1
 76
     1
176
     1
 77
     6
176
     1
 78
     2
176
     1
 67
     8
425
  7895160
176
     1
 79
     3
176
     1
170
     0
176
     1
171
     0
176
     1
290
     0
176
     1
 93
        5
176
     1
 44
0.0
176
     1
173
     0
176
     1
1001
ACAD
1000
AcDbSavedByObjectVersion
1070
     0
  0
VISUALSTYLE
  5
3D
102
{ACAD_XDICTIONARY
360
135
102
}
102
{ACAD_REACTORS
330
29
102
}
330
29
100
AcDbVisualStyle
  2
Shaded with edges
 70
    26
177
     2
291
     0
 71
     2
176
     1
 72
     2
176
     1
 73
     1
176
     1
 90
        2
176
     1
 40
0.6
176
     1
 41
30.0
176
     1
 63
     7
421
 16777215
176
     1
 74
     1
176
     1
 91
        2
176
     1
 64
     7
176
     1
 65
   257
176
     1
 75
     2
176
     1
175
     1
176
     1
 42
1.0
176
     1
 92
        8
176
     1
 66
   257
176
     1
 43
1.0
176
     1
 76
     1
176
     1
 77
     6
176
     1
 78
     2
176
     1
 67
     7
176
     1
 79
     3
176
     1
170
     0
176
     1
171
     0
176
     1
290
     0
176
     1
 93
        5
176
     1
 44
0.0
176
     1
173
     0
176
     1
1001
ACAD
1000
AcDbSavedByObjectVersion
1070
     0
  0
VISUALSTYLE
  5
3A
102
{ACAD_XDICTIONARY
360
12F
102
}
102
{ACAD_REACTORS
330
29
102
}
330
29
100
AcDbVisualStyle
  2
Shades of Gray
 70
    23
177
     2
291
     0
 71
     2
176
     1
 72
     2
176
     1
 73
     3
176
     1
 90
        0
176
     1
 40
0.6
176
     1
 41
30.0
176
     1
 63
     7
421
 16777215
176
     1
 74
     2
176
     1
 91
        2
176
     1
 64
     7
176
     1
 65
     7
176
     1
 75
     1
176
     1
175
     1
176
     1
 42
40.0
176
     1
 92
        8
176
     1
 66
     7
176
     1
 43
1.0
176
     1
 76
     1
176
     1
 77
     6
176
     1
 78
     2
176
     1
 67
     7
176
     1
 79
     3
176
     1
170
     0
176
     1
171
     0
176
     1
290
     0
176
     1
 93
        1
176
     1
 44
0.0
176
     1
173
     0
176
     1
1001
ACAD
1000
AcDbSavedByObjectVersion
1070
     0
  0
VISUALSTYLE
  5
3B
102
{ACAD_XDICTIONARY
360
131
102
}
102
{ACAD_REACTORS
330
29
102
}
330
29
100
AcDbVisualStyle
  2
Sketchy
 70
    24
177
     2
291
     0
 71
     1
176
     1
 72
     2
176
     1
 73
     2
176
     1
 90
        0
176
     1
 40
0.6
176
     1
 41
30.0
176
     1
 63
     7
421
 16777215
176
     1
 74
     2
176
     1
 91
        2
176
     1
 64
     7
176
     1
 65
     7
176
     1
 75
     1
176
     1
175
     1
176
     1
 42
40.0
176
     1
 92
       11
176
     1
 66
     7
176
     1
 43
1.0
176
     1
 76
     1
176
     1
 77
     6
176
     1
 78
     2
176
     1
 67
     7
176
     1
 79
     6
176
     1
170
     0
176
     1
171
     0
176
     1
290
     0
176
     1
 93
        1
176
     1
 44
0.0
176
     1
173
     0
176
     1
1001
ACAD
1000
AcDbSavedByObjectVersion
1070
     0
  0
VISUALSTYLE
  5
36
102
{ACAD_XDICTIONARY
360
127
102
}
102
{ACAD_REACTORS
330
29
102
}
330
29
100
AcDbVisualStyle
  2
Thicken
 70
    13
177
     2
291
     1
 71
     2
176
     1
 72
     2
176
     1
 73
     0
176
     1
 90
        0
176
     1
 40
0.6
176
     1
 41
30.0
176
     1
 63
     7
421
 16777215
176
     1
 74
     1
176
     1
 91
        4
176
     1
 64
     7
176
     1
 65
   257
176
     1
 75
     1
176
     1
175
     1
176
     1
 42
1.0
176
     1
 92
       12
176
     1
 66
     7
176
     1
 43
1.0
176
     1
 76
     1
176
     1
 77
     6
176
     1
 78
     2
176
     1
 67
     7
176
     1
 79
     5
176
     1
170
     0
176
     1
171
     0
176
     1
290
     0
176
     1
 93
        1
176
     1
 44
0.0
176
     1
173
     0
176
     1
1001
ACAD
1000
AcDbSavedByObjectVersion
1070
     0
  0
VISUALSTYLE
  5
30
102
{ACAD_XDICTIONARY
360
11B
102
}
102
{ACAD_REACTORS
330
29
102
}
330
29
100
AcDbVisualStyle
  2
Wireframe
 70
     5
177
     2
291
     0
 71
     0
176
     1
 72
     2
176
     1
 73
     0
176
     1
 90
        0
176
     1
 40
0.6
176
     1
 41
30.0
176
     1
 63
     7
421
 16777215
176
     1
 74
     1
176
     1
 91
        4
176
     1
 64
     7
176
     1
 65
   257
176
     1
 75
     1
176
     1
175
     1
176
     1
 42
1.0
176
     1
 92
        0
176
     1
 66
   257
176
     1
 43
1.0
176
     1
 76
     1
176
     1
 77
     6
176
     1
 78
     2
176
     1
 67
     7
176
     1
 79
     3
176
     1
170
     0
176
     1
171
     0
176
     1
290
     0
176
     1
 93
        1
176
     1
 44
0.0
176
     1
173
     0
176
     1
1001
ACAD
1000
AcDbSavedByObjectVersion
1070
     0
  0
VISUALSTYLE
  5
3C
102
{ACAD_XDICTIONARY
360
133
102
}
102
{ACAD_REACTORS
330
29
102
}
330
29
100
AcDbVisualStyle
  2
X-Ray
 70
    25
177
     2
291
     0
 71
     2
176
     1
 72
     2
176
     1
 73
     1
176
     1
 90
        1
176
     1
 40
0.5
176
     1
 41
30.0
176
     1
 63
     7
421
 16777215
176
     1
 74
     1
176
     1
 91
        0
176
     1
 64
     7
176
     1
 65
   257
176
     1
 75
     1
176
     1
175
     1
176
     1
 42
1.0
176
     1
 92
        8
176
     1
 66
     7
176
     1
 43
1.0
176
     1
 76
     1
176
     1
 77
     6
176
     1
 78
     2
176
     1
 67
     7
176
     1
 79
     3
176
     1
170
     0
176
     1
171
     0
176
     1
290
     0
176
     1
 93
       13
176
     1
 44
0.0
176
     1
173
     0
176
     1
1001
ACAD
1000
AcDbSavedByObjectVersion
1070
     0
  0
DICTIONARYVAR
  5
108
102
{ACAD_REACTORS
330
103
102
}
330
103
100
DictionaryVariables
280
     0
  1
1:1
  0
DICTIONARYVAR
  5
105
102
{ACAD_REACTORS
330
103
102
}
330
103
100
DictionaryVariables
280
     0
  1
STANDARD
  0
DICTIONARYVAR
  5
104
102
{ACAD_REACTORS
330
103
102
}
330
103
100
DictionaryVariables
280
     0
  1
STANDARD
  0
DICTIONARYVAR
  5
106
102
{ACAD_REACTORS
330
103
102
}
330
103
100
DictionaryVariables
280
     0
  1
Imperial24
  0
DICTIONARYVAR
  5
107
102
{ACAD_REACTORS
330
103
102
}
330
103
100
DictionaryVariables
280
     0
  1
Imperial24
  0
DICTIONARY
  5
143
330
6B
100
AcDbDictionary
280
     1
281
     1
  3
ACAD_XREC_ROUNDTRIP
360
144
  0
DICTIONARY
  5
1A
330
19
100
AcDbDictionary
280
     1
281
     1
  3
BUMPTILE
360
1C
  3
DIFFUSETILE
360
1B
  3
OPACITYTILE
360
1F
  3
REFLECTIONTILE
360
1E
  3
REFRACTIONTILE
360
20
  3
SPECULARTILE
360
1D
  0
DICTIONARY
  5
12
330
11
100
AcDbDictionary
280
     1
281
     1
  3
BUMPTILE
360
14
  3
DIFFUSETILE
360
13
  3
OPACITYTILE
360
17
  3
REFLECTIONTILE
360
16
  3
REFRACTIONTILE
360
18
  3
SPECULARTILE
360
15
  0
DICTIONARY
  5
22
330
21
100
AcDbDictionary
280
     1
281
     1
  3
BUMPTILE
360
24
  3
DIFFUSETILE
360
23
  3
OPACITYTILE
360
27
  3
REFLECTIONTILE
360
26
  3
REFRACTIONTILE
360
28
  3
SPECULARTILE
360
25
  0
DICTIONARY
  5
13F
330
67
100
AcDbDictionary
280
     1
281
     1
  3
ACAD_XREC_ROUNDTRIP
360
140
  0
DICTIONARY
  5
141
330
69
100
AcDbDictionary
280
     1
281
     1
  3
ACAD_XREC_ROUNDTRIP
360
142
  0
DICTIONARY
  5
109
330
65
100
AcDbDictionary
280
     1
281
     1
  3
ACAD_ROUNDTRIP_2008_TABLESTYLE_CELLSTYLEMAP
360
10A
  0
DICTIONARY
  5
119
330
2F
100
AcDbDictionary
280
     1
281
     1
  3
ACAD_XREC_ROUNDTRIP
360
11A
  0
DICTIONARY
  5
117
330
2E
100
AcDbDictionary
280
     1
281
     1
  3
ACAD_XREC_ROUNDTRIP
360
118
  0
DICTIONARY
  5
125
330
35
100
AcDbDictionary
280
     1
281
     1
  3
ACAD_XREC_ROUNDTRIP
360
126
  0
DICTIONARY
  5
12D
330
39
100
AcDbDictionary
280
     1
281
     1
  3
ACAD_XREC_ROUNDTRIP
360
12E
  0
DICTIONARY
  5
11F
330
32
100
AcDbDictionary
280
     1
281
     1
  3
ACAD_XREC_ROUNDTRIP
360
120
  0
DICTIONARY
  5
123
330
34
100
AcDbDictionary
280
     1
281
     1
  3
ACAD_XREC_ROUNDTRIP
360
124
  0
DICTIONARY
  5
13D
330
41
100
AcDbDictionary
280
     1
281
     1
  3
ACAD_XREC_ROUNDTRIP
360
13E
  0
DICTIONARY
  5
12B
330
38
100
AcDbDictionary
280
     1
281
     1
  3
ACAD_XREC_ROUNDTRIP
360
12C
  0
DICTIONARY
  5
10F
330
2A
100
AcDbDictionary
280
     1
281
     1
  3
ACAD_XREC_ROUNDTRIP
360
110
  0
DICTIONARY
  5
111
330
2B
100
AcDbDictionary
280
     1
281
     1
  3
ACAD_XREC_ROUNDTRIP
360
112
  0
DICTIONARY
  5
113
330
2C
100
AcDbDictionary
280
     1
281
     1
  3
ACAD_XREC_ROUNDTRIP
360
114
  0
DICTIONARY
  5
115
330
2D
100
AcDbDictionary
280
     1
281
     1
  3
ACAD_XREC_ROUNDTRIP
360
116
  0
DICTIONARY
  5
11D
330
31
100
AcDbDictionary
280
     1
281
     1
  3
ACAD_XREC_ROUNDTRIP
360
11E
  0
DICTIONARY
  5
139
330
3F
100
AcDbDictionary
280
     1
281
     1
  3
ACAD_XREC_ROUNDTRIP
360
13A
  0
DICTIONARY
  5
129
330
37
100
AcDbDictionary
280
     1
281
     1
  3
ACAD_XREC_ROUNDTRIP
360
12A
  0
DICTIONARY
  5
13B
330
40
100
AcDbDictionary
280
     1
281
     1
  3
ACAD_XREC_ROUNDTRIP
360
13C
  0
DICTIONARY
  5
121
330
33
100
AcDbDictionary
280
     1
281
     1
  3
ACAD_XREC_ROUNDTRIP
360
122
  0
DICTIONARY
  5
137
330
3E
100
AcDbDictionary
280
     1
281
     1
  3
ACAD_XREC_ROUNDTRIP
360
138
  0
DICTIONARY
  5
135
330
3D
100
AcDbDictionary
280
     1
281
     1
  3
ACAD_XREC_ROUNDTRIP
360
136
  0
DICTIONARY
  5
12F
330
3A
100
AcDbDictionary
280
     1
281
     1
  3
ACAD_XREC_ROUNDTRIP
360
130
  0
DICTIONARY
  5
131
330
3B
100
AcDbDictionary
280
     1
281
     1
  3
ACAD_XREC_ROUNDTRIP
360
132
  0
DICTIONARY
  5
127
330
36
100
AcDbDictionary
280
     1
281
     1
  3
ACAD_XREC_ROUNDTRIP
360
128
  0
DICTIONARY
  5
11B
330
30
100
AcDbDictionary
280
     1
281
     1
  3
ACAD_XREC_ROUNDTRIP
360
11C
  0
DICTIONARY
  5
133
330
3C
100
AcDbDictionary
280
     1
281
     1
  3
ACAD_XREC_ROUNDTRIP
360
134
  0
XRECORD
  5
144
102
{ACAD_REACTORS
330
143
102
}
330
143
100
AcDbXrecord
280
     1
102
DISPLAYNAME
  1
Imperial24
102
FLAGS
 90
        0
  0
XRECORD
  5
1C
102
{ACAD_REACTORS
330
1A
102
}
330
1A
100
AcDbXrecord
280
     1
270
     1
271
     1
  0
XRECORD
  5
1B
102
{ACAD_REACTORS
330
1A
102
}
330
1A
100
AcDbXrecord
280
     1
270
     1
271
     1
  0
XRECORD
  5
1F
102
{ACAD_REACTORS
330
1A
102
}
330
1A
100
AcDbXrecord
280
     1
270
     1
271
     1
  0
XRECORD
  5
1E
102
{ACAD_REACTORS
330
1A
102
}
330
1A
100
AcDbXrecord
280
     1
270
     1
271
     1
  0
XRECORD
  5
20
102
{ACAD_REACTORS
330
1A
102
}
330
1A
100
AcDbXrecord
280
     1
270
     1
271
     1
  0
XRECORD
  5
1D
102
{ACAD_REACTORS
330
1A
102
}
330
1A
100
AcDbXrecord
280
     1
270
     1
271
     1
  0
XRECORD
  5
14
102
{ACAD_REACTORS
330
12
102
}
330
12
100
AcDbXrecord
280
     1
270
     1
271
     1
  0
XRECORD
  5
13
102
{ACAD_REACTORS
330
12
102
}
330
12
100
AcDbXrecord
280
     1
270
     1
271
     1
  0
XRECORD
  5
17
102
{ACAD_REACTORS
330
12
102
}
330
12
100
AcDbXrecord
280
     1
270
     1
271
     1
  0
XRECORD
  5
16
102
{ACAD_REACTORS
330
12
102
}
330
12
100
AcDbXrecord
280
     1
270
     1
271
     1
  0
XRECORD
  5
18
102
{ACAD_REACTORS
330
12
102
}
330
12
100
AcDbXrecord
280
     1
270
     1
271
     1
  0
XRECORD
  5
15
102
{ACAD_REACTORS
330
12
102
}
330
12
100
AcDbXrecord
280
     1
270
     1
271
     1
  0
XRECORD
  5
24
102
{ACAD_REACTORS
330
22
102
}
330
22
100
AcDbXrecord
280
     1
270
     1
271
     1
  0
XRECORD
  5
23
102
{ACAD_REACTORS
330
22
102
}
330
22
100
AcDbXrecord
280
     1
270
     1
271
     1
  0
XRECORD
  5
27
102
{ACAD_REACTORS
330
22
102
}
330
22
100
AcDbXrecord
280
     1
270
     1
271
     1
  0
XRECORD
  5
26
102
{ACAD_REACTORS
330
22
102
}
330
22
100
AcDbXrecord
280
     1
270
     1
271
     1
  0
XRECORD
  5
28
102
{ACAD_REACTORS
330
22
102
}
330
22
100
AcDbXrecord
280
     1
270
     1
271
     1
  0
XRECORD
  5
25
102
{ACAD_REACTORS
330
22
102
}
330
22
100
AcDbXrecord
280
     1
270
     1
271
     1
  0
XRECORD
  5
140
102
{ACAD_REACTORS
330
13F
102
}
330
13F
100
AcDbXrecord
280
     1
102
ACAD_ROUNDTRIP_2012_MLEADER_STYLE
298
     1
  0
XRECORD
  5
142
102
{ACAD_REACTORS
330
141
102
}
330
141
100
AcDbXrecord
280
     1
102
DISPLAYNAME
  1
Imperial24
102
FLAGS
 90
        0
  0
CELLSTYLEMAP
  5
10A
102
{ACAD_REACTORS
330
109
102
}
330
109
100
AcDbCellStyleMap
 90
        3
300
CELLSTYLE
  1
TABLEFORMAT_BEGIN
 90
        5
170
     1
 91
        0
 92
    32768
 62
   257
 93
        1
300
CONTENTFORMAT
  1
CONTENTFORMAT_BEGIN
 90
        0
 91
        0
 92
      512
 93
        0
300

 40
0.0
140
1.0
 94
        5
 62
     0
340
55
144
0.25
309
CONTENTFORMAT_END
171
     0
 94
        0
309
TABLEFORMAT_END
  1
CELLSTYLE_BEGIN
 90
        1
 91
        1
300
_TITLE
309
CELLSTYLE_END
300
CELLSTYLE
  1
TABLEFORMAT_BEGIN
 90
        5
170
     1
 91
        0
 92
        0
 62
   257
 93
        1
300
CONTENTFORMAT
  1
CONTENTFORMAT_BEGIN
 90
        0
 91
        0
 92
      512
 93
        0
300

 40
0.0
140
1.0
 94
        5
 62
     0
340
55
144
0.18
309
CONTENTFORMAT_END
171
     0
 94
        0
309
TABLEFORMAT_END
  1
CELLSTYLE_BEGIN
 90
        2
 91
        1
300
_HEADER
309
CELLSTYLE_END
300
CELLSTYLE
  1
TABLEFORMAT_BEGIN
 90
        5
170
     1
 91
        0
 92
        0
 62
   257
 93
        1
300
CONTENTFORMAT
  1
CONTENTFORMAT_BEGIN
 90
        0
 91
        0
 92
      512
 93
        0
300

 40
0.0
140
1.0
 94
        2
 62
     0
340
55
144
0.18
309
CONTENTFORMAT_END
171
     0
 94
        0
309
TABLEFORMAT_END
  1
CELLSTYLE_BEGIN
 90
        3
 91
        2
300
_DATA
309
CELLSTYLE_END
  0
XRECORD
  5
11A
102
{ACAD_REACTORS
330
119
102
}
330
119
100
AcDbXrecord
280
     1
102
RTVSPost2010Prop28
280
     1
102
RTVSPost2010PropOp28
 70
     1
102
RTVSPost2010Prop29
280
     1
102
RTVSPost2010PropOp29
 70
     1
102
RTVSPost2010Prop30
280
     0
102
RTVSPost2010PropOp30
 70
     1
102
RTVSPost2010Prop31
280
     0
102
RTVSPost2010PropOp31
 70
     1
102
RTVSPost2010Prop32
280
     0
102
RTVSPost2010PropOp32
 70
     1
102
RTVSPost2010Prop33
280
     0
102
RTVSPost2010PropOp33
 70
     1
102
RTVSPost2010Prop34
280
     0
102
RTVSPost2010PropOp34
 70
     1
102
RTVSPost2010Prop35
280
     0
102
RTVSPost2010PropOp35
 70
     1
102
RTVSPost2010Prop36
280
     0
102
RTVSPost2010PropOp36
 70
     1
102
RTVSPost2010Prop37
 90
       50
102
RTVSPost2010PropOp37
 70
     1
102
RTVSPost2010Prop38
140
0.0
102
RTVSPost2010PropOp38
 70
     1
102
RTVSPost2010Prop39
140
1.0
102
RTVSPost2010PropOp39
 70
     1
102
RTVSPost2010Prop40
 90
        0
102
RTVSPost2010PropOp40
 70
     1
102
RTVSPost2010Prop41ColorIndex
 90
       18
102
RTVSPost2010Prop41ColorRGB
 90
        0
102
RTVSPost2010PropOp41
 70
     1
102
RTVSPost2010Prop42
 90
       50
102
RTVSPost2010PropOp42
 70
     1
102
RTVSPost2010Prop43
 90
        3
102
RTVSPost2010PropOp43
 70
     1
102
RTVSPost2010Prop44ColorIndex
 90
        5
102
RTVSPost2010Prop44ColorRGB
 90
      255
102
RTVSPost2010PropOp44
 70
     1
102
RTVSPost2010Prop45
280
     0
102
RTVSPost2010PropOp45
 70
     1
102
RTVSPost2010Prop46
 90
       50
102
RTVSPost2010PropOp46
 70
     1
102
RTVSPost2010Prop47
 90
       50
102
RTVSPost2010PropOp47
 70
     1
102
RTVSPost2010Prop48
 90
       50
102
RTVSPost2010PropOp48
 70
     1
102
RTVSPost2010Prop49
280
     0
102
RTVSPost2010PropOp49
 70
     1
102
RTVSPost2010Prop50
 90
       50
102
RTVSPost2010PropOp50
 70
     1
102
RTVSPost2010Prop51ColorIndex
 90
      256
102
RTVSPost2010Prop51ColorRGB
 90
-16777216
102
RTVSPost2010PropOp51
 70
     0
102
RTVSPost2010Prop52
140
1.0
102
RTVSPost2010PropOp52
 70
     0
102
RTVSPost2010Prop53
 90
        2
102
RTVSPost2010PropOp53
 70
     1
102
RTVSPost2010Prop54
  1
strokes_ogs.tif
102
RTVSPost2010PropOp54
 70
     1
102
RTVSPost2010Prop55
280
     0
102
RTVSPost2010PropOp55
 70
     1
102
RTVSPost2010Prop56
140
1.0
102
RTVSPost2010PropOp56
 70
     1
102
RTVSPost2010Prop57
140
1.0
102
RTVSPost2010PropOp57
 70
     1
  0
XRECORD
  5
118
102
{ACAD_REACTORS
330
117
102
}
330
117
100
AcDbXrecord
280
     1
102
RTVSPost2010Prop28
280
     0
102
RTVSPost2010PropOp28
 70
     1
102
RTVSPost2010Prop29
280
     1
102
RTVSPost2010PropOp29
 70
     1
102
RTVSPost2010Prop30
280
     1
102
RTVSPost2010PropOp30
 70
     1
102
RTVSPost2010Prop31
280
     0
102
RTVSPost2010PropOp31
 70
     1
102
RTVSPost2010Prop32
280
     0
102
RTVSPost2010PropOp32
 70
     1
102
RTVSPost2010Prop33
280
     0
102
RTVSPost2010PropOp33
 70
     1
102
RTVSPost2010Prop34
280
     0
102
RTVSPost2010PropOp34
 70
     1
102
RTVSPost2010Prop35
280
     0
102
RTVSPost2010PropOp35
 70
     1
102
RTVSPost2010Prop36
280
     0
102
RTVSPost2010PropOp36
 70
     1
102
RTVSPost2010Prop37
 90
       50
102
RTVSPost2010PropOp37
 70
     1
102
RTVSPost2010Prop38
140
0.0
102
RTVSPost2010PropOp38
 70
     1
102
RTVSPost2010Prop39
140
1.0
102
RTVSPost2010PropOp39
 70
     1
102
RTVSPost2010Prop40
 90
        0
102
RTVSPost2010PropOp40
 70
     1
102
RTVSPost2010Prop41ColorIndex
 90
       18
102
RTVSPost2010Prop41ColorRGB
 90
        0
102
RTVSPost2010PropOp41
 70
     1
102
RTVSPost2010Prop42
 90
       50
102
RTVSPost2010PropOp42
 70
     1
102
RTVSPost2010Prop43
 90
        3
102
RTVSPost2010PropOp43
 70
     1
102
RTVSPost2010Prop44ColorIndex
 90
        5
102
RTVSPost2010Prop44ColorRGB
 90
      255
102
RTVSPost2010PropOp44
 70
     1
102
RTVSPost2010Prop45
280
     0
102
RTVSPost2010PropOp45
 70
     1
102
RTVSPost2010Prop46
 90
       50
102
RTVSPost2010PropOp46
 70
     1
102
RTVSPost2010Prop47
 90
       50
102
RTVSPost2010PropOp47
 70
     1
102
RTVSPost2010Prop48
 90
       50
102
RTVSPost2010PropOp48
 70
     1
102
RTVSPost2010Prop49
280
     0
102
RTVSPost2010PropOp49
 70
     1
102
RTVSPost2010Prop50
 90
       50
102
RTVSPost2010PropOp50
 70
     1
102
RTVSPost2010Prop51ColorIndex
 90
      256
102
RTVSPost2010Prop51ColorRGB
 90
-16777216
102
RTVSPost2010PropOp51
 70
     0
102
RTVSPost2010Prop52
140
1.0
102
RTVSPost2010PropOp52
 70
     0
102
RTVSPost2010Prop53
 90
        2
102
RTVSPost2010PropOp53
 70
     1
102
RTVSPost2010Prop54
  1
strokes_ogs.tif
102
RTVSPost2010PropOp54
 70
     1
102
RTVSPost2010Prop55
280
     0
102
RTVSPost2010PropOp55
 70
     1
102
RTVSPost2010Prop56
140
1.0
102
RTVSPost2010PropOp56
 70
     1
102
RTVSPost2010Prop57
140
1.0
102
RTVSPost2010PropOp57
 70
     1
  0
XRECORD
  5
126
102
{ACAD_REACTORS
330
125
102
}
330
125
100
AcDbXrecord
280
     1
102
RTVSPost2010Prop28
280
     0
102
RTVSPost2010PropOp28
 70
     1
102
RTVSPost2010Prop29
280
     1
102
RTVSPost2010PropOp29
 70
     1
102
RTVSPost2010Prop30
280
     1
102
RTVSPost2010PropOp30
 70
     1
102
RTVSPost2010Prop31
280
     0
102
RTVSPost2010PropOp31
 70
     1
102
RTVSPost2010Prop32
280
     0
102
RTVSPost2010PropOp32
 70
     1
102
RTVSPost2010Prop33
280
     0
102
RTVSPost2010PropOp33
 70
     1
102
RTVSPost2010Prop34
280
     0
102
RTVSPost2010PropOp34
 70
     1
102
RTVSPost2010Prop35
280
     0
102
RTVSPost2010PropOp35
 70
     1
102
RTVSPost2010Prop36
280
     0
102
RTVSPost2010PropOp36
 70
     1
102
RTVSPost2010Prop37
 90
       50
102
RTVSPost2010PropOp37
 70
     1
102
RTVSPost2010Prop38
140
0.0
102
RTVSPost2010PropOp38
 70
     1
102
RTVSPost2010Prop39
140
1.0
102
RTVSPost2010PropOp39
 70
     1
102
RTVSPost2010Prop40
 90
        0
102
RTVSPost2010PropOp40
 70
     1
102
RTVSPost2010Prop41ColorIndex
 90
       18
102
RTVSPost2010Prop41ColorRGB
 90
        0
102
RTVSPost2010PropOp41
 70
     1
102
RTVSPost2010Prop42
 90
       50
102
RTVSPost2010PropOp42
 70
     1
102
RTVSPost2010Prop43
 90
        3
102
RTVSPost2010PropOp43
 70
     1
102
RTVSPost2010Prop44ColorIndex
 90
        5
102
RTVSPost2010Prop44ColorRGB
 90
      255
102
RTVSPost2010PropOp44
 70
     1
102
RTVSPost2010Prop45
280
     0
102
RTVSPost2010PropOp45
 70
     1
102
RTVSPost2010Prop46
 90
       50
102
RTVSPost2010PropOp46
 70
     1
102
RTVSPost2010Prop47
 90
       50
102
RTVSPost2010PropOp47
 70
     1
102
RTVSPost2010Prop48
 90
       50
102
RTVSPost2010PropOp48
 70
     1
102
RTVSPost2010Prop49
280
     0
102
RTVSPost2010PropOp49
 70
     1
102
RTVSPost2010Prop50
 90
       50
102
RTVSPost2010PropOp50
 70
     1
102
RTVSPost2010Prop51ColorIndex
 90
      256
102
RTVSPost2010Prop51ColorRGB
 90
-16777216
102
RTVSPost2010PropOp51
 70
     0
102
RTVSPost2010Prop52
140
1.0
102
RTVSPost2010PropOp52
 70
     0
102
RTVSPost2010Prop53
 90
        2
102
RTVSPost2010PropOp53
 70
     1
102
RTVSPost2010Prop54
  1
strokes_ogs.tif
102
RTVSPost2010PropOp54
 70
     1
102
RTVSPost2010Prop55
280
     0
102
RTVSPost2010PropOp55
 70
     1
102
RTVSPost2010Prop56
140
1.0
102
RTVSPost2010PropOp56
 70
     1
102
RTVSPost2010Prop57
140
1.0
102
RTVSPost2010PropOp57
 70
     1
  0
XRECORD
  5
12E
102
{ACAD_REACTORS
330
12D
102
}
330
12D
100
AcDbXrecord
280
     1
102
RTVSPost2010Prop28
280
     0
102
RTVSPost2010PropOp28
 70
     1
102
RTVSPost2010Prop29
280
     1
102
RTVSPost2010PropOp29
 70
     1
102
RTVSPost2010Prop30
280
     1
102
RTVSPost2010PropOp30
 70
     1
102
RTVSPost2010Prop31
280
     0
102
RTVSPost2010PropOp31
 70
     1
102
RTVSPost2010Prop32
280
     0
102
RTVSPost2010PropOp32
 70
     1
102
RTVSPost2010Prop33
280
     0
102
RTVSPost2010PropOp33
 70
     1
102
RTVSPost2010Prop34
280
     0
102
RTVSPost2010PropOp34
 70
     1
102
RTVSPost2010Prop35
280
     0
102
RTVSPost2010PropOp35
 70
     1
102
RTVSPost2010Prop36
280
     0
102
RTVSPost2010PropOp36
 70
     1
102
RTVSPost2010Prop37
 90
       50
102
RTVSPost2010PropOp37
 70
     1
102
RTVSPost2010Prop38
140
0.0
102
RTVSPost2010PropOp38
 70
     1
102
RTVSPost2010Prop39
140
1.0
102
RTVSPost2010PropOp39
 70
     1
102
RTVSPost2010Prop40
 90
        0
102
RTVSPost2010PropOp40
 70
     1
102
RTVSPost2010Prop41ColorIndex
 90
       18
102
RTVSPost2010Prop41ColorRGB
 90
        0
102
RTVSPost2010PropOp41
 70
     1
102
RTVSPost2010Prop42
 90
       50
102
RTVSPost2010PropOp42
 70
     1
102
RTVSPost2010Prop43
 90
        3
102
RTVSPost2010PropOp43
 70
     1
102
RTVSPost2010Prop44ColorIndex
 90
        5
102
RTVSPost2010Prop44ColorRGB
 90
      255
102
RTVSPost2010PropOp44
 70
     1
102
RTVSPost2010Prop45
280
     0
102
RTVSPost2010PropOp45
 70
     1
102
RTVSPost2010Prop46
 90
       50
102
RTVSPost2010PropOp46
 70
     1
102
RTVSPost2010Prop47
 90
       50
102
RTVSPost2010PropOp47
 70
     1
102
RTVSPost2010Prop48
 90
       50
102
RTVSPost2010PropOp48
 70
     1
102
RTVSPost2010Prop49
280
     0
102
RTVSPost2010PropOp49
 70
     1
102
RTVSPost2010Prop50
 90
       50
102
RTVSPost2010PropOp50
 70
     1
102
RTVSPost2010Prop51ColorIndex
 90
      256
102
RTVSPost2010Prop51ColorRGB
 90
-16777216
102
RTVSPost2010PropOp51
 70
     0
102
RTVSPost2010Prop52
140
1.0
102
RTVSPost2010PropOp52
 70
     0
102
RTVSPost2010Prop53
 90
        2
102
RTVSPost2010PropOp53
 70
     1
102
RTVSPost2010Prop54
  1
strokes_ogs.tif
102
RTVSPost2010PropOp54
 70
     1
102
RTVSPost2010Prop55
280
     0
102
RTVSPost2010PropOp55
 70
     1
102
RTVSPost2010Prop56
140
1.0
102
RTVSPost2010PropOp56
 70
     1
102
RTVSPost2010Prop57
140
1.0
102
RTVSPost2010PropOp57
 70
     1
  0
XRECORD
  5
120
102
{ACAD_REACTORS
330
11F
102
}
330
11F
100
AcDbXrecord
280
     1
102
RTVSPost2010Prop28
280
     0
102
RTVSPost2010PropOp28
 70
     1
102
RTVSPost2010Prop29
280
     1
102
RTVSPost2010PropOp29
 70
     1
102
RTVSPost2010Prop30
280
     1
102
RTVSPost2010PropOp30
 70
     1
102
RTVSPost2010Prop31
280
     0
102
RTVSPost2010PropOp31
 70
     1
102
RTVSPost2010Prop32
280
     0
102
RTVSPost2010PropOp32
 70
     1
102
RTVSPost2010Prop33
280
     0
102
RTVSPost2010PropOp33
 70
     1
102
RTVSPost2010Prop34
280
     0
102
RTVSPost2010PropOp34
 70
     1
102
RTVSPost2010Prop35
280
     0
102
RTVSPost2010PropOp35
 70
     1
102
RTVSPost2010Prop36
280
     0
102
RTVSPost2010PropOp36
 70
     1
102
RTVSPost2010Prop37
 90
       50
102
RTVSPost2010PropOp37
 70
     1
102
RTVSPost2010Prop38
140
0.0
102
RTVSPost2010PropOp38
 70
     1
102
RTVSPost2010Prop39
140
1.0
102
RTVSPost2010PropOp39
 70
     1
102
RTVSPost2010Prop40
 90
        0
102
RTVSPost2010PropOp40
 70
     1
102
RTVSPost2010Prop41ColorIndex
 90
       18
102
RTVSPost2010Prop41ColorRGB
 90
        0
102
RTVSPost2010PropOp41
 70
     1
102
RTVSPost2010Prop42
 90
       50
102
RTVSPost2010PropOp42
 70
     1
102
RTVSPost2010Prop43
 90
        3
102
RTVSPost2010PropOp43
 70
     1
102
RTVSPost2010Prop44ColorIndex
 90
        5
102
RTVSPost2010Prop44ColorRGB
 90
      255
102
RTVSPost2010PropOp44
 70
     1
102
RTVSPost2010Prop45
280
     0
102
RTVSPost2010PropOp45
 70
     1
102
RTVSPost2010Prop46
 90
       50
102
RTVSPost2010PropOp46
 70
     1
102
RTVSPost2010Prop47
 90
       50
102
RTVSPost2010PropOp47
 70
     1
102
RTVSPost2010Prop48
 90
       50
102
RTVSPost2010PropOp48
 70
     1
102
RTVSPost2010Prop49
280
     0
102
RTVSPost2010PropOp49
 70
     1
102
RTVSPost2010Prop50
 90
       50
102
RTVSPost2010PropOp50
 70
     1
102
RTVSPost2010Prop51ColorIndex
 90
      256
102
RTVSPost2010Prop51ColorRGB
 90
-16777216
102
RTVSPost2010PropOp51
 70
     0
102
RTVSPost2010Prop52
140
1.0
102
RTVSPost2010PropOp52
 70
     0
102
RTVSPost2010Prop53
 90
        2
102
RTVSPost2010PropOp53
 70
     1
102
RTVSPost2010Prop54
  1
strokes_ogs.tif
102
RTVSPost2010PropOp54
 70
     1
102
RTVSPost2010Prop55
280
     0
102
RTVSPost2010PropOp55
 70
     1
102
RTVSPost2010Prop56
140
1.0
102
RTVSPost2010PropOp56
 70
     1
102
RTVSPost2010Prop57
140
1.0
102
RTVSPost2010PropOp57
 70
     1
  0
XRECORD
  5
124
102
{ACAD_REACTORS
330
123
102
}
330
123
100
AcDbXrecord
280
     1
102
RTVSPost2010Prop28
280
     0
102
RTVSPost2010PropOp28
 70
     1
102
RTVSPost2010Prop29
280
     1
102
RTVSPost2010PropOp29
 70
     1
102
RTVSPost2010Prop30
280
     1
102
RTVSPost2010PropOp30
 70
     1
102
RTVSPost2010Prop31
280
     0
102
RTVSPost2010PropOp31
 70
     1
102
RTVSPost2010Prop32
280
     0
102
RTVSPost2010PropOp32
 70
     1
102
RTVSPost2010Prop33
280
     0
102
RTVSPost2010PropOp33
 70
     1
102
RTVSPost2010Prop34
280
     0
102
RTVSPost2010PropOp34
 70
     1
102
RTVSPost2010Prop35
280
     0
102
RTVSPost2010PropOp35
 70
     1
102
RTVSPost2010Prop36
280
     0
102
RTVSPost2010PropOp36
 70
     1
102
RTVSPost2010Prop37
 90
       50
102
RTVSPost2010PropOp37
 70
     1
102
RTVSPost2010Prop38
140
0.0
102
RTVSPost2010PropOp38
 70
     1
102
RTVSPost2010Prop39
140
1.0
102
RTVSPost2010PropOp39
 70
     1
102
RTVSPost2010Prop40
 90
        0
102
RTVSPost2010PropOp40
 70
     1
102
RTVSPost2010Prop41ColorIndex
 90
       18
102
RTVSPost2010Prop41ColorRGB
 90
        0
102
RTVSPost2010PropOp41
 70
     1
102
RTVSPost2010Prop42
 90
       50
102
RTVSPost2010PropOp42
 70
     1
102
RTVSPost2010Prop43
 90
        3
102
RTVSPost2010PropOp43
 70
     1
102
RTVSPost2010Prop44ColorIndex
 90
        5
102
RTVSPost2010Prop44ColorRGB
 90
      255
102
RTVSPost2010PropOp44
 70
     1
102
RTVSPost2010Prop45
280
     0
102
RTVSPost2010PropOp45
 70
     1
102
RTVSPost2010Prop46
 90
       50
102
RTVSPost2010PropOp46
 70
     1
102
RTVSPost2010Prop47
 90
       50
102
RTVSPost2010PropOp47
 70
     1
102
RTVSPost2010Prop48
 90
       50
102
RTVSPost2010PropOp48
 70
     1
102
RTVSPost2010Prop49
280
     0
102
RTVSPost2010PropOp49
 70
     1
102
RTVSPost2010Prop50
 90
       50
102
RTVSPost2010PropOp50
 70
     1
102
RTVSPost2010Prop51ColorIndex
 90
      256
102
RTVSPost2010Prop51ColorRGB
 90
-16777216
102
RTVSPost2010PropOp51
 70
     0
102
RTVSPost2010Prop52
140
1.0
102
RTVSPost2010PropOp52
 70
     0
102
RTVSPost2010Prop53
 90
        2
102
RTVSPost2010PropOp53
 70
     1
102
RTVSPost2010Prop54
  1
strokes_ogs.tif
102
RTVSPost2010PropOp54
 70
     1
102
RTVSPost2010Prop55
280
     0
102
RTVSPost2010PropOp55
 70
     1
102
RTVSPost2010Prop56
140
1.0
102
RTVSPost2010PropOp56
 70
     1
102
RTVSPost2010Prop57
140
1.0
102
RTVSPost2010PropOp57
 70
     1
  0
XRECORD
  5
13E
102
{ACAD_REACTORS
330
13D
102
}
330
13D
100
AcDbXrecord
280
     1
102
RTVSPost2010Prop28
280
     0
102
RTVSPost2010PropOp28
 70
     0
102
RTVSPost2010Prop29
280
     1
102
RTVSPost2010PropOp29
 70
     0
102
RTVSPost2010Prop30
280
     1
102
RTVSPost2010PropOp30
 70
     0
102
RTVSPost2010Prop31
280
     0
102
RTVSPost2010PropOp31
 70
     0
102
RTVSPost2010Prop32
280
     0
102
RTVSPost2010PropOp32
 70
     0
102
RTVSPost2010Prop33
280
     0
102
RTVSPost2010PropOp33
 70
     0
102
RTVSPost2010Prop34
280
     0
102
RTVSPost2010PropOp34
 70
     0
102
RTVSPost2010Prop35
280
     0
102
RTVSPost2010PropOp35
 70
     0
102
RTVSPost2010Prop36
280
     0
102
RTVSPost2010PropOp36
 70
     0
102
RTVSPost2010Prop37
 90
       50
102
RTVSPost2010PropOp37
 70
     0
102
RTVSPost2010Prop38
140
0.0
102
RTVSPost2010PropOp38
 70
     0
102
RTVSPost2010Prop39
140
1.0
102
RTVSPost2010PropOp39
 70
     0
102
RTVSPost2010Prop40
 90
        0
102
RTVSPost2010PropOp40
 70
     0
102
RTVSPost2010Prop41ColorIndex
 90
       18
102
RTVSPost2010Prop41ColorRGB
 90
        0
102
RTVSPost2010PropOp41
 70
     0
102
RTVSPost2010Prop42
 90
       50
102
RTVSPost2010PropOp42
 70
     0
102
RTVSPost2010Prop43
 90
        3
102
RTVSPost2010PropOp43
 70
     0
102
RTVSPost2010Prop44ColorIndex
 90
        5
102
RTVSPost2010Prop44ColorRGB
 90
      255
102
RTVSPost2010PropOp44
 70
     0
102
RTVSPost2010Prop45
280
     0
102
RTVSPost2010PropOp45
 70
     0
102
RTVSPost2010Prop46
 90
       50
102
RTVSPost2010PropOp46
 70
     0
102
RTVSPost2010Prop47
 90
       50
102
RTVSPost2010PropOp47
 70
     0
102
RTVSPost2010Prop48
 90
       50
102
RTVSPost2010PropOp48
 70
     0
102
RTVSPost2010Prop49
280
     0
102
RTVSPost2010PropOp49
 70
     0
102
RTVSPost2010Prop50
 90
       50
102
RTVSPost2010PropOp50
 70
     0
102
RTVSPost2010Prop51ColorIndex
 90
      256
102
RTVSPost2010Prop51ColorRGB
 90
-16777216
102
RTVSPost2010PropOp51
 70
     0
102
RTVSPost2010Prop52
140
1.0
102
RTVSPost2010PropOp52
 70
     0
102
RTVSPost2010Prop53
 90
        2
102
RTVSPost2010PropOp53
 70
     0
102
RTVSPost2010Prop54
  1
strokes_ogs.tif
102
RTVSPost2010PropOp54
 70
     0
102
RTVSPost2010Prop55
280
     0
102
RTVSPost2010PropOp55
 70
     0
102
RTVSPost2010Prop56
140
1.0
102
RTVSPost2010PropOp56
 70
     0
102
RTVSPost2010Prop57
140
1.0
102
RTVSPost2010PropOp57
 70
     0
  0
XRECORD
  5
12C
102
{ACAD_REACTORS
330
12B
102
}
330
12B
100
AcDbXrecord
280
     1
102
RTVSPost2010Prop28
280
     0
102
RTVSPost2010PropOp28
 70
     1
102
RTVSPost2010Prop29
280
     1
102
RTVSPost2010PropOp29
 70
     1
102
RTVSPost2010Prop30
280
     1
102
RTVSPost2010PropOp30
 70
     1
102
RTVSPost2010Prop31
280
     0
102
RTVSPost2010PropOp31
 70
     1
102
RTVSPost2010Prop32
280
     0
102
RTVSPost2010PropOp32
 70
     1
102
RTVSPost2010Prop33
280
     0
102
RTVSPost2010PropOp33
 70
     1
102
RTVSPost2010Prop34
280
     0
102
RTVSPost2010PropOp34
 70
     1
102
RTVSPost2010Prop35
280
     0
102
RTVSPost2010PropOp35
 70
     1
102
RTVSPost2010Prop36
280
     0
102
RTVSPost2010PropOp36
 70
     1
102
RTVSPost2010Prop37
 90
       50
102
RTVSPost2010PropOp37
 70
     1
102
RTVSPost2010Prop38
140
0.0
102
RTVSPost2010PropOp38
 70
     1
102
RTVSPost2010Prop39
140
1.0
102
RTVSPost2010PropOp39
 70
     1
102
RTVSPost2010Prop40
 90
        0
102
RTVSPost2010PropOp40
 70
     1
102
RTVSPost2010Prop41ColorIndex
 90
       18
102
RTVSPost2010Prop41ColorRGB
 90
        0
102
RTVSPost2010PropOp41
 70
     1
102
RTVSPost2010Prop42
 90
       50
102
RTVSPost2010PropOp42
 70
     1
102
RTVSPost2010Prop43
 90
        3
102
RTVSPost2010PropOp43
 70
     1
102
RTVSPost2010Prop44ColorIndex
 90
        5
102
RTVSPost2010Prop44ColorRGB
 90
      255
102
RTVSPost2010PropOp44
 70
     1
102
RTVSPost2010Prop45
280
     0
102
RTVSPost2010PropOp45
 70
     1
102
RTVSPost2010Prop46
 90
       50
102
RTVSPost2010PropOp46
 70
     1
102
RTVSPost2010Prop47
 90
       50
102
RTVSPost2010PropOp47
 70
     1
102
RTVSPost2010Prop48
 90
       50
102
RTVSPost2010PropOp48
 70
     1
102
RTVSPost2010Prop49
280
     0
102
RTVSPost2010PropOp49
 70
     1
102
RTVSPost2010Prop50
 90
       50
102
RTVSPost2010PropOp50
 70
     1
102
RTVSPost2010Prop51ColorIndex
 90
      256
102
RTVSPost2010Prop51ColorRGB
 90
-16777216
102
RTVSPost2010PropOp51
 70
     0
102
RTVSPost2010Prop52
140
1.0
102
RTVSPost2010PropOp52
 70
     0
102
RTVSPost2010Prop53
 90
        2
102
RTVSPost2010PropOp53
 70
     1
102
RTVSPost2010Prop54
  1
strokes_ogs.tif
102
RTVSPost2010PropOp54
 70
     1
102
RTVSPost2010Prop55
280
     0
102
RTVSPost2010PropOp55
 70
     1
102
RTVSPost2010Prop56
140
1.0
102
RTVSPost2010PropOp56
 70
     1
102
RTVSPost2010Prop57
140
1.0
102
RTVSPost2010PropOp57
 70
     1
  0
XRECORD
  5
110
102
{ACAD_REACTORS
330
10F
102
}
330
10F
100
AcDbXrecord
280
     1
102
RTVSPost2010Prop28
280
     0
102
RTVSPost2010PropOp28
 70
     1
102
RTVSPost2010Prop29
280
     1
102
RTVSPost2010PropOp29
 70
     1
102
RTVSPost2010Prop30
280
     1
102
RTVSPost2010PropOp30
 70
     1
102
RTVSPost2010Prop31
280
     0
102
RTVSPost2010PropOp31
 70
     1
102
RTVSPost2010Prop32
280
     0
102
RTVSPost2010PropOp32
 70
     1
102
RTVSPost2010Prop33
280
     0
102
RTVSPost2010PropOp33
 70
     1
102
RTVSPost2010Prop34
280
     0
102
RTVSPost2010PropOp34
 70
     1
102
RTVSPost2010Prop35
280
     0
102
RTVSPost2010PropOp35
 70
     1
102
RTVSPost2010Prop36
280
     0
102
RTVSPost2010PropOp36
 70
     1
102
RTVSPost2010Prop37
 90
       50
102
RTVSPost2010PropOp37
 70
     1
102
RTVSPost2010Prop38
140
0.0
102
RTVSPost2010PropOp38
 70
     1
102
RTVSPost2010Prop39
140
1.0
102
RTVSPost2010PropOp39
 70
     1
102
RTVSPost2010Prop40
 90
        0
102
RTVSPost2010PropOp40
 70
     1
102
RTVSPost2010Prop41ColorIndex
 90
       18
102
RTVSPost2010Prop41ColorRGB
 90
        0
102
RTVSPost2010PropOp41
 70
     1
102
RTVSPost2010Prop42
 90
       50
102
RTVSPost2010PropOp42
 70
     1
102
RTVSPost2010Prop43
 90
        3
102
RTVSPost2010PropOp43
 70
     1
102
RTVSPost2010Prop44ColorIndex
 90
        5
102
RTVSPost2010Prop44ColorRGB
 90
      255
102
RTVSPost2010PropOp44
 70
     1
102
RTVSPost2010Prop45
280
     0
102
RTVSPost2010PropOp45
 70
     1
102
RTVSPost2010Prop46
 90
       50
102
RTVSPost2010PropOp46
 70
     1
102
RTVSPost2010Prop47
 90
       50
102
RTVSPost2010PropOp47
 70
     1
102
RTVSPost2010Prop48
 90
       50
102
RTVSPost2010PropOp48
 70
     1
102
RTVSPost2010Prop49
280
     0
102
RTVSPost2010PropOp49
 70
     1
102
RTVSPost2010Prop50
 90
       50
102
RTVSPost2010PropOp50
 70
     1
102
RTVSPost2010Prop51ColorIndex
 90
      256
102
RTVSPost2010Prop51ColorRGB
 90
-16777216
102
RTVSPost2010PropOp51
 70
     0
102
RTVSPost2010Prop52
140
1.0
102
RTVSPost2010PropOp52
 70
     0
102
RTVSPost2010Prop53
 90
        2
102
RTVSPost2010PropOp53
 70
     1
102
RTVSPost2010Prop54
  1
strokes_ogs.tif
102
RTVSPost2010PropOp54
 70
     1
102
RTVSPost2010Prop55
280
     0
102
RTVSPost2010PropOp55
 70
     1
102
RTVSPost2010Prop56
140
1.0
102
RTVSPost2010PropOp56
 70
     1
102
RTVSPost2010Prop57
140
1.0
102
RTVSPost2010PropOp57
 70
     1
  0
XRECORD
  5
112
102
{ACAD_REACTORS
330
111
102
}
330
111
100
AcDbXrecord
280
     1
102
RTVSPost2010Prop28
280
     0
102
RTVSPost2010PropOp28
 70
     1
102
RTVSPost2010Prop29
280
     1
102
RTVSPost2010PropOp29
 70
     1
102
RTVSPost2010Prop30
280
     1
102
RTVSPost2010PropOp30
 70
     1
102
RTVSPost2010Prop31
280
     0
102
RTVSPost2010PropOp31
 70
     1
102
RTVSPost2010Prop32
280
     0
102
RTVSPost2010PropOp32
 70
     1
102
RTVSPost2010Prop33
280
     0
102
RTVSPost2010PropOp33
 70
     1
102
RTVSPost2010Prop34
280
     0
102
RTVSPost2010PropOp34
 70
     1
102
RTVSPost2010Prop35
280
     0
102
RTVSPost2010PropOp35
 70
     1
102
RTVSPost2010Prop36
280
     0
102
RTVSPost2010PropOp36
 70
     1
102
RTVSPost2010Prop37
 90
       50
102
RTVSPost2010PropOp37
 70
     1
102
RTVSPost2010Prop38
140
0.0
102
RTVSPost2010PropOp38
 70
     1
102
RTVSPost2010Prop39
140
1.0
102
RTVSPost2010PropOp39
 70
     1
102
RTVSPost2010Prop40
 90
        0
102
RTVSPost2010PropOp40
 70
     1
102
RTVSPost2010Prop41ColorIndex
 90
       18
102
RTVSPost2010Prop41ColorRGB
 90
        0
102
RTVSPost2010PropOp41
 70
     1
102
RTVSPost2010Prop42
 90
       50
102
RTVSPost2010PropOp42
 70
     1
102
RTVSPost2010Prop43
 90
        3
102
RTVSPost2010PropOp43
 70
     1
102
RTVSPost2010Prop44ColorIndex
 90
        5
102
RTVSPost2010Prop44ColorRGB
 90
      255
102
RTVSPost2010PropOp44
 70
     1
102
RTVSPost2010Prop45
280
     0
102
RTVSPost2010PropOp45
 70
     1
102
RTVSPost2010Prop46
 90
       50
102
RTVSPost2010PropOp46
 70
     1
102
RTVSPost2010Prop47
 90
       50
102
RTVSPost2010PropOp47
 70
     1
102
RTVSPost2010Prop48
 90
       50
102
RTVSPost2010PropOp48
 70
     1
102
RTVSPost2010Prop49
280
     0
102
RTVSPost2010PropOp49
 70
     1
102
RTVSPost2010Prop50
 90
       50
102
RTVSPost2010PropOp50
 70
     1
102
RTVSPost2010Prop51ColorIndex
 90
      256
102
RTVSPost2010Prop51ColorRGB
 90
-16777216
102
RTVSPost2010PropOp51
 70
     0
102
RTVSPost2010Prop52
140
1.0
102
RTVSPost2010PropOp52
 70
     0
102
RTVSPost2010Prop53
 90
        2
102
RTVSPost2010PropOp53
 70
     1
102
RTVSPost2010Prop54
  1
strokes_ogs.tif
102
RTVSPost2010PropOp54
 70
     1
102
RTVSPost2010Prop55
280
     0
102
RTVSPost2010PropOp55
 70
     1
102
RTVSPost2010Prop56
140
1.0
102
RTVSPost2010PropOp56
 70
     1
102
RTVSPost2010Prop57
140
1.0
102
RTVSPost2010PropOp57
 70
     1
  0
XRECORD
  5
114
102
{ACAD_REACTORS
330
113
102
}
330
113
100
AcDbXrecord
280
     1
102
RTVSPost2010Prop28
280
     0
102
RTVSPost2010PropOp28
 70
     1
102
RTVSPost2010Prop29
280
     1
102
RTVSPost2010PropOp29
 70
     1
102
RTVSPost2010Prop30
280
     1
102
RTVSPost2010PropOp30
 70
     1
102
RTVSPost2010Prop31
280
     0
102
RTVSPost2010PropOp31
 70
     1
102
RTVSPost2010Prop32
280
     0
102
RTVSPost2010PropOp32
 70
     1
102
RTVSPost2010Prop33
280
     0
102
RTVSPost2010PropOp33
 70
     1
102
RTVSPost2010Prop34
280
     0
102
RTVSPost2010PropOp34
 70
     1
102
RTVSPost2010Prop35
280
     0
102
RTVSPost2010PropOp35
 70
     1
102
RTVSPost2010Prop36
280
     0
102
RTVSPost2010PropOp36
 70
     1
102
RTVSPost2010Prop37
 90
       50
102
RTVSPost2010PropOp37
 70
     1
102
RTVSPost2010Prop38
140
0.0
102
RTVSPost2010PropOp38
 70
     1
102
RTVSPost2010Prop39
140
1.0
102
RTVSPost2010PropOp39
 70
     1
102
RTVSPost2010Prop40
 90
        0
102
RTVSPost2010PropOp40
 70
     1
102
RTVSPost2010Prop41ColorIndex
 90
       18
102
RTVSPost2010Prop41ColorRGB
 90
        0
102
RTVSPost2010PropOp41
 70
     1
102
RTVSPost2010Prop42
 90
       50
102
RTVSPost2010PropOp42
 70
     1
102
RTVSPost2010Prop43
 90
        3
102
RTVSPost2010PropOp43
 70
     1
102
RTVSPost2010Prop44ColorIndex
 90
        5
102
RTVSPost2010Prop44ColorRGB
 90
      255
102
RTVSPost2010PropOp44
 70
     1
102
RTVSPost2010Prop45
280
     0
102
RTVSPost2010PropOp45
 70
     1
102
RTVSPost2010Prop46
 90
       50
102
RTVSPost2010PropOp46
 70
     1
102
RTVSPost2010Prop47
 90
       50
102
RTVSPost2010PropOp47
 70
     1
102
RTVSPost2010Prop48
 90
       50
102
RTVSPost2010PropOp48
 70
     1
102
RTVSPost2010Prop49
280
     0
102
RTVSPost2010PropOp49
 70
     1
102
RTVSPost2010Prop50
 90
       50
102
RTVSPost2010PropOp50
 70
     1
102
RTVSPost2010Prop51ColorIndex
 90
      256
102
RTVSPost2010Prop51ColorRGB
 90
-16777216
102
RTVSPost2010PropOp51
 70
     0
102
RTVSPost2010Prop52
140
1.0
102
RTVSPost2010PropOp52
 70
     0
102
RTVSPost2010Prop53
 90
        2
102
RTVSPost2010PropOp53
 70
     1
102
RTVSPost2010Prop54
  1
strokes_ogs.tif
102
RTVSPost2010PropOp54
 70
     1
102
RTVSPost2010Prop55
280
     0
102
RTVSPost2010PropOp55
 70
     1
102
RTVSPost2010Prop56
140
1.0
102
RTVSPost2010PropOp56
 70
     1
102
RTVSPost2010Prop57
140
1.0
102
RTVSPost2010PropOp57
 70
     1
  0
XRECORD
  5
116
102
{ACAD_REACTORS
330
115
102
}
330
115
100
AcDbXrecord
280
     1
102
RTVSPost2010Prop28
280
     0
102
RTVSPost2010PropOp28
 70
     1
102
RTVSPost2010Prop29
280
     1
102
RTVSPost2010PropOp29
 70
     1
102
RTVSPost2010Prop30
280
     1
102
RTVSPost2010PropOp30
 70
     1
102
RTVSPost2010Prop31
280
     0
102
RTVSPost2010PropOp31
 70
     1
102
RTVSPost2010Prop32
280
     0
102
RTVSPost2010PropOp32
 70
     1
102
RTVSPost2010Prop33
280
     0
102
RTVSPost2010PropOp33
 70
     1
102
RTVSPost2010Prop34
280
     0
102
RTVSPost2010PropOp34
 70
     1
102
RTVSPost2010Prop35
280
     0
102
RTVSPost2010PropOp35
 70
     1
102
RTVSPost2010Prop36
280
     0
102
RTVSPost2010PropOp36
 70
     1
102
RTVSPost2010Prop37
 90
       50
102
RTVSPost2010PropOp37
 70
     1
102
RTVSPost2010Prop38
140
0.0
102
RTVSPost2010PropOp38
 70
     1
102
RTVSPost2010Prop39
140
1.0
102
RTVSPost2010PropOp39
 70
     1
102
RTVSPost2010Prop40
 90
        0
102
RTVSPost2010PropOp40
 70
     1
102
RTVSPost2010Prop41ColorIndex
 90
       18
102
RTVSPost2010Prop41ColorRGB
 90
        0
102
RTVSPost2010PropOp41
 70
     1
102
RTVSPost2010Prop42
 90
       50
102
RTVSPost2010PropOp42
 70
     1
102
RTVSPost2010Prop43
 90
        3
102
RTVSPost2010PropOp43
 70
     1
102
RTVSPost2010Prop44ColorIndex
 90
        5
102
RTVSPost2010Prop44ColorRGB
 90
      255
102
RTVSPost2010PropOp44
 70
     1
102
RTVSPost2010Prop45
280
     0
102
RTVSPost2010PropOp45
 70
     1
102
RTVSPost2010Prop46
 90
       50
102
RTVSPost2010PropOp46
 70
     1
102
RTVSPost2010Prop47
 90
       50
102
RTVSPost2010PropOp47
 70
     1
102
RTVSPost2010Prop48
 90
       50
102
RTVSPost2010PropOp48
 70
     1
102
RTVSPost2010Prop49
280
     0
102
RTVSPost2010PropOp49
 70
     1
102
RTVSPost2010Prop50
 90
       50
102
RTVSPost2010PropOp50
 70
     1
102
RTVSPost2010Prop51ColorIndex
 90
      256
102
RTVSPost2010Prop51ColorRGB
 90
-16777216
102
RTVSPost2010PropOp51
 70
     0
102
RTVSPost2010Prop52
140
1.0
102
RTVSPost2010PropOp52
 70
     0
102
RTVSPost2010Prop53
 90
        2
102
RTVSPost2010PropOp53
 70
     1
102
RTVSPost2010Prop54
  1
strokes_ogs.tif
102
RTVSPost2010PropOp54
 70
     1
102
RTVSPost2010Prop55
280
     0
102
RTVSPost2010PropOp55
 70
     1
102
RTVSPost2010Prop56
140
1.0
102
RTVSPost2010PropOp56
 70
     1
102
RTVSPost2010Prop57
140
1.0
102
RTVSPost2010PropOp57
 70
     1
  0
XRECORD
  5
11E
102
{ACAD_REACTORS
330
11D
102
}
330
11D
100
AcDbXrecord
280
     1
102
RTVSPost2010Prop28
280
     0
102
RTVSPost2010PropOp28
 70
     1
102
RTVSPost2010Prop29
280
     1
102
RTVSPost2010PropOp29
 70
     1
102
RTVSPost2010Prop30
280
     1
102
RTVSPost2010PropOp30
 70
     1
102
RTVSPost2010Prop31
280
     0
102
RTVSPost2010PropOp31
 70
     1
102
RTVSPost2010Prop32
280
     0
102
RTVSPost2010PropOp32
 70
     1
102
RTVSPost2010Prop33
280
     0
102
RTVSPost2010PropOp33
 70
     1
102
RTVSPost2010Prop34
280
     0
102
RTVSPost2010PropOp34
 70
     1
102
RTVSPost2010Prop35
280
     0
102
RTVSPost2010PropOp35
 70
     1
102
RTVSPost2010Prop36
280
     0
102
RTVSPost2010PropOp36
 70
     1
102
RTVSPost2010Prop37
 90
       50
102
RTVSPost2010PropOp37
 70
     1
102
RTVSPost2010Prop38
140
0.0
102
RTVSPost2010PropOp38
 70
     1
102
RTVSPost2010Prop39
140
1.0
102
RTVSPost2010PropOp39
 70
     1
102
RTVSPost2010Prop40
 90
        0
102
RTVSPost2010PropOp40
 70
     1
102
RTVSPost2010Prop41ColorIndex
 90
       18
102
RTVSPost2010Prop41ColorRGB
 90
        0
102
RTVSPost2010PropOp41
 70
     1
102
RTVSPost2010Prop42
 90
       50
102
RTVSPost2010PropOp42
 70
     1
102
RTVSPost2010Prop43
 90
        3
102
RTVSPost2010PropOp43
 70
     1
102
RTVSPost2010Prop44ColorIndex
 90
        5
102
RTVSPost2010Prop44ColorRGB
 90
      255
102
RTVSPost2010PropOp44
 70
     1
102
RTVSPost2010Prop45
280
     0
102
RTVSPost2010PropOp45
 70
     1
102
RTVSPost2010Prop46
 90
       50
102
RTVSPost2010PropOp46
 70
     1
102
RTVSPost2010Prop47
 90
       50
102
RTVSPost2010PropOp47
 70
     1
102
RTVSPost2010Prop48
 90
       50
102
RTVSPost2010PropOp48
 70
     1
102
RTVSPost2010Prop49
280
     0
102
RTVSPost2010PropOp49
 70
     1
102
RTVSPost2010Prop50
 90
       50
102
RTVSPost2010PropOp50
 70
     1
102
RTVSPost2010Prop51ColorIndex
 90
      256
102
RTVSPost2010Prop51ColorRGB
 90
-16777216
102
RTVSPost2010PropOp51
 70
     0
102
RTVSPost2010Prop52
140
1.0
102
RTVSPost2010PropOp52
 70
     0
102
RTVSPost2010Prop53
 90
        2
102
RTVSPost2010PropOp53
 70
     1
102
RTVSPost2010Prop54
  1
strokes_ogs.tif
102
RTVSPost2010PropOp54
 70
     1
102
RTVSPost2010Prop55
280
     0
102
RTVSPost2010PropOp55
 70
     1
102
RTVSPost2010Prop56
140
1.0
102
RTVSPost2010PropOp56
 70
     1
102
RTVSPost2010Prop57
140
1.0
102
RTVSPost2010PropOp57
 70
     1
  0
XRECORD
  5
13A
102
{ACAD_REACTORS
330
139
102
}
330
139
100
AcDbXrecord
280
     1
102
RTVSPost2010Prop28
280
     0
102
RTVSPost2010PropOp28
 70
     0
102
RTVSPost2010Prop29
280
     1
102
RTVSPost2010PropOp29
 70
     0
102
RTVSPost2010Prop30
280
     1
102
RTVSPost2010PropOp30
 70
     0
102
RTVSPost2010Prop31
280
     0
102
RTVSPost2010PropOp31
 70
     0
102
RTVSPost2010Prop32
280
     0
102
RTVSPost2010PropOp32
 70
     0
102
RTVSPost2010Prop33
280
     0
102
RTVSPost2010PropOp33
 70
     0
102
RTVSPost2010Prop34
280
     0
102
RTVSPost2010PropOp34
 70
     0
102
RTVSPost2010Prop35
280
     0
102
RTVSPost2010PropOp35
 70
     0
102
RTVSPost2010Prop36
280
     0
102
RTVSPost2010PropOp36
 70
     0
102
RTVSPost2010Prop37
 90
       50
102
RTVSPost2010PropOp37
 70
     0
102
RTVSPost2010Prop38
140
0.0
102
RTVSPost2010PropOp38
 70
     0
102
RTVSPost2010Prop39
140
1.0
102
RTVSPost2010PropOp39
 70
     0
102
RTVSPost2010Prop40
 90
        0
102
RTVSPost2010PropOp40
 70
     0
102
RTVSPost2010Prop41ColorIndex
 90
       18
102
RTVSPost2010Prop41ColorRGB
 90
        0
102
RTVSPost2010PropOp41
 70
     0
102
RTVSPost2010Prop42
 90
       50
102
RTVSPost2010PropOp42
 70
     0
102
RTVSPost2010Prop43
 90
        3
102
RTVSPost2010PropOp43
 70
     0
102
RTVSPost2010Prop44ColorIndex
 90
        5
102
RTVSPost2010Prop44ColorRGB
 90
      255
102
RTVSPost2010PropOp44
 70
     0
102
RTVSPost2010Prop45
280
     0
102
RTVSPost2010PropOp45
 70
     0
102
RTVSPost2010Prop46
 90
       50
102
RTVSPost2010PropOp46
 70
     0
102
RTVSPost2010Prop47
 90
       50
102
RTVSPost2010PropOp47
 70
     0
102
RTVSPost2010Prop48
 90
       50
102
RTVSPost2010PropOp48
 70
     0
102
RTVSPost2010Prop49
280
     0
102
RTVSPost2010PropOp49
 70
     0
102
RTVSPost2010Prop50
 90
       50
102
RTVSPost2010PropOp50
 70
     0
102
RTVSPost2010Prop51ColorIndex
 90
      256
102
RTVSPost2010Prop51ColorRGB
 90
-16777216
102
RTVSPost2010PropOp51
 70
     0
102
RTVSPost2010Prop52
140
1.0
102
RTVSPost2010PropOp52
 70
     0
102
RTVSPost2010Prop53
 90
        2
102
RTVSPost2010PropOp53
 70
     0
102
RTVSPost2010Prop54
  1
strokes_ogs.tif
102
RTVSPost2010PropOp54
 70
     0
102
RTVSPost2010Prop55
280
     0
102
RTVSPost2010PropOp55
 70
     0
102
RTVSPost2010Prop56
140
1.0
102
RTVSPost2010PropOp56
 70
     0
102
RTVSPost2010Prop57
140
1.0
102
RTVSPost2010PropOp57
 70
     0
  0
XRECORD
  5
12A
102
{ACAD_REACTORS
330
129
102
}
330
129
100
AcDbXrecord
280
     1
102
RTVSPost2010Prop28
280
     0
102
RTVSPost2010PropOp28
 70
     1
102
RTVSPost2010Prop29
280
     1
102
RTVSPost2010PropOp29
 70
     1
102
RTVSPost2010Prop30
280
     1
102
RTVSPost2010PropOp30
 70
     1
102
RTVSPost2010Prop31
280
     0
102
RTVSPost2010PropOp31
 70
     1
102
RTVSPost2010Prop32
280
     0
102
RTVSPost2010PropOp32
 70
     1
102
RTVSPost2010Prop33
280
     0
102
RTVSPost2010PropOp33
 70
     1
102
RTVSPost2010Prop34
280
     0
102
RTVSPost2010PropOp34
 70
     1
102
RTVSPost2010Prop35
280
     0
102
RTVSPost2010PropOp35
 70
     1
102
RTVSPost2010Prop36
280
     0
102
RTVSPost2010PropOp36
 70
     1
102
RTVSPost2010Prop37
 90
       50
102
RTVSPost2010PropOp37
 70
     1
102
RTVSPost2010Prop38
140
0.0
102
RTVSPost2010PropOp38
 70
     1
102
RTVSPost2010Prop39
140
1.0
102
RTVSPost2010PropOp39
 70
     1
102
RTVSPost2010Prop40
 90
        0
102
RTVSPost2010PropOp40
 70
     1
102
RTVSPost2010Prop41ColorIndex
 90
       18
102
RTVSPost2010Prop41ColorRGB
 90
        0
102
RTVSPost2010PropOp41
 70
     1
102
RTVSPost2010Prop42
 90
       50
102
RTVSPost2010PropOp42
 70
     1
102
RTVSPost2010Prop43
 90
        3
102
RTVSPost2010PropOp43
 70
     1
102
RTVSPost2010Prop44ColorIndex
 90
        5
102
RTVSPost2010Prop44ColorRGB
 90
      255
102
RTVSPost2010PropOp44
 70
     1
102
RTVSPost2010Prop45
280
     0
102
RTVSPost2010PropOp45
 70
     1
102
RTVSPost2010Prop46
 90
       50
102
RTVSPost2010PropOp46
 70
     1
102
RTVSPost2010Prop47
 90
       50
102
RTVSPost2010PropOp47
 70
     1
102
RTVSPost2010Prop48
 90
       50
102
RTVSPost2010PropOp48
 70
     1
102
RTVSPost2010Prop49
280
     0
102
RTVSPost2010PropOp49
 70
     1
102
RTVSPost2010Prop50
 90
       50
102
RTVSPost2010PropOp50
 70
     1
102
RTVSPost2010Prop51ColorIndex
 90
      256
102
RTVSPost2010Prop51ColorRGB
 90
-16777216
102
RTVSPost2010PropOp51
 70
     0
102
RTVSPost2010Prop52
140
1.0
102
RTVSPost2010PropOp52
 70
     0
102
RTVSPost2010Prop53
 90
        2
102
RTVSPost2010PropOp53
 70
     1
102
RTVSPost2010Prop54
  1
strokes_ogs.tif
102
RTVSPost2010PropOp54
 70
     1
102
RTVSPost2010Prop55
280
     0
102
RTVSPost2010PropOp55
 70
     1
102
RTVSPost2010Prop56
140
1.0
102
RTVSPost2010PropOp56
 70
     1
102
RTVSPost2010Prop57
140
1.0
102
RTVSPost2010PropOp57
 70
     1
  0
XRECORD
  5
13C
102
{ACAD_REACTORS
330
13B
102
}
330
13B
100
AcDbXrecord
280
     1
102
RTVSPost2010Prop28
280
     0
102
RTVSPost2010PropOp28
 70
     0
102
RTVSPost2010Prop29
280
     1
102
RTVSPost2010PropOp29
 70
     0
102
RTVSPost2010Prop30
280
     1
102
RTVSPost2010PropOp30
 70
     0
102
RTVSPost2010Prop31
280
     0
102
RTVSPost2010PropOp31
 70
     0
102
RTVSPost2010Prop32
280
     0
102
RTVSPost2010PropOp32
 70
     0
102
RTVSPost2010Prop33
280
     0
102
RTVSPost2010PropOp33
 70
     0
102
RTVSPost2010Prop34
280
     0
102
RTVSPost2010PropOp34
 70
     0
102
RTVSPost2010Prop35
280
     0
102
RTVSPost2010PropOp35
 70
     0
102
RTVSPost2010Prop36
280
     0
102
RTVSPost2010PropOp36
 70
     0
102
RTVSPost2010Prop37
 90
       50
102
RTVSPost2010PropOp37
 70
     0
102
RTVSPost2010Prop38
140
0.0
102
RTVSPost2010PropOp38
 70
     0
102
RTVSPost2010Prop39
140
1.0
102
RTVSPost2010PropOp39
 70
     0
102
RTVSPost2010Prop40
 90
        0
102
RTVSPost2010PropOp40
 70
     0
102
RTVSPost2010Prop41ColorIndex
 90
       18
102
RTVSPost2010Prop41ColorRGB
 90
        0
102
RTVSPost2010PropOp41
 70
     0
102
RTVSPost2010Prop42
 90
       50
102
RTVSPost2010PropOp42
 70
     0
102
RTVSPost2010Prop43
 90
        3
102
RTVSPost2010PropOp43
 70
     0
102
RTVSPost2010Prop44ColorIndex
 90
        5
102
RTVSPost2010Prop44ColorRGB
 90
      255
102
RTVSPost2010PropOp44
 70
     0
102
RTVSPost2010Prop45
280
     0
102
RTVSPost2010PropOp45
 70
     0
102
RTVSPost2010Prop46
 90
       50
102
RTVSPost2010PropOp46
 70
     0
102
RTVSPost2010Prop47
 90
       50
102
RTVSPost2010PropOp47
 70
     0
102
RTVSPost2010Prop48
 90
       50
102
RTVSPost2010PropOp48
 70
     0
102
RTVSPost2010Prop49
280
     0
102
RTVSPost2010PropOp49
 70
     0
102
RTVSPost2010Prop50
 90
       50
102
RTVSPost2010PropOp50
 70
     0
102
RTVSPost2010Prop51ColorIndex
 90
      256
102
RTVSPost2010Prop51ColorRGB
 90
-16777216
102
RTVSPost2010PropOp51
 70
     0
102
RTVSPost2010Prop52
140
1.0
102
RTVSPost2010PropOp52
 70
     0
102
RTVSPost2010Prop53
 90
        2
102
RTVSPost2010PropOp53
 70
     0
102
RTVSPost2010Prop54
  1
strokes_ogs.tif
102
RTVSPost2010PropOp54
 70
     0
102
RTVSPost2010Prop55
280
     0
102
RTVSPost2010PropOp55
 70
     0
102
RTVSPost2010Prop56
140
1.0
102
RTVSPost2010PropOp56
 70
     0
102
RTVSPost2010Prop57
140
1.0
102
RTVSPost2010PropOp57
 70
     0
  0
XRECORD
  5
122
102
{ACAD_REACTORS
330
121
102
}
330
121
100
AcDbXrecord
280
     1
102
RTVSPost2010Prop28
280
     0
102
RTVSPost2010PropOp28
 70
     1
102
RTVSPost2010Prop29
280
     1
102
RTVSPost2010PropOp29
 70
     1
102
RTVSPost2010Prop30
280
     1
102
RTVSPost2010PropOp30
 70
     1
102
RTVSPost2010Prop31
280
     0
102
RTVSPost2010PropOp31
 70
     1
102
RTVSPost2010Prop32
280
     0
102
RTVSPost2010PropOp32
 70
     1
102
RTVSPost2010Prop33
280
     0
102
RTVSPost2010PropOp33
 70
     1
102
RTVSPost2010Prop34
280
     0
102
RTVSPost2010PropOp34
 70
     1
102
RTVSPost2010Prop35
280
     0
102
RTVSPost2010PropOp35
 70
     1
102
RTVSPost2010Prop36
280
     0
102
RTVSPost2010PropOp36
 70
     1
102
RTVSPost2010Prop37
 90
       50
102
RTVSPost2010PropOp37
 70
     1
102
RTVSPost2010Prop38
140
0.0
102
RTVSPost2010PropOp38
 70
     1
102
RTVSPost2010Prop39
140
1.0
102
RTVSPost2010PropOp39
 70
     1
102
RTVSPost2010Prop40
 90
        0
102
RTVSPost2010PropOp40
 70
     1
102
RTVSPost2010Prop41ColorIndex
 90
       18
102
RTVSPost2010Prop41ColorRGB
 90
        0
102
RTVSPost2010PropOp41
 70
     1
102
RTVSPost2010Prop42
 90
       50
102
RTVSPost2010PropOp42
 70
     1
102
RTVSPost2010Prop43
 90
        3
102
RTVSPost2010PropOp43
 70
     1
102
RTVSPost2010Prop44ColorIndex
 90
        5
102
RTVSPost2010Prop44ColorRGB
 90
      255
102
RTVSPost2010PropOp44
 70
     1
102
RTVSPost2010Prop45
280
     0
102
RTVSPost2010PropOp45
 70
     1
102
RTVSPost2010Prop46
 90
       50
102
RTVSPost2010PropOp46
 70
     1
102
RTVSPost2010Prop47
 90
       50
102
RTVSPost2010PropOp47
 70
     1
102
RTVSPost2010Prop48
 90
       50
102
RTVSPost2010PropOp48
 70
     1
102
RTVSPost2010Prop49
280
     0
102
RTVSPost2010PropOp49
 70
     1
102
RTVSPost2010Prop50
 90
       50
102
RTVSPost2010PropOp50
 70
     1
102
RTVSPost2010Prop51ColorIndex
 90
      256
102
RTVSPost2010Prop51ColorRGB
 90
-16777216
102
RTVSPost2010PropOp51
 70
     0
102
RTVSPost2010Prop52
140
1.0
102
RTVSPost2010PropOp52
 70
     0
102
RTVSPost2010Prop53
 90
        2
102
RTVSPost2010PropOp53
 70
     1
102
RTVSPost2010Prop54
  1
strokes_ogs.tif
102
RTVSPost2010PropOp54
 70
     1
102
RTVSPost2010Prop55
280
     0
102
RTVSPost2010PropOp55
 70
     1
102
RTVSPost2010Prop56
140
1.0
102
RTVSPost2010PropOp56
 70
     1
102
RTVSPost2010Prop57
140
1.0
102
RTVSPost2010PropOp57
 70
     1
  0
XRECORD
  5
138
102
{ACAD_REACTORS
330
137
102
}
330
137
100
AcDbXrecord
280
     1
102
RTVSPost2010Prop28
280
     0
102
RTVSPost2010PropOp28
 70
     1
102
RTVSPost2010Prop29
280
     1
102
RTVSPost2010PropOp29
 70
     1
102
RTVSPost2010Prop30
280
     1
102
RTVSPost2010PropOp30
 70
     1
102
RTVSPost2010Prop31
280
     0
102
RTVSPost2010PropOp31
 70
     1
102
RTVSPost2010Prop32
280
     0
102
RTVSPost2010PropOp32
 70
     1
102
RTVSPost2010Prop33
280
     0
102
RTVSPost2010PropOp33
 70
     1
102
RTVSPost2010Prop34
280
     0
102
RTVSPost2010PropOp34
 70
     1
102
RTVSPost2010Prop35
280
     0
102
RTVSPost2010PropOp35
 70
     1
102
RTVSPost2010Prop36
280
     0
102
RTVSPost2010PropOp36
 70
     1
102
RTVSPost2010Prop37
 90
       50
102
RTVSPost2010PropOp37
 70
     1
102
RTVSPost2010Prop38
140
0.0
102
RTVSPost2010PropOp38
 70
     1
102
RTVSPost2010Prop39
140
1.0
102
RTVSPost2010PropOp39
 70
     1
102
RTVSPost2010Prop40
 90
        0
102
RTVSPost2010PropOp40
 70
     1
102
RTVSPost2010Prop41ColorIndex
 90
       18
102
RTVSPost2010Prop41ColorRGB
 90
        0
102
RTVSPost2010PropOp41
 70
     1
102
RTVSPost2010Prop42
 90
       50
102
RTVSPost2010PropOp42
 70
     1
102
RTVSPost2010Prop43
 90
        3
102
RTVSPost2010PropOp43
 70
     1
102
RTVSPost2010Prop44ColorIndex
 90
        5
102
RTVSPost2010Prop44ColorRGB
 90
      255
102
RTVSPost2010PropOp44
 70
     1
102
RTVSPost2010Prop45
280
     0
102
RTVSPost2010PropOp45
 70
     1
102
RTVSPost2010Prop46
 90
       50
102
RTVSPost2010PropOp46
 70
     1
102
RTVSPost2010Prop47
 90
       50
102
RTVSPost2010PropOp47
 70
     1
102
RTVSPost2010Prop48
 90
       50
102
RTVSPost2010PropOp48
 70
     1
102
RTVSPost2010Prop49
280
     0
102
RTVSPost2010PropOp49
 70
     1
102
RTVSPost2010Prop50
 90
       50
102
RTVSPost2010PropOp50
 70
     1
102
RTVSPost2010Prop51ColorIndex
 90
      256
102
RTVSPost2010Prop51ColorRGB
 90
-16777216
102
RTVSPost2010PropOp51
 70
     0
102
RTVSPost2010Prop52
140
1.0
102
RTVSPost2010PropOp52
 70
     0
102
RTVSPost2010Prop53
 90
        2
102
RTVSPost2010PropOp53
 70
     1
102
RTVSPost2010Prop54
  1
strokes_ogs.tif
102
RTVSPost2010PropOp54
 70
     1
102
RTVSPost2010Prop55
280
     0
102
RTVSPost2010PropOp55
 70
     1
102
RTVSPost2010Prop56
140
1.0
102
RTVSPost2010PropOp56
 70
     1
102
RTVSPost2010Prop57
140
1.0
102
RTVSPost2010PropOp57
 70
     1
  0
XRECORD
  5
136
102
{ACAD_REACTORS
330
135
102
}
330
135
100
AcDbXrecord
280
     1
102
RTVSPost2010Prop28
280
     0
102
RTVSPost2010PropOp28
 70
     1
102
RTVSPost2010Prop29
280
     1
102
RTVSPost2010PropOp29
 70
     1
102
RTVSPost2010Prop30
280
     1
102
RTVSPost2010PropOp30
 70
     1
102
RTVSPost2010Prop31
280
     0
102
RTVSPost2010PropOp31
 70
     1
102
RTVSPost2010Prop32
280
     0
102
RTVSPost2010PropOp32
 70
     1
102
RTVSPost2010Prop33
280
     0
102
RTVSPost2010PropOp33
 70
     1
102
RTVSPost2010Prop34
280
     0
102
RTVSPost2010PropOp34
 70
     1
102
RTVSPost2010Prop35
280
     0
102
RTVSPost2010PropOp35
 70
     1
102
RTVSPost2010Prop36
280
     0
102
RTVSPost2010PropOp36
 70
     1
102
RTVSPost2010Prop37
 90
       50
102
RTVSPost2010PropOp37
 70
     1
102
RTVSPost2010Prop38
140
0.0
102
RTVSPost2010PropOp38
 70
     1
102
RTVSPost2010Prop39
140
1.0
102
RTVSPost2010PropOp39
 70
     1
102
RTVSPost2010Prop40
 90
        0
102
RTVSPost2010PropOp40
 70
     1
102
RTVSPost2010Prop41ColorIndex
 90
       18
102
RTVSPost2010Prop41ColorRGB
 90
        0
102
RTVSPost2010PropOp41
 70
     1
102
RTVSPost2010Prop42
 90
       50
102
RTVSPost2010PropOp42
 70
     1
102
RTVSPost2010Prop43
 90
        3
102
RTVSPost2010PropOp43
 70
     1
102
RTVSPost2010Prop44ColorIndex
 90
        5
102
RTVSPost2010Prop44ColorRGB
 90
      255
102
RTVSPost2010PropOp44
 70
     1
102
RTVSPost2010Prop45
280
     0
102
RTVSPost2010PropOp45
 70
     1
102
RTVSPost2010Prop46
 90
       50
102
RTVSPost2010PropOp46
 70
     1
102
RTVSPost2010Prop47
 90
       50
102
RTVSPost2010PropOp47
 70
     1
102
RTVSPost2010Prop48
 90
       50
102
RTVSPost2010PropOp48
 70
     1
102
RTVSPost2010Prop49
280
     0
102
RTVSPost2010PropOp49
 70
     1
102
RTVSPost2010Prop50
 90
       50
102
RTVSPost2010PropOp50
 70
     1
102
RTVSPost2010Prop51ColorIndex
 90
      256
102
RTVSPost2010Prop51ColorRGB
 90
-16777216
102
RTVSPost2010PropOp51
 70
     0
102
RTVSPost2010Prop52
140
1.0
102
RTVSPost2010PropOp52
 70
     0
102
RTVSPost2010Prop53
 90
        2
102
RTVSPost2010PropOp53
 70
     1
102
RTVSPost2010Prop54
  1
strokes_ogs.tif
102
RTVSPost2010PropOp54
 70
     1
102
RTVSPost2010Prop55
280
     0
102
RTVSPost2010PropOp55
 70
     1
102
RTVSPost2010Prop56
140
1.0
102
RTVSPost2010PropOp56
 70
     1
102
RTVSPost2010Prop57
140
1.0
102
RTVSPost2010PropOp57
 70
     1
  0
XRECORD
  5
130
102
{ACAD_REACTORS
330
12F
102
}
330
12F
100
AcDbXrecord
280
     1
102
RTVSPost2010Prop28
280
     0
102
RTVSPost2010PropOp28
 70
     1
102
RTVSPost2010Prop29
280
     1
102
RTVSPost2010PropOp29
 70
     1
102
RTVSPost2010Prop30
280
     1
102
RTVSPost2010PropOp30
 70
     1
102
RTVSPost2010Prop31
280
     0
102
RTVSPost2010PropOp31
 70
     1
102
RTVSPost2010Prop32
280
     0
102
RTVSPost2010PropOp32
 70
     1
102
RTVSPost2010Prop33
280
     0
102
RTVSPost2010PropOp33
 70
     1
102
RTVSPost2010Prop34
280
     0
102
RTVSPost2010PropOp34
 70
     1
102
RTVSPost2010Prop35
280
     0
102
RTVSPost2010PropOp35
 70
     1
102
RTVSPost2010Prop36
280
     0
102
RTVSPost2010PropOp36
 70
     1
102
RTVSPost2010Prop37
 90
       50
102
RTVSPost2010PropOp37
 70
     1
102
RTVSPost2010Prop38
140
0.0
102
RTVSPost2010PropOp38
 70
     1
102
RTVSPost2010Prop39
140
1.0
102
RTVSPost2010PropOp39
 70
     1
102
RTVSPost2010Prop40
 90
        0
102
RTVSPost2010PropOp40
 70
     1
102
RTVSPost2010Prop41ColorIndex
 90
       18
102
RTVSPost2010Prop41ColorRGB
 90
        0
102
RTVSPost2010PropOp41
 70
     1
102
RTVSPost2010Prop42
 90
       50
102
RTVSPost2010PropOp42
 70
     1
102
RTVSPost2010Prop43
 90
        3
102
RTVSPost2010PropOp43
 70
     1
102
RTVSPost2010Prop44ColorIndex
 90
        5
102
RTVSPost2010Prop44ColorRGB
 90
      255
102
RTVSPost2010PropOp44
 70
     1
102
RTVSPost2010Prop45
280
     0
102
RTVSPost2010PropOp45
 70
     1
102
RTVSPost2010Prop46
 90
       50
102
RTVSPost2010PropOp46
 70
     1
102
RTVSPost2010Prop47
 90
       50
102
RTVSPost2010PropOp47
 70
     1
102
RTVSPost2010Prop48
 90
       50
102
RTVSPost2010PropOp48
 70
     1
102
RTVSPost2010Prop49
280
     0
102
RTVSPost2010PropOp49
 70
     1
102
RTVSPost2010Prop50
 90
       50
102
RTVSPost2010PropOp50
 70
     1
102
RTVSPost2010Prop51ColorIndex
 90
      256
102
RTVSPost2010Prop51ColorRGB
 90
-16777216
102
RTVSPost2010PropOp51
 70
     0
102
RTVSPost2010Prop52
140
1.0
102
RTVSPost2010PropOp52
 70
     0
102
RTVSPost2010Prop53
 90
        2
102
RTVSPost2010PropOp53
 70
     1
102
RTVSPost2010Prop54
  1
strokes_ogs.tif
102
RTVSPost2010PropOp54
 70
     1
102
RTVSPost2010Prop55
280
     0
102
RTVSPost2010PropOp55
 70
     1
102
RTVSPost2010Prop56
140
1.0
102
RTVSPost2010PropOp56
 70
     1
102
RTVSPost2010Prop57
140
1.0
102
RTVSPost2010PropOp57
 70
     1
  0
XRECORD
  5
132
102
{ACAD_REACTORS
330
131
102
}
330
131
100
AcDbXrecord
280
     1
102
RTVSPost2010Prop28
280
     0
102
RTVSPost2010PropOp28
 70
     1
102
RTVSPost2010Prop29
280
     1
102
RTVSPost2010PropOp29
 70
     1
102
RTVSPost2010Prop30
280
     1
102
RTVSPost2010PropOp30
 70
     1
102
RTVSPost2010Prop31
280
     0
102
RTVSPost2010PropOp31
 70
     1
102
RTVSPost2010Prop32
280
     0
102
RTVSPost2010PropOp32
 70
     1
102
RTVSPost2010Prop33
280
     0
102
RTVSPost2010PropOp33
 70
     1
102
RTVSPost2010Prop34
280
     0
102
RTVSPost2010PropOp34
 70
     1
102
RTVSPost2010Prop35
280
     0
102
RTVSPost2010PropOp35
 70
     1
102
RTVSPost2010Prop36
280
     0
102
RTVSPost2010PropOp36
 70
     1
102
RTVSPost2010Prop37
 90
       50
102
RTVSPost2010PropOp37
 70
     1
102
RTVSPost2010Prop38
140
0.0
102
RTVSPost2010PropOp38
 70
     1
102
RTVSPost2010Prop39
140
1.0
102
RTVSPost2010PropOp39
 70
     1
102
RTVSPost2010Prop40
 90
        0
102
RTVSPost2010PropOp40
 70
     1
102
RTVSPost2010Prop41ColorIndex
 90
       18
102
RTVSPost2010Prop41ColorRGB
 90
        0
102
RTVSPost2010PropOp41
 70
     1
102
RTVSPost2010Prop42
 90
       50
102
RTVSPost2010PropOp42
 70
     1
102
RTVSPost2010Prop43
 90
        3
102
RTVSPost2010PropOp43
 70
     1
102
RTVSPost2010Prop44ColorIndex
 90
        5
102
RTVSPost2010Prop44ColorRGB
 90
      255
102
RTVSPost2010PropOp44
 70
     1
102
RTVSPost2010Prop45
280
     0
102
RTVSPost2010PropOp45
 70
     1
102
RTVSPost2010Prop46
 90
       50
102
RTVSPost2010PropOp46
 70
     1
102
RTVSPost2010Prop47
 90
       50
102
RTVSPost2010PropOp47
 70
     1
102
RTVSPost2010Prop48
 90
       50
102
RTVSPost2010PropOp48
 70
     1
102
RTVSPost2010Prop49
280
     0
102
RTVSPost2010PropOp49
 70
     1
102
RTVSPost2010Prop50
 90
       50
102
RTVSPost2010PropOp50
 70
     1
102
RTVSPost2010Prop51ColorIndex
 90
      256
102
RTVSPost2010Prop51ColorRGB
 90
-16777216
102
RTVSPost2010PropOp51
 70
     0
102
RTVSPost2010Prop52
140
1.0
102
RTVSPost2010PropOp52
 70
     0
102
RTVSPost2010Prop53
 90
        2
102
RTVSPost2010PropOp53
 70
     1
102
RTVSPost2010Prop54
  1
strokes_ogs.tif
102
RTVSPost2010PropOp54
 70
     1
102
RTVSPost2010Prop55
280
     0
102
RTVSPost2010PropOp55
 70
     1
102
RTVSPost2010Prop56
140
1.0
102
RTVSPost2010PropOp56
 70
     1
102
RTVSPost2010Prop57
140
1.0
102
RTVSPost2010PropOp57
 70
     1
  0
XRECORD
  5
128
102
{ACAD_REACTORS
330
127
102
}
330
127
100
AcDbXrecord
280
     1
102
RTVSPost2010Prop28
280
     0
102
RTVSPost2010PropOp28
 70
     1
102
RTVSPost2010Prop29
280
     1
102
RTVSPost2010PropOp29
 70
     1
102
RTVSPost2010Prop30
280
     1
102
RTVSPost2010PropOp30
 70
     1
102
RTVSPost2010Prop31
280
     0
102
RTVSPost2010PropOp31
 70
     1
102
RTVSPost2010Prop32
280
     0
102
RTVSPost2010PropOp32
 70
     1
102
RTVSPost2010Prop33
280
     0
102
RTVSPost2010PropOp33
 70
     1
102
RTVSPost2010Prop34
280
     0
102
RTVSPost2010PropOp34
 70
     1
102
RTVSPost2010Prop35
280
     0
102
RTVSPost2010PropOp35
 70
     1
102
RTVSPost2010Prop36
280
     0
102
RTVSPost2010PropOp36
 70
     1
102
RTVSPost2010Prop37
 90
       50
102
RTVSPost2010PropOp37
 70
     1
102
RTVSPost2010Prop38
140
0.0
102
RTVSPost2010PropOp38
 70
     1
102
RTVSPost2010Prop39
140
1.0
102
RTVSPost2010PropOp39
 70
     1
102
RTVSPost2010Prop40
 90
        0
102
RTVSPost2010PropOp40
 70
     1
102
RTVSPost2010Prop41ColorIndex
 90
       18
102
RTVSPost2010Prop41ColorRGB
 90
        0
102
RTVSPost2010PropOp41
 70
     1
102
RTVSPost2010Prop42
 90
       50
102
RTVSPost2010PropOp42
 70
     1
102
RTVSPost2010Prop43
 90
        3
102
RTVSPost2010PropOp43
 70
     1
102
RTVSPost2010Prop44ColorIndex
 90
        5
102
RTVSPost2010Prop44ColorRGB
 90
      255
102
RTVSPost2010PropOp44
 70
     1
102
RTVSPost2010Prop45
280
     0
102
RTVSPost2010PropOp45
 70
     1
102
RTVSPost2010Prop46
 90
       50
102
RTVSPost2010PropOp46
 70
     1
102
RTVSPost2010Prop47
 90
       50
102
RTVSPost2010PropOp47
 70
     1
102
RTVSPost2010Prop48
 90
       50
102
RTVSPost2010PropOp48
 70
     1
102
RTVSPost2010Prop49
280
     0
102
RTVSPost2010PropOp49
 70
     1
102
RTVSPost2010Prop50
 90
       50
102
RTVSPost2010PropOp50
 70
     1
102
RTVSPost2010Prop51ColorIndex
 90
      256
102
RTVSPost2010Prop51ColorRGB
 90
-16777216
102
RTVSPost2010PropOp51
 70
     0
102
RTVSPost2010Prop52
140
1.0
102
RTVSPost2010PropOp52
 70
     0
102
RTVSPost2010Prop53
 90
        2
102
RTVSPost2010PropOp53
 70
     1
102
RTVSPost2010Prop54
  1
strokes_ogs.tif
102
RTVSPost2010PropOp54
 70
     1
102
RTVSPost2010Prop55
280
     0
102
RTVSPost2010PropOp55
 70
     1
102
RTVSPost2010Prop56
140
1.0
102
RTVSPost2010PropOp56
 70
     1
102
RTVSPost2010Prop57
140
1.0
102
RTVSPost2010PropOp57
 70
     1
  0
XRECORD
  5
11C
102
{ACAD_REACTORS
330
11B
102
}
330
11B
100
AcDbXrecord
280
     1
102
RTVSPost2010Prop28
280
     0
102
RTVSPost2010PropOp28
 70
     1
102
RTVSPost2010Prop29
280
     1
102
RTVSPost2010PropOp29
 70
     1
102
RTVSPost2010Prop30
280
     1
102
RTVSPost2010PropOp30
 70
     1
102
RTVSPost2010Prop31
280
     0
102
RTVSPost2010PropOp31
 70
     1
102
RTVSPost2010Prop32
280
     0
102
RTVSPost2010PropOp32
 70
     1
102
RTVSPost2010Prop33
280
     0
102
RTVSPost2010PropOp33
 70
     1
102
RTVSPost2010Prop34
280
     0
102
RTVSPost2010PropOp34
 70
     1
102
RTVSPost2010Prop35
280
     0
102
RTVSPost2010PropOp35
 70
     1
102
RTVSPost2010Prop36
280
     0
102
RTVSPost2010PropOp36
 70
     1
102
RTVSPost2010Prop37
 90
       50
102
RTVSPost2010PropOp37
 70
     1
102
RTVSPost2010Prop38
140
0.0
102
RTVSPost2010PropOp38
 70
     1
102
RTVSPost2010Prop39
140
1.0
102
RTVSPost2010PropOp39
 70
     1
102
RTVSPost2010Prop40
 90
        0
102
RTVSPost2010PropOp40
 70
     1
102
RTVSPost2010Prop41ColorIndex
 90
       18
102
RTVSPost2010Prop41ColorRGB
 90
        0
102
RTVSPost2010PropOp41
 70
     1
102
RTVSPost2010Prop42
 90
       50
102
RTVSPost2010PropOp42
 70
     1
102
RTVSPost2010Prop43
 90
        3
102
RTVSPost2010PropOp43
 70
     1
102
RTVSPost2010Prop44ColorIndex
 90
        5
102
RTVSPost2010Prop44ColorRGB
 90
      255
102
RTVSPost2010PropOp44
 70
     1
102
RTVSPost2010Prop45
280
     0
102
RTVSPost2010PropOp45
 70
     1
102
RTVSPost2010Prop46
 90
       50
102
RTVSPost2010PropOp46
 70
     1
102
RTVSPost2010Prop47
 90
       50
102
RTVSPost2010PropOp47
 70
     1
102
RTVSPost2010Prop48
 90
       50
102
RTVSPost2010PropOp48
 70
     1
102
RTVSPost2010Prop49
280
     0
102
RTVSPost2010PropOp49
 70
     1
102
RTVSPost2010Prop50
 90
       50
102
RTVSPost2010PropOp50
 70
     1
102
RTVSPost2010Prop51ColorIndex
 90
      256
102
RTVSPost2010Prop51ColorRGB
 90
-16777216
102
RTVSPost2010PropOp51
 70
     0
102
RTVSPost2010Prop52
140
1.0
102
RTVSPost2010PropOp52
 70
     0
102
RTVSPost2010Prop53
 90
        2
102
RTVSPost2010PropOp53
 70
     1
102
RTVSPost2010Prop54
  1
strokes_ogs.tif
102
RTVSPost2010PropOp54
 70
     1
102
RTVSPost2010Prop55
280
     0
102
RTVSPost2010PropOp55
 70
     1
102
RTVSPost2010Prop56
140
1.0
102
RTVSPost2010PropOp56
 70
     1
102
RTVSPost2010Prop57
140
1.0
102
RTVSPost2010PropOp57
 70
     1
  0
XRECORD
  5
134
102
{ACAD_REACTORS
330
133
102
}
330
133
100
AcDbXrecord
280
     1
102
RTVSPost2010Prop28
280
     0
102
RTVSPost2010PropOp28
 70
     1
102
RTVSPost2010Prop29
280
     1
102
RTVSPost2010PropOp29
 70
     1
102
RTVSPost2010Prop30
280
     1
102
RTVSPost2010PropOp30
 70
     1
102
RTVSPost2010Prop31
280
     0
102
RTVSPost2010PropOp31
 70
     1
102
RTVSPost2010Prop32
280
     0
102
RTVSPost2010PropOp32
 70
     1
102
RTVSPost2010Prop33
280
     0
102
RTVSPost2010PropOp33
 70
     1
102
RTVSPost2010Prop34
280
     0
102
RTVSPost2010PropOp34
 70
     1
102
RTVSPost2010Prop35
280
     0
102
RTVSPost2010PropOp35
 70
     1
102
RTVSPost2010Prop36
280
     0
102
RTVSPost2010PropOp36
 70
     1
102
RTVSPost2010Prop37
 90
       50
102
RTVSPost2010PropOp37
 70
     1
102
RTVSPost2010Prop38
140
0.0
102
RTVSPost2010PropOp38
 70
     1
102
RTVSPost2010Prop39
140
1.0
102
RTVSPost2010PropOp39
 70
     1
102
RTVSPost2010Prop40
 90
        0
102
RTVSPost2010PropOp40
 70
     1
102
RTVSPost2010Prop41ColorIndex
 90
       18
102
RTVSPost2010Prop41ColorRGB
 90
        0
102
RTVSPost2010PropOp41
 70
     1
102
RTVSPost2010Prop42
 90
       50
102
RTVSPost2010PropOp42
 70
     1
102
RTVSPost2010Prop43
 90
        3
102
RTVSPost2010PropOp43
 70
     1
102
RTVSPost2010Prop44ColorIndex
 90
        5
102
RTVSPost2010Prop44ColorRGB
 90
      255
102
RTVSPost2010PropOp44
 70
     1
102
RTVSPost2010Prop45
280
     0
102
RTVSPost2010PropOp45
 70
     1
102
RTVSPost2010Prop46
 90
       50
102
RTVSPost2010PropOp46
 70
     1
102
RTVSPost2010Prop47
 90
       50
102
RTVSPost2010PropOp47
 70
     1
102
RTVSPost2010Prop48
 90
       50
102
RTVSPost2010PropOp48
 70
     1
102
RTVSPost2010Prop49
280
     0
102
RTVSPost2010PropOp49
 70
     1
102
RTVSPost2010Prop50
 90
       50
102
RTVSPost2010PropOp50
 70
     1
102
RTVSPost2010Prop51ColorIndex
 90
      256
102
RTVSPost2010Prop51ColorRGB
 90
-16777216
102
RTVSPost2010PropOp51
 70
     0
102
RTVSPost2010Prop52
140
1.0
102
RTVSPost2010PropOp52
 70
     0
102
RTVSPost2010Prop53
 90
        2
102
RTVSPost2010PropOp53
 70
     1
102
RTVSPost2010Prop54
  1
strokes_ogs.tif
102
RTVSPost2010PropOp54
 70
     1
102
RTVSPost2010Prop55
280
     0
102
RTVSPost2010PropOp55
 70
     1
102
RTVSPost2010Prop56
140
1.0
102
RTVSPost2010PropOp56
 70
     1
102
RTVSPost2010Prop57
140
1.0
102
RTVSPost2010PropOp57
 70
     1
  0
ENDSEC
  0
EOF
