  0
SECTION
  2
HEADER
  9
$ACADVER
  1
AC1024
  9
$ACADMAINTVER
 70
   226
  9
$DWGCODEPAGE
  3
ANSI_932
  9
$INSBASE
 10
0.0
 20
0.0
 30
0.0
  9
$EXTMIN
 10
1.000000000000000E+20
 20
1.000000000000000E+20
 30
1.000000000000000E+20
  9
$EXTMAX
 10
-1.000000000000000E+20
 20
-1.000000000000000E+20
 30
-1.000000000000000E+20
  9
$LIMMIN
 10
0.0
 20
0.0
  9
$LIMMAX
 10
12.0
 20
9.0
  9
$ORTHOMODE
 70
     0
  9
$REGENMODE
 70
     1
  9
$FILLMODE
 70
     1
  9
$QTEXTMODE
 70
     0
  9
$MIRRTEXT
 70
     0
  9
$LTSCALE
 40
1.0
  9
$ATTMODE
 70
     1
  9
$TEXTSIZE
 40
0.2
  9
$TRACEWID
 40
0.05
  9
$TEXTSTYLE
  7
Standard
  9
$CLAYER
  8
0
  9
$CELTYPE
  6
ByLayer
  9
$CECOLOR
 62
   256
  9
$CELTSCALE
 40
1.0
  9
$DISPSILH
 70
     0
  9
$DIMSCALE
 40
1.0
  9
$DIMASZ
 40
0.18
  9
$DIMEXO
 40
0.0625
  9
$DIMDLI
 40
0.38
  9
$DIMRND
 40
0.0
  9
$DIMDLE
 40
0.0
  9
$DIMEXE
 40
0.18
  9
$DIMTP
 40
0.0
  9
$DIMTM
 40
0.0
  9
$DIMTXT
 40
0.18
  9
$DIMCEN
 40
0.09
  9
$DIMTSZ
 40
0.0
  9
$DIMTOL
 70
     0
  9
$DIMLIM
 70
     0
  9
$DIMTIH
 70
     1
  9
$DIMTOH
 70
     1
  9
$DIMSE1
 70
     0
  9
$DIMSE2
 70
     0
  9
$DIMTAD
 70
     0
  9
$DIMZIN
 70
     0
  9
$DIMBLK
  1

  9
$DIMASO
 70
     1
  9
$DIMSHO
 70
     1
  9
$DIMPOST
  1

  9
$DIMAPOST
  1

  9
$DIMALT
 70
     0
  9
$DIMALTD
 70
     2
  9
$DIMALTF
 40
25.4
  9
$DIMLFAC
 40
1.0
  9
$DIMTOFL
 70
     0
  9
$DIMTVP
 40
0.0
  9
$DIMTIX
 70
     0
  9
$DIMSOXD
 70
     0
  9
$DIMSAH
 70
     0
  9
$DIMBLK1
  1

  9
$DIMBLK2
  1

  9
$DIMSTYLE
  2
Standard
  9
$DIMCLRD
 70
     0
  9
$DIMCLRE
 70
     0
  9
$DIMCLRT
 70
     0
  9
$DIMTFAC
 40
1.0
  9
$DIMGAP
 40
0.09
  9
$DIMJUST
 70
     0
  9
$DIMSD1
 70
     0
  9
$DIMSD2
 70
     0
  9
$DIMTOLJ
 70
     1
  9
$DIMTZIN
 70
     0
  9
$DIMALTZ
 70
     0
  9
$DIMALTTZ
 70
     0
  9
$DIMUPT
 70
     0
  9
$DIMDEC
 70
     4
  9
$DIMTDEC
 70
     4
  9
$DIMALTU
 70
     2
  9
$DIMALTTD
 70
     2
  9
$DIMTXSTY
  7
Standard
  9
$DIMAUNIT
 70
     0
  9
$DIMADEC
 70
     0
  9
$DIMALTRND
 40
0.0
  9
$DIMAZIN
 70
     0
  9
$DIMDSEP
 70
    46
  9
$DIMATFIT
 70
     3
  9
$DIMFRAC
 70
     0
  9
$DIMLDRBLK
  1

  9
$DIMLUNIT
 70
     2
  9
$DIMLWD
 70
    -2
  9
$DIMLWE
 70
    -2
  9
$DIMTMOVE
 70
     0
  9
$DIMFXL
 40
1.0
  9
$DIMFXLON
 70
     0
  9
$DIMJOGANG
 40
0.7853981633974483
  9
$DIMTFILL
 70
     0
  9
$DIMTFILLCLR
 70
     0
  9
$DIMARCSYM
 70
     0
  9
$DIMLTYPE
  6

  9
$DIMLTEX1
  6

  9
$DIMLTEX2
  6

  9
$DIMTXTDIRECTION
 70
     0
  9
$LUNITS
 70
     2
  9
$LUPREC
 70
     4
  9
$SKETCHINC
 40
0.1
  9
$FILLETRAD
 40
0.0
  9
$AUNITS
 70
     0
  9
$AUPREC
 70
     0
  9
$MENU
  1
.
  9
$ELEVATION
 40
0.0
  9
$PELEVATION
 40
0.0
  9
$THICKNESS
 40
0.0
  9
$LIMCHECK
 70
     0
  9
$CHAMFERA
 40
0.0
  9
$CHAMFERB
 40
0.0
  9
$CHAMFERC
 40
0.0
  9
$CHAMFERD
 40
0.0
  9
$SKPOLY
 70
     0
  9
$TDCREATE
 40
2460039.382233796
  9
$TDUCREATE
 40
2460039.007233796
  9
$TDUPDATE
 40
2460039.382233796
  9
$TDUUPDATE
 40
2460039.007233796
  9
$TDINDWG
 40
0.0000000000
  9
$TDUSRTIMER
 40
0.0000000000
  9
$USRTIMER
 70
     1
  9
$ANGBASE
 50
0.0
  9
$ANGDIR
 70
     0
  9
$PDMODE
 70
     0
  9
$PDSIZE
 40
0.0
  9
$PLINEWID
 40
0.0
  9
$SPLFRAME
 70
     0
  9
$SPLINETYPE
 70
     6
  9
$SPLINESEGS
 70
     8
  9
$HANDSEED
  5
146
  9
$SURFTAB1
 70
     6
  9
$SURFTAB2
 70
     6
  9
$SURFTYPE
 70
     6
  9
$SURFU
 70
     6
  9
$SURFV
 70
     6
  9
$UCSBASE
  2

  9
$UCSNAME
  2

  9
$UCSORG
 10
0.0
 20
0.0
 30
0.0
  9
$UCSXDIR
 10
1.0
 20
0.0
 30
0.0
  9
$UCSYDIR
 10
0.0
 20
1.0
 30
0.0
  9
$UCSORTHOREF
  2

  9
$UCSORTHOVIEW
 70
     0
  9
$UCSORGTOP
 10
0.0
 20
0.0
 30
0.0
  9
$UCSORGBOTTOM
 10
0.0
 20
0.0
 30
0.0
  9
$UCSORGLEFT
 10
0.0
 20
0.0
 30
0.0
  9
$UCSORGRIGHT
 10
0.0
 20
0.0
 30
0.0
  9
$UCSORGFRONT
 10
0.0
 20
0.0
 30
0.0
  9
$UCSORGBACK
 10
0.0
 20
0.0
 30
0.0
  9
$PUCSBASE
  2

  9
$PUCSNAME
  2

  9
$PUCSORG
 10
0.0
 20
0.0
 30
0.0
  9
$PUCSXDIR
 10
1.0
 20
0.0
 30
0.0
  9
$PUCSYDIR
 10
0.0
 20
1.0
 30
0.0
  9
$PUCSORTHOREF
  2

  9
$PUCSORTHOVIEW
 70
     0
  9
$PUCSORGTOP
 10
0.0
 20
0.0
 30
0.0
  9
$PUCSORGBOTTOM
 10
0.0
 20
0.0
 30
0.0
  9
$PUCSORGLEFT
 10
0.0
 20
0.0
 30
0.0
  9
$PUCSORGRIGHT
 10
0.0
 20
0.0
 30
0.0
  9
$PUCSORGFRONT
 10
0.0
 20
0.0
 30
0.0
  9
$PUCSORGBACK
 10
0.0
 20
0.0
 30
0.0
  9
$USERI1
 70
     0
  9
$USERI2
 70
     0
  9
$USERI3
 70
     0
  9
$USERI4
 70
     0
  9
$USERI5
 70
     0
  9
$USERR1
 40
0.0
  9
$USERR2
 40
0.0
  9
$USERR3
 40
0.0
  9
$USERR4
 40
0.0
  9
$USERR5
 40
0.0
  9
$WORLDVIEW
 70
     1
  9
$SHADEDGE
 70
     3
  9
$SHADEDIF
 70
    70
  9
$TILEMODE
 70
     1
  9
$MAXACTVP
 70
    64
  9
$PINSBASE
 10
0.0
 20
0.0
 30
0.0
  9
$PLIMCHECK
 70
     0
  9
$PEXTMIN
 10
1.000000000000000E+20
 20
1.000000000000000E+20
 30
1.000000000000000E+20
  9
$PEXTMAX
 10
-1.000000000000000E+20
 20
-1.000000000000000E+20
 30
-1.000000000000000E+20
  9
$PLIMMIN
 10
0.0
 20
0.0
  9
$PLIMMAX
 10
12.0
 20
9.0
  9
$UNITMODE
 70
     0
  9
$VISRETAIN
 70
     1
  9
$PLINEGEN
 70
     0
  9
$PSLTSCALE
 70
     1
  9
$TREEDEPTH
 70
  3020
  9
$CMLSTYLE
  2
Standard
  9
$CMLJUST
 70
     0
  9
$CMLSCALE
 40
1.0
  9
$PROXYGRAPHICS
 70
     1
  9
$MEASUREMENT
 70
     0
  9
$CELWEIGHT
370
    -1
  9
$ENDCAPS
280
     0
  9
$JOINSTYLE
280
     0
  9
$LWDISPLAY
290
     1
  9
$INSUNITS
 70
     4
  9
$HYPERLINKBASE
  1

  9
$STYLESHEET
  1

  9
$XEDIT
290
     1
  9
$CEPSNTYPE
380
     0
  9
$PSTYLEMODE
290
     1
  9
$FINGERPRINTGUID
  2
{39459D7E-412F-4F49-8B79-6A5D749006E5}
  9
$VERSIONGUID
  2
{EA5D9358-470B-9543-86F4-CD30F7CA0E08}
  9
$EXTNAMES
290
     1
  9
$PSVPSCALE
 40
0.0
  9
$OLESTARTUP
290
     0
  9
$SORTENTS
280
   127
  9
$INDEXCTL
280
     0
  9
$HIDETEXT
280
     1
  9
$XCLIPFRAME
280
     2
  9
$HALOGAP
280
     0
  9
$OBSCOLOR
 70
   257
  9
$OBSLTYPE
280
     0
  9
$INTERSECTIONDISPLAY
280
     0
  9
$INTERSECTIONCOLOR
 70
   257
  9
$DIMASSOC
280
     2
  9
$PROJECTNAME
  1

  9
$CAMERADISPLAY
290
     0
  9
$LENSLENGTH
 40
50.0
  9
$CAMERAHEIGHT
 40
0.0
  9
$STEPSPERSEC
 40
2.0
  9
$STEPSIZE
 40
6.0
  9
$3DDWFPREC
 40
2.0
  9
$PSOLWIDTH
 40
0.25
  9
$PSOLHEIGHT
 40
4.0
  9
$LOFTANG1
 40
1.570796326794896
  9
$LOFTANG2
 40
1.570796326794896
  9
$LOFTMAG1
 40
0.0
  9
$LOFTMAG2
 40
0.0
  9
$LOFTPARAM
 70
     7
  9
$LOFTNORMALS
280
     1
  9
$LATITUDE
 40
37.795
  9
$LONGITUDE
 40
-122.394
  9
$NORTHDIRECTION
 40
0.0
  9
$TIMEZONE
 70
 -8000
  9
$LIGHTGLYPHDISPLAY
280
     1
  9
$TILEMODELIGHTSYNCH
280
     1
  9
$CMATERIAL
347
11
  9
$SOLIDHIST
280
     0
  9
$SHOWHIST
280
     1
  9
$DWFFRAME
280
     2
  9
$DGNFRAME
280
     0
  9
$REALWORLDSCALE
290
     1
  9
$INTERFERECOLOR
 62
     1
  9
$INTERFEREOBJVS
345
33
  9
$INTERFEREVPVS
346
30
  9
$CSHADOW
280
     0
  9
$SHADOWPLANELOCATION
 40
0.0
  0
ENDSEC
  0
SECTION
  2
CLASSES
  0
CLASS
  1
ACDBDICTIONARYWDFLT
  2
AcDbDictionaryWithDefault
  3
ObjectDBX Classes
 90
        0
 91
        1
280
     0
281
     0
  0
CLASS
  1
MATERIAL
  2
AcDbMaterial
  3
ObjectDBX Classes
 90
     1153
 91
        3
280
     0
281
     0
  0
CLASS
  1
VISUALSTYLE
  2
AcDbVisualStyle
  3
ObjectDBX Classes
 90
     4095
 91
       24
280
     0
281
     0
  0
CLASS
  1
SCALE
  2
AcDbScale
  3
ObjectDBX Classes
 90
     1153
 91
       17
280
     0
281
     0
  0
CLASS
  1
TABLESTYLE
  2
AcDbTableStyle
  3
ObjectDBX Classes
 90
     4095
 91
        1
280
     0
281
     0
  0
CLASS
  1
MLEADERSTYLE
  2
AcDbMLeaderStyle
  3
ACDB_MLEADERSTYLE_CLASS
 90
     4095
 91
        1
280
     0
281
     0
  0
CLASS
  1
ACDBSECTIONVIEWSTYLE
  2
AcDbSectionViewStyle
  3
ObjectDBX Classes
 90
     1025
 91
        1
280
     0
281
     0
  0
CLASS
  1
ACDBDETAILVIEWSTYLE
  2
AcDbDetailViewStyle
  3
ObjectDBX Classes
 90
     1025
 91
        1
280
     0
281
     0
  0
CLASS
  1
DICTIONARYVAR
  2
AcDbDictionaryVar
  3
ObjectDBX Classes
 90
        0
 91
        5
280
     0
281
     0
  0
CLASS
  1
CELLSTYLEMAP
  2
AcDbCellStyleMap
  3
ObjectDBX Classes
 90
     1152
 91
        1
280
     0
281
     0
  0
ENDSEC
  0
SECTION
  2
TABLES
  0
TABLE
  2
VPORT
  5
8
330
0
100
AcDbSymbolTable
 70
     1
  0
VPORT
  5
57
330
8
100
AcDbSymbolTableRecord
100
AcDbViewportTableRecord
  2
*Active
 70
     0
 10
0.0
 20
0.0
 11
1.0
 21
1.0
 12
0.0
 22
0.0
 13
0.0
 23
0.0
 14
1.0
 24
1.0
 15
0.0
 25
0.0
 16
0.0
 26
0.0
 36
1.0
 17
210.000144736454
 27
148.5000011496697
 37
0.0
 40
302.940178045196
 41
1.414141557672329
 42
50.0
 43
0.0
 44
0.0
 50
0.0
 51
0.0
 71
     0
 72
   100
 73
     1
 74
     1
 75
     0
 76
     0
 77
     0
 78
     0
281
     0
 65
     1
110
0.0
120
0.0
130
0.0
111
1.0
121
0.0
131
0.0
112
0.0
122
1.0
132
0.0
 79
     0
146
0.0
 60
     3
 61
     5
292
     1
282
     1
141
0.0
142
0.0
 63
   250
421
  3355443
  0
ENDTAB
  0
TABLE
  2
LTYPE
  5
5
330
0
100
AcDbSymbolTable
 70
    10
  0
LTYPE
  5
5B
330
5
100
AcDbSymbolTableRecord
100
AcDbLinetypeTableRecord
  2
ByBlock
 70
     0
  3

 72
    65
 73
     0
 40
0.0
  0
LTYPE
  5
5C
330
5
100
AcDbSymbolTableRecord
100
AcDbLinetypeTableRecord
  2
ByLayer
 70
     0
  3

 72
    65
 73
     0
 40
0.0
  0
LTYPE
  5
5D
330
5
100
AcDbSymbolTableRecord
100
AcDbLinetypeTableRecord
  2
Continuous
 70
     0
  3
Solid line
 72
    65
 73
     0
 40
0.0
  0
LTYPE
  5
84
330
5
100
AcDbSymbolTableRecord
100
AcDbLinetypeTableRecord
  2
AI-Linetype-0
 70
     0
  3
Adobe Illustrator Linetype No. 0
 72
    65
 73
     2
 40
1.403349973407224
 49
0.7016749867036122
 74
     0
 49
-0.7016749867036122
 74
     0
  0
LTYPE
  5
86
330
5
100
AcDbSymbolTableRecord
100
AcDbLinetypeTableRecord
  2
AI-Linetype-1
 70
     0
  3
Adobe Illustrator Linetype No. 1
 72
    65
 73
     4
 40
7.367763925736984
 49
5.262738965626149
 74
     0
 49
-0.7016749867036122
 74
     0
 49
0.7016749867036122
 74
     0
 49
-0.7016749867036122
 74
     0
  0
LTYPE
  5
8D
330
5
100
AcDbSymbolTableRecord
100
AcDbLinetypeTableRecord
  2
AI-Linetype-2
 70
     0
  3
Adobe Illustrator Linetype No. 2
 72
    65
 73
     4
 40
7.408333331481251
 49
5.29166666534375
 74
     0
 49
-0.7055555553791667
 74
     0
 49
0.7055555553791667
 74
     0
 49
-0.7055555553791667
 74
     0
  0
LTYPE
  5
91
330
5
100
AcDbSymbolTableRecord
100
AcDbLinetypeTableRecord
  2
AI-Linetype-3
 70
     0
  3
Adobe Illustrator Linetype No. 3
 72
    65
 73
     2
 40
1.40970001781507
 49
0.7048500089075354
 74
     0
 49
-0.7048500089075354
 74
     0
  0
LTYPE
  5
93
330
5
100
AcDbSymbolTableRecord
100
AcDbLinetypeTableRecord
  2
AI-Linetype-4
 70
     0
  3
Adobe Illustrator Linetype No. 4
 72
    65
 73
     4
 40
2.819400035630141
 49
0.7048500089075354
 74
     0
 49
-0.7048500089075354
 74
     0
 49
0.7048500089075354
 74
     0
 49
-0.7048500089075354
 74
     0
  0
LTYPE
  5
9C
330
5
100
AcDbSymbolTableRecord
100
AcDbLinetypeTableRecord
  2
AI-Linetype-5
 70
     0
  3
Adobe Illustrator Linetype No. 5
 72
    65
 73
     2
 40
1.40970001781507
 49
0.7048500089075354
 74
     0
 49
-0.7048500089075354
 74
     0
  0
LTYPE
  5
9E
330
5
100
AcDbSymbolTableRecord
100
AcDbLinetypeTableRecord
  2
AI-Linetype-6
 70
     0
  3
Adobe Illustrator Linetype No. 6
 72
    65
 73
     4
 40
2.819400035630141
 49
0.7048500089075354
 74
     0
 49
-0.7048500089075354
 74
     0
 49
0.7048500089075354
 74
     0
 49
-0.7048500089075354
 74
     0
  0
LTYPE
  5
AD
330
5
100
AcDbSymbolTableRecord
100
AcDbLinetypeTableRecord
  2
AI-Linetype-7
 70
     0
  3
Adobe Illustrator Linetype No. 7
 72
    65
 73
     2
 40
1.411816615175576
 49
0.7059083075877882
 74
     0
 49
-0.7059083075877882
 74
     0
  0
LTYPE
  5
B0
330
5
100
AcDbSymbolTableRecord
100
AcDbLinetypeTableRecord
  2
AI-Linetype-8
 70
     0
  3
Adobe Illustrator Linetype No. 8
 72
    65
 73
     2
 40
1.411111110758333
 49
0.7055555553791667
 74
     0
 49
-0.7055555553791667
 74
     0
  0
ENDTAB
  0
TABLE
  2
LAYER
  5
2
330
0
100
AcDbSymbolTable
 70
     2
  0
LAYER
  5
54
330
2
100
AcDbSymbolTableRecord
100
AcDbLayerTableRecord
  2
0
 70
     0
 62
     7
  6
Continuous
370
    -3
390
F
347
21
  0
LAYER
  5
78
330
2
100
AcDbSymbolTableRecord
100
AcDbLayerTableRecord
  2
レイヤー 1
 70
     0
 62
     7
  6
Continuous
370
     0
390
F
347
21
  0
ENDTAB
  0
TABLE
  2
STYLE
  5
3
330
0
100
AcDbSymbolTable
 70
     2
  0
STYLE
  5
55
330
3
100
AcDbSymbolTableRecord
100
AcDbTextStyleTableRecord
  2
Standard
 70
     0
 40
0.0
 41
1.0
 50
0.0
 71
     0
 42
0.2
  3
txt
  4

  0
STYLE
  5
5A
330
3
100
AcDbSymbolTableRecord
100
AcDbTextStyleTableRecord
  2
Annotative
 70
     0
 40
0.0
 41
1.0
 50
0.0
 71
     0
 42
0.2
  3
txt
  4

1001
AcadAnnotative
1000
AnnotativeData
1002
{
1070
     1
1070
     1
1002
}
  0
ENDTAB
  0
TABLE
  2
VIEW
  5
6
330
0
100
AcDbSymbolTable
 70
     0
  0
ENDTAB
  0
TABLE
  2
UCS
  5
7
330
0
100
AcDbSymbolTable
 70
     0
  0
ENDTAB
  0
TABLE
  2
APPID
  5
9
330
0
100
AcDbSymbolTable
 70
     2
  0
APPID
  5
56
330
9
100
AcDbSymbolTableRecord
100
AcDbRegAppTableRecord
  2
ACAD
 70
     0
  0
APPID
  5
5E
330
9
100
AcDbSymbolTableRecord
100
AcDbRegAppTableRecord
  2
AcadAnnotative
 70
     0
  0
ENDTAB
  0
TABLE
  2
DIMSTYLE
  5
A
330
0
100
AcDbSymbolTable
 70
     2
100
AcDbDimStyleTable
 71
     0
  0
DIMSTYLE
105
58
330
A
100
AcDbSymbolTableRecord
100
AcDbDimStyleTableRecord
  2
Standard
 70
     0
340
55
  0
DIMSTYLE
105
59
330
A
100
AcDbSymbolTableRecord
100
AcDbDimStyleTableRecord
  2
Annotative
 70
     0
340
55
1001
AcadAnnotative
1000
AnnotativeData
1002
{
1070
     1
1070
     1
1002
}
  0
ENDTAB
  0
TABLE
  2
BLOCK_RECORD
  5
1
330
0
100
AcDbSymbolTable
 70
    11
  0
BLOCK_RECORD
  5
70
330
1
100
AcDbSymbolTableRecord
100
AcDbBlockTableRecord
  2
*Model_Space
340
73
 70
     0
280
     1
281
     0
  0
BLOCK_RECORD
  5
6C
330
1
100
AcDbSymbolTableRecord
100
AcDbBlockTableRecord
  2
*Paper_Space
340
6F
 70
     0
280
     1
281
     0
  0
BLOCK_RECORD
  5
74
330
1
100
AcDbSymbolTableRecord
100
AcDbBlockTableRecord
  2
*Paper_Space0
340
77
 70
     0
280
     1
281
     0
  0
BLOCK_RECORD
  5
79
330
1
100
AcDbSymbolTableRecord
100
AcDbBlockTableRecord
  2
Block_0
340
0
102
{BLKREFS
331
7A
102
}
 70
     0
280
     1
281
     0
  0
BLOCK_RECORD
  5
87
330
1
100
AcDbSymbolTableRecord
100
AcDbBlockTableRecord
  2
Block_1
340
0
102
{BLKREFS
331
88
102
}
 70
     0
280
     1
281
     0
  0
BLOCK_RECORD
  5
94
330
1
100
AcDbSymbolTableRecord
100
AcDbBlockTableRecord
  2
Block_2
340
0
102
{BLKREFS
331
95
102
}
 70
     0
280
     1
281
     0
  0
BLOCK_RECORD
  5
9F
330
1
100
AcDbSymbolTableRecord
100
AcDbBlockTableRecord
  2
Block_3
340
0
102
{BLKREFS
331
A0
102
}
 70
     0
280
     1
281
     0
  0
BLOCK_RECORD
  5
A8
330
1
100
AcDbSymbolTableRecord
100
AcDbBlockTableRecord
  2
Block_4
340
0
102
{BLKREFS
331
A9
102
}
 70
     0
280
     1
281
     0
  0
BLOCK_RECORD
  5
BC
330
1
100
AcDbSymbolTableRecord
100
AcDbBlockTableRecord
  2
Block_5
340
0
102
{BLKREFS
331
BD
102
}
 70
     0
280
     1
281
     0
  0
BLOCK_RECORD
  5
CD
330
1
100
AcDbSymbolTableRecord
100
AcDbBlockTableRecord
  2
Block_6
340
0
102
{BLKREFS
331
CE
102
}
 70
     0
280
     1
281
     0
  0
BLOCK_RECORD
  5
D9
330
1
100
AcDbSymbolTableRecord
100
AcDbBlockTableRecord
  2
Block_7
340
0
102
{BLKREFS
331
DA
102
}
 70
     0
280
     1
281
     0
  0
BLOCK_RECORD
  5
F2
330
1
100
AcDbSymbolTableRecord
100
AcDbBlockTableRecord
  2
Block_8
340
0
102
{BLKREFS
331
F3
102
}
 70
     0
280
     1
281
     0
  0
BLOCK_RECORD
  5
FD
330
1
100
AcDbSymbolTableRecord
100
AcDbBlockTableRecord
  2
Block_9
340
0
102
{BLKREFS
331
FE
102
}
 70
     0
280
     1
281
     0
  0
ENDTAB
  0
ENDSEC
  0
SECTION
  2
BLOCKS
  0
BLOCK
  5
71
330
70
100
AcDbEntity
  8
0
100
AcDbBlockBegin
  2
*Model_Space
 70
     0
 10
0.0
 20
0.0
 30
0.0
  3
*Model_Space
  1

  0
ENDBLK
  5
72
330
70
100
AcDbEntity
  8
0
100
AcDbBlockEnd
  0
BLOCK
  5
6D
330
6C
100
AcDbEntity
 67
     1
  8
0
100
AcDbBlockBegin
  2
*Paper_Space
 70
     0
 10
0.0
 20
0.0
 30
0.0
  3
*Paper_Space
  1

  0
ENDBLK
  5
6E
330
6C
100
AcDbEntity
 67
     1
  8
0
100
AcDbBlockEnd
  0
BLOCK
  5
75
330
74
100
AcDbEntity
 67
     1
  8
0
100
AcDbBlockBegin
  2
*Paper_Space0
 70
     0
 10
0.0
 20
0.0
 30
0.0
  3
*Paper_Space0
  1

  0
ENDBLK
  5
76
330
74
100
AcDbEntity
 67
     1
  8
0
100
AcDbBlockEnd
  0
BLOCK
  5
7B
330
79
100
AcDbEntity
  8
0
100
AcDbBlockBegin
  2
Block_0
 70
     0
 10
0.0
 20
0.0
 30
0.0
  3
Block_0
  1

  0
SPLINE
  5
7D
330
79
100
AcDbEntity
  8
レイヤー 1
 62
   140
370
    18
100
AcDbSpline
210
0.0
220
0.0
230
1.0
 70
     9
 71
     3
 72
   461
 73
   457
 74
     0
 42
0.0000000001
 43
0.0000000001
 40
0.0
 40
0.0
 40
0.0
 40
0.0
 40
1.0
 40
1.0
 40
1.0
 40
2.0
 40
2.0
 40
2.0
 40
3.0
 40
3.0
 40
3.0
 40
4.0
 40
4.0
 40
4.0
 40
5.0
 40
5.0
 40
5.0
 40
6.0
 40
6.0
 40
6.0
 40
7.0
 40
7.0
 40
7.0
 40
8.0
 40
8.0
 40
8.0
 40
9.0
 40
9.0
 40
9.0
 40
10.0
 40
10.0
 40
10.0
 40
11.0
 40
11.0
 40
11.0
 40
12.0
 40
12.0
 40
12.0
 40
13.0
 40
13.0
 40
13.0
 40
14.0
 40
14.0
 40
14.0
 40
15.0
 40
15.0
 40
15.0
 40
16.0
 40
16.0
 40
16.0
 40
17.0
 40
17.0
 40
17.0
 40
18.0
 40
18.0
 40
18.0
 40
19.0
 40
19.0
 40
19.0
 40
20.0
 40
20.0
 40
20.0
 40
21.0
 40
21.0
 40
21.0
 40
22.0
 40
22.0
 40
22.0
 40
23.0
 40
23.0
 40
23.0
 40
24.0
 40
24.0
 40
24.0
 40
25.0
 40
25.0
 40
25.0
 40
26.0
 40
26.0
 40
26.0
 40
27.0
 40
27.0
 40
27.0
 40
28.0
 40
28.0
 40
28.0
 40
29.0
 40
29.0
 40
29.0
 40
30.0
 40
30.0
 40
30.0
 40
31.0
 40
31.0
 40
31.0
 40
32.0
 40
32.0
 40
32.0
 40
33.0
 40
33.0
 40
33.0
 40
34.0
 40
34.0
 40
34.0
 40
35.0
 40
35.0
 40
35.0
 40
36.0
 40
36.0
 40
36.0
 40
37.0
 40
37.0
 40
37.0
 40
38.0
 40
38.0
 40
38.0
 40
39.0
 40
39.0
 40
39.0
 40
40.0
 40
40.0
 40
40.0
 40
41.0
 40
41.0
 40
41.0
 40
42.0
 40
42.0
 40
42.0
 40
43.0
 40
43.0
 40
43.0
 40
44.0
 40
44.0
 40
44.0
 40
45.0
 40
45.0
 40
45.0
 40
46.0
 40
46.0
 40
46.0
 40
47.0
 40
47.0
 40
47.0
 40
48.0
 40
48.0
 40
48.0
 40
49.0
 40
49.0
 40
49.0
 40
50.0
 40
50.0
 40
50.0
 40
51.0
 40
51.0
 40
51.0
 40
52.0
 40
52.0
 40
52.0
 40
53.0
 40
53.0
 40
53.0
 40
54.0
 40
54.0
 40
54.0
 40
55.0
 40
55.0
 40
55.0
 40
56.0
 40
56.0
 40
56.0
 40
57.0
 40
57.0
 40
57.0
 40
58.0
 40
58.0
 40
58.0
 40
59.0
 40
59.0
 40
59.0
 40
60.0
 40
60.0
 40
60.0
 40
61.0
 40
61.0
 40
61.0
 40
62.0
 40
62.0
 40
62.0
 40
63.0
 40
63.0
 40
63.0
 40
64.0
 40
64.0
 40
64.0
 40
65.0
 40
65.0
 40
65.0
 40
66.0
 40
66.0
 40
66.0
 40
67.0
 40
67.0
 40
67.0
 40
68.0
 40
68.0
 40
68.0
 40
69.0
 40
69.0
 40
69.0
 40
70.0
 40
70.0
 40
70.0
 40
71.0
 40
71.0
 40
71.0
 40
72.0
 40
72.0
 40
72.0
 40
73.0
 40
73.0
 40
73.0
 40
74.0
 40
74.0
 40
74.0
 40
75.0
 40
75.0
 40
75.0
 40
76.0
 40
76.0
 40
76.0
 40
77.0
 40
77.0
 40
77.0
 40
78.0
 40
78.0
 40
78.0
 40
79.0
 40
79.0
 40
79.0
 40
80.0
 40
80.0
 40
80.0
 40
81.0
 40
81.0
 40
81.0
 40
82.0
 40
82.0
 40
82.0
 40
83.0
 40
83.0
 40
83.0
 40
84.0
 40
84.0
 40
84.0
 40
85.0
 40
85.0
 40
85.0
 40
86.0
 40
86.0
 40
86.0
 40
87.0
 40
87.0
 40
87.0
 40
88.0
 40
88.0
 40
88.0
 40
89.0
 40
89.0
 40
89.0
 40
90.0
 40
90.0
 40
90.0
 40
91.0
 40
91.0
 40
91.0
 40
92.0
 40
92.0
 40
92.0
 40
93.0
 40
93.0
 40
93.0
 40
94.0
 40
94.0
 40
94.0
 40
95.0
 40
95.0
 40
95.0
 40
96.0
 40
96.0
 40
96.0
 40
97.0
 40
97.0
 40
97.0
 40
98.0
 40
98.0
 40
98.0
 40
99.0
 40
99.0
 40
99.0
 40
100.0
 40
100.0
 40
100.0
 40
101.0
 40
101.0
 40
101.0
 40
102.0
 40
102.0
 40
102.0
 40
103.0
 40
103.0
 40
103.0
 40
104.0
 40
104.0
 40
104.0
 40
105.0
 40
105.0
 40
105.0
 40
106.0
 40
106.0
 40
106.0
 40
107.0
 40
107.0
 40
107.0
 40
108.0
 40
108.0
 40
108.0
 40
109.0
 40
109.0
 40
109.0
 40
110.0
 40
110.0
 40
110.0
 40
111.0
 40
111.0
 40
111.0
 40
112.0
 40
112.0
 40
112.0
 40
113.0
 40
113.0
 40
113.0
 40
114.0
 40
114.0
 40
114.0
 40
115.0
 40
115.0
 40
115.0
 40
116.0
 40
116.0
 40
116.0
 40
117.0
 40
117.0
 40
117.0
 40
118.0
 40
118.0
 40
118.0
 40
119.0
 40
119.0
 40
119.0
 40
120.0
 40
120.0
 40
120.0
 40
121.0
 40
121.0
 40
121.0
 40
122.0
 40
122.0
 40
122.0
 40
123.0
 40
123.0
 40
123.0
 40
124.0
 40
124.0
 40
124.0
 40
125.0
 40
125.0
 40
125.0
 40
126.0
 40
126.0
 40
126.0
 40
127.0
 40
127.0
 40
127.0
 40
128.0
 40
128.0
 40
128.0
 40
129.0
 40
129.0
 40
129.0
 40
130.0
 40
130.0
 40
130.0
 40
131.0
 40
131.0
 40
131.0
 40
132.0
 40
132.0
 40
132.0
 40
133.0
 40
133.0
 40
133.0
 40
134.0
 40
134.0
 40
134.0
 40
135.0
 40
135.0
 40
135.0
 40
136.0
 40
136.0
 40
136.0
 40
137.0
 40
137.0
 40
137.0
 40
138.0
 40
138.0
 40
138.0
 40
139.0
 40
139.0
 40
139.0
 40
140.0
 40
140.0
 40
140.0
 40
141.0
 40
141.0
 40
141.0
 40
142.0
 40
142.0
 40
142.0
 40
143.0
 40
143.0
 40
143.0
 40
144.0
 40
144.0
 40
144.0
 40
145.0
 40
145.0
 40
145.0
 40
146.0
 40
146.0
 40
146.0
 40
147.0
 40
147.0
 40
147.0
 40
148.0
 40
148.0
 40
148.0
 40
149.0
 40
149.0
 40
149.0
 40
150.0
 40
150.0
 40
150.0
 40
151.0
 40
151.0
 40
151.0
 40
152.0
 40
152.0
 40
152.0
 40
152.0
 10
211.259607050321
 20
32.30096765346448
 30
0.0
 10
210.2979301774603
 20
32.30096765346448
 30
0.0
 10
209.3627159442956
 20
32.30943236073097
 30
0.0
 10
208.4006945618864
 20
32.32707232620779
 30
0.0
 10
205.4091243654229
 20
32.37998953115739
 30
0.0
 10
202.5057701452286
 20
32.51651220568381
 30
0.0
 10
199.5223174550022
 20
32.744760547505
 30
0.0
 10
196.1850534584407
 20
32.99876097807844
 30
0.0
 10
192.9550180588576
 20
33.36071132249749
 30
0.0
 10
189.6459607815815
 20
33.85142480215862
 30
0.0
 10
186.1968603728301
 20
34.36118858326083
 30
0.0
 10
182.870168513039
 20
34.98948518090243
 30
0.0
 10
179.4743271273048
 20
35.7730048620013
 30
0.0
 10
175.7084178909145
 20
36.63942753617571
 30
0.0
 10
172.097031952961
 20
37.65401623102432
 30
0.0
 10
168.4323762260668
 20
38.87427443486151
 30
0.0
 10
164.6523636300337
 20
40.13051773763447
 30
0.0
 10
161.0519158702459
 20
41.54056840493875
 30
0.0
 10
157.4239504102696
 20
43.18521930886515
 30
0.0
 10
153.2615214494504
 20
45.06940662528864
 30
0.0
 10
149.3467517903271
 20
47.14797268854395
 30
0.0
 10
145.4552580575761
 20
49.54086065113475
 30
0.0
 10
137.6955572843695
 20
54.30724176532673
 30
0.0
 10
130.8721365707433
 20
59.82998282738192
 30
0.0
 10
124.594096004279
 20
66.42516058214859
 30
0.0
 10
121.8149159444811
 20
69.33769275203407
 30
0.0
 10
120.2852720171834
 20
73.15616122642125
 30
0.0
 10
120.2852720171834
 20
77.17888618235187
 30
0.0
 10
120.2852720171834
 20
80.53874246915025
 30
0.0
 10
121.341839738816
 20
83.74196533652707
 30
0.0
 10
123.3399735884141
 20
86.44283406957582
 30
0.0
 10
123.3399735884141
 20
86.44283406957582
 30
0.0
 10
137.302568782813
 20
105.3016258824202
 30
0.0
 10
137.302568782813
 20
105.3016258824202
 30
0.0
 10
139.5899722280148
 20
108.3319857008629
 30
0.0
 10
142.9050261246199
 20
110.4200796063196
 30
0.0
 10
146.6331900335999
 20
111.1753737277671
 30
0.0
 10
147.6647054515007
 20
111.3849216606574
 30
0.0
 10
148.6764761659016
 20
111.4865196797021
 30
0.0
 10
149.7274025436771
 20
111.4865196797021
 30
0.0
 10
153.8795931113511
 20
111.4865196797021
 30
0.0
 10
157.9273649880518
 20
109.7847286373758
 30
0.0
 10
160.8321403101338
 20
106.8168004086799
 30
0.0
 10
163.0475843233874
 20
104.5279866275138
 30
0.0
 10
165.3448708862625
 20
102.4395374465852
 30
0.0
 10
167.8446537022066
 20
100.4435244838952
 30
0.0
 10
171.2944646619018
 20
97.68479967854105
 30
0.0
 10
174.8631637136084
 20
95.3236604240315
 30
0.0
 10
178.7525365594514
 20
93.2260386763734
 30
0.0
 10
182.9336659292015
 20
90.96826305234474
 30
0.0
 10
187.1765163377545
 20
89.20014315600401
 30
0.0
 10
191.7234610184211
 20
87.82078075332693
 30
0.0
 10
196.0065544486112
 20
86.52397145121515
 30
0.0
 10
200.2504599176566
 20
85.66495842381488
 30
0.0
 10
204.6993485680743
 20
85.19470289007827
 30
0.0
 10
207.3113123057568
 20
84.92094699008161
 30
0.0
 10
209.8551923439121
 20
84.78795015546587
 30
0.0
 10
212.4788048107041
 20
84.78795015546587
 30
0.0
 10
213.0499370466182
 20
84.78795015546587
 30
0.0
 10
213.5942836651344
 20
84.7939467747949
 30
0.0
 10
214.1654374328953
 20
84.80665056439676
 30
0.0
 10
215.798089715202
 20
84.83980960844228
 30
0.0
 10
217.3898099567745
 20
84.92835394537491
 30
0.0
 10
219.0253044428565
 20
85.07723051699295
 30
0.0
 10
220.6166801748806
 20
85.21833947488412
 30
0.0
 10
222.1611380127648
 20
85.4236563998816
 30
0.0
 10
223.7412310570747
 20
85.70411408718943
 30
0.0
 10
225.1149413499713
 20
85.94506083565077
 30
0.0
 10
226.4420997901234
 20
86.24386365641756
 30
0.0
 10
227.7921681152525
 20
86.61569173554822
 30
0.0
 10
229.0092557546509
 20
86.94836415130437
 30
0.0
 10
230.1766048279811
 20
87.3367717524578
 30
0.0
 10
231.3538154871377
 20
87.8010252839037
 30
0.0
 10
232.4192112659512
 20
88.21801102869962
 30
0.0
 10
233.4320262749211
 20
88.68896634745667
 30
0.0
 10
234.4416761024139
 20
89.23824375888619
 30
0.0
 10
235.2964688878447
 20
89.70002651091375
 30
0.0
 10
236.1004465148681
 20
90.20697231156827
 30
0.0
 10
236.892775412782
 20
90.78375665726282
 30
0.0
 10
237.5789307742099
 20
91.28011955522358
 30
0.0
 10
238.2156920791179
 20
91.81210689368652
 30
0.0
 10
238.8316536200338
 20
92.40548152732724
 30
0.0
 10
239.4638286415772
 20
93.01190446011835
 30
0.0
 10
240.029341065481
 20
93.65360732386308
 30
0.0
 10
240.5553210186915
 20
94.36303861166315
 30
0.0
 10
241.5804953077147
 20
95.73852528191933
 30
0.0
 10
242.3386101010907
 20
97.2791073873827
 30
0.0
 10
242.8042793514626
 20
98.93681197342118
 30
0.0
 10
243.1591672501369
 20
100.2099793077654
 30
0.0
 10
243.3306253460684
 20
101.465167550046
 30
0.0
 10
243.3306253460684
 20
102.7806772610887
 30
0.0
 10
243.3306253460684
 20
103.0607742899629
 30
0.0
 10
243.3228738812266
 20
103.331709518031
 30
0.0
 10
243.3066388687524
 20
103.6096964259205
 30
0.0
 10
243.2787766590154
 20
104.16144999973
 30
0.0
 10
243.2103269180928
 20
104.7135480830881
 30
0.0
 10
243.0981459963544
 20
105.275873793668
 30
0.0
 10
242.9087088083592
 20
106.2714094955947
 30
0.0
 10
242.5333441233945
 20
107.2362515499325
 30
0.0
 10
241.9875979348373
 20
108.1189065451003
 30
0.0
 10
241.6962074523255
 20
108.5817551235436
 30
0.0
 10
241.3931682407042
 20
108.9895575356866
 30
0.0
 10
241.0499075392927
 20
109.3850221996231
 30
0.0
 10
240.7105441021488
 20
109.7716695723021
 30
0.0
 10
240.3715251745534
 20
110.1191612816065
 30
0.0
 10
240.0035674448819
 20
110.4585247187504
 30
0.0
 10
239.5703682194585
 20
110.8557549941231
 30
0.0
 10
239.1389130736246
 20
111.2148846666136
 30
0.0
 10
238.6778301066175
 20
111.5641312214308
 30
0.0
 10
238.1200906794023
 20
111.9842929136272
 30
0.0
 10
237.565537965511
 20
112.3677643389056
 30
0.0
 10
236.9785152266712
 20
112.7399423105465
 30
0.0
 10
236.230628060517
 20
113.2112529047755
 30
0.0
 10
235.4926024801894
 20
113.6384662767933
 30
0.0
 10
234.7182526743391
 20
114.0494554022602
 30
0.0
 10
233.6736781913646
 20
114.6008429346744
 30
0.0
 10
232.6456832304128
 20
115.0979056176556
 30
0.0
 10
231.5707703753213
 20
115.5713370987927
 30
0.0
 10
230.3674631178639
 20
116.1012143162709
 30
0.0
 10
229.1842450734548
 20
116.5845181491579
 30
0.0
 10
227.9530325425669
 20
117.0484217880936
 30
0.0
 10
226.6075505008025
 20
117.5546570378042
 30
0.0
 10
225.2909857292675
 20
118.0192604617604
 30
0.0
 10
223.9264264712537
 20
118.4708155865661
 30
0.0
 10
222.2761396064318
 20
119.0144516541385
 30
0.0
 10
220.6674738014412
 20
119.5161006204845
 30
0.0
 10
219.0055382075099
 20
120.0054010727005
 30
0.0
 10
217.244814500539
 20
120.5222192251049
 30
0.0
 10
215.52644393619
 20
121.0079992203719
 30
0.0
 10
213.7505618090841
 20
121.4913030532589
 30
0.0
 10
211.5192380588281
 20
122.0963156500857
 30
0.0
 10
209.3440047694413
 20
122.6724002107598
 30
0.0
 10
207.0975225990503
 20
123.2530710547987
 30
0.0
 10
205.254956342458
 20
123.7293232078643
 30
0.0
 10
203.5009505716834
 20
124.1861751669786
 30
0.0
 10
201.6612265188664
 20
124.6698342753375
 30
0.0
 10
199.5660701676649
 20
125.2173460753308
 30
0.0
 10
197.5397080669345
 20
125.7556853085947
 30
0.0
 10
195.4625523396435
 20
126.3162454077384
 30
0.0
 10
194.0211028567682
 20
126.7043031163816
 30
0.0
 10
192.6170541917546
 20
127.0909504890606
 30
0.0
 10
191.1671426930936
 20
127.4994634521475
 30
0.0
 10
188.6511248646753
 20
128.2050190075266
 30
0.0
 10
186.2197917896538
 20
128.9246886884719
 30
0.0
 10
183.7320022123678
 20
129.6990277283988
 30
0.0
 10
181.4872641215661
 20
130.3964765434642
 30
0.0
 10
179.3191040438475
 20
131.1140253375014
 30
0.0
 10
177.1015391436858
 20
131.8940164872088
 30
0.0
 10
175.3718751256991
 20
132.5007946954718
 30
0.0
 10
173.7007669650383
 20
133.1216762633775
 30
0.0
 10
171.9908476505515
 20
133.7930177142188
 30
0.0
 10
170.3088013117251
 20
134.4520106509302
 30
0.0
 10
168.6902631549845
 20
135.1265172832485
 30
0.0
 10
167.0410205847317
 20
135.8550042554514
 30
0.0
 10
165.1575438192521
 20
136.6854445221709
 30
0.0
 10
163.35519905245
 20
137.5430472136068
 30
0.0
 10
161.5285232987834
 20
138.4775508958276
 30
0.0
 10
159.4083254097735
 20
139.5595261966639
 30
0.0
 10
157.3939673136246
 20
140.6908847880966
 30
0.0
 10
155.3676052128942
 20
141.9372449731962
 30
0.0
 10
153.4686039858841
 20
143.1031729446387
 30
0.0
 10
151.6782632236635
 20
144.3139086892362
 30
0.0
 10
149.8928532543562
 20
145.6389462424802
 30
0.0
 10
147.9074231943599
 20
147.1093237615082
 30
0.0
 10
146.0652122132395
 20
148.6389676888059
 30
0.0
 10
144.2586364385447
 20
150.3171275292881
 30
0.0
 10
142.42736363559
 20
152.0150428391935
 30
0.0
 10
140.7583763618373
 20
153.7694146513634
 30
0.0
 10
139.1542968402114
 20
155.6818194529958
 30
0.0
 10
135.6727371724349
 20
159.825903280356
 30
0.0
 10
132.9327020100882
 20
164.2514944725547
 30
0.0
 10
130.7758246200838
 20
169.2133147770326
 30
0.0
 10
129.7545368294049
 20
171.5702230236493
 30
0.0
 10
128.9173893924126
 20
173.9200795904447
 30
0.0
 10
128.2171306713419
 20
176.3948101026569
 30
0.0
 10
127.6861983933714
 20
178.2761767471519
 30
0.0
 10
127.2565088589736
 20
180.1275602950017
 30
0.0
 10
126.903731081284
 20
182.0523028448406
 30
0.0
 10
126.592585129349
 20
183.7562255399984
 30
0.0
 10
126.3544644357779
 20
185.422402907746
 30
0.0
 10
126.1763099354969
 20
187.1450152459112
 30
0.0
 10
125.9141919986864
 20
189.6857085707426
 30
0.0
 10
125.7868418908894
 20
192.1639810717507
 30
0.0
 10
125.7868418908894
 20
194.7205648995078
 30
0.0
 10
125.7868418908894
 20
195.030645025027
 30
0.0
 10
125.7886075023256
 20
195.326277281355
 30
0.0
 10
125.7924832347465
 20
195.6363574068743
 30
0.0
 10
125.8245872182997
 20
198.6035750846264
 30
0.0
 10
126.046128389848
 20
201.468839467862
 30
0.0
 10
126.469110753973
 20
204.40007742964
 30
0.0
 10
127.1439726617632
 20
209.1004795823277
 30
0.0
 10
128.2919107752187
 20
213.540884685113
 30
0.0
 10
129.9788986728818
 20
217.9777800968727
 30
0.0
 10
131.6196684614256
 20
222.2862595744198
 30
0.0
 10
133.643199124304
 20
226.2571196944123
 30
0.0
 10
136.1655580815999
 20
230.1161649340617
 30
0.0
 10
138.0733873657909
 20
233.031512392914
 30
0.0
 10
140.1378393034801
 20
235.7055739767182
 30
0.0
 10
142.4757026316174
 20
238.2893094632684
 30
0.0
 10
144.6304699006371
 20
240.6670282398007
 30
0.0
 10
146.8737761236277
 20
242.8274476186009
 30
0.0
 10
149.3319378797406
 20
244.8918995562901
 30
0.0
 10
151.9707087666677
 20
247.1041676221433
 30
0.0
 10
154.6719327751883
 20
249.0723076091729
 30
0.0
 10
157.5879907849845
 20
250.9071224009234
 30
0.0
 10
160.2486380282429
 20
252.5792856220765
 30
0.0
 10
162.9223443365752
 20
254.0524730471097
 30
0.0
 10
165.7604462950942
 20
255.4106804103227
 30
0.0
 10
168.6588589564518
 20
256.7946183304411
 30
0.0
 10
171.5431790240901
 20
257.9852433301435
 30
0.0
 10
174.5774145749537
 20
259.0488734975208
 30
0.0
 10
177.7167901336578
 20
260.1470622789845
 30
0.0
 10
180.8180543235563
 20
261.055124853356
 30
0.0
 10
184.0558411879813
 20
261.8241778248977
 30
0.0
 10
187.4051199550476
 20
262.6168727642069
 30
0.0
 10
190.6933559364846
 20
263.2268269198704
 30
0.0
 10
194.105787610165
 20
263.6875438454822
 30
0.0
 10
196.7230266503093
 20
264.0392665626794
 30
0.0
 10
199.2778448666302
 20
264.2922011668371
 30
0.0
 10
201.9138166134756
 20
264.4608385908401
 30
0.0
 10
204.1165460712039
 20
264.6019583146546
 30
0.0
 10
206.2603859279814
 20
264.6785040299675
 30
0.0
 10
208.4680677104698
 20
264.6954280615389
 30
0.0
 10
208.8427218444907
 20
264.6982487334674
 30
0.0
 10
209.2011409660374
 20
264.6996698353551
 30
0.0
 10
209.5768501605506
 20
264.6996698353551
 30
0.0
 10
212.8082851301747
 20
264.6996698353551
 30
0.0
 10
215.9444847414783
 20
264.5980610503869
 30
0.0
 10
219.1660581252758
 20
264.3892236684405
 30
0.0
 10
222.591882607655
 20
264.1697926178768
 30
0.0
 10
225.907980798829
 20
263.8318287507738
 30
0.0
 10
229.3066536224151
 20
263.3559318731801
 30
0.0
 10
232.8432379246451
 20
262.8627449226198
 30
0.0
 10
236.2531934359454
 20
262.2369217958774
 30
0.0
 10
239.7326537486606
 20
261.4435378374712
 30
0.0
 10
243.1207329036296
 20
260.6727192544933
 30
0.0
 10
246.3736781881896
 20
259.7763054092313
 30
0.0
 10
249.6785152234962
 20
258.703158165576
 30
0.0
 10
253.1914790898054
 20
257.5643818529266
 30
0.0
 10
256.5403918154765
 20
256.2859284501972
 30
0.0
 10
259.9182433432236
 20
254.7950849108021
 30
0.0
 10
263.6277068432728
 20
253.1596119565669
 30
0.0
 10
267.1276008785849
 20
251.3646741450582
 30
0.0
 10
270.6190544299581
 20
249.3065525703231
 30
0.0
 10
277.5560771672104
 20
245.2157600637503
 30
0.0
 10
283.7451912064617
 20
240.5072188729787
 30
0.0
 10
289.5395834304906
 20
234.912879037409
 30
0.0
 10
292.5773394383032
 20
231.989758581868
 30
0.0
 10
294.3176078908304
 20
227.9003656453361
 30
0.0
 10
294.3176078908304
 20
223.689253178941
 30
0.0
 10
294.3176078908304
 20
220.1727580897593
 30
0.0
 10
293.1710801133392
 20
216.8513630642767
 30
0.0
 10
291.0021987187534
 20
214.084176243137
 30
0.0
 10
291.0021987187534
 20
214.084176243137
 30
0.0
 10
276.9489436834755
 20
196.1531863252021
 30
0.0
 10
276.9489436834755
 20
196.1531863252021
 30
0.0
 10
274.9183398089289
 20
193.5613333324148
 30
0.0
 10
272.1730293441204
 20
191.7092499995445
 30
0.0
 10
269.0096780740236
 20
190.7966011418082
 30
0.0
 10
267.586207683212
 20
190.3852782727162
 30
0.0
 10
266.1747520629051
 20
190.1855919256524
 30
0.0
 10
264.6941361507319
 20
190.1855919256524
 30
0.0
 10
260.6460197644826
 20
190.1855919256524
 30
0.0
 10
256.8120375944884
 20
191.7339470278044
 30
0.0
 10
253.898778724774
 20
194.54486502976
 30
0.0
 10
250.450733376515
 20
197.9131994812292
 30
0.0
 10
246.7395257968763
 20
200.74422822808
 30
0.0
 10
242.5651035973991
 20
203.1875760736063
 30
0.0
 10
239.8861112206817
 20
204.7521446563858
 30
0.0
 10
237.185242487633
 20
206.0708195489055
 30
0.0
 10
234.3062192543032
 20
207.2198234887767
 30
0.0
 10
231.8597062272999
 20
208.1945486607878
 30
0.0
 10
229.4350695566278
 20
208.9999473896988
 30
0.0
 10
226.8925890885134
 20
209.682205486859
 30
0.0
 10
223.9599515566945
 20
210.4664384103825
 30
0.0
 10
221.0756314890562
 20
211.0492193754061
 30
0.0
 10
218.0720895857815
 20
211.4648055501612
 30
0.0
 10
214.8780339021724
 20
211.9043566703854
 30
0.0
 10
211.7608899752716
 20
212.1449535263366
 30
0.0
 10
208.5407376933618
 20
212.1999889267135
 30
0.0
 10
208.1011865731375
 20
212.2084509424991
 30
0.0
 10
207.6771383825968
 20
212.21232667492
 30
0.0
 10
207.2322904280639
 20
212.21232667492
 30
0.0
 10
206.8978577838333
 20
212.21232667492
 30
0.0
 10
206.5796386202301
 20
212.2102165539353
 30
0.0
 10
206.2455720173948
 20
212.205285761022
 30
0.0
 10
204.7938949072976
 20
212.1855195256754
 30
0.0
 10
203.3838388570317
 20
212.1001457531816
 30
0.0
 10
201.9370925398478
 20
211.9442336506272
 30
0.0
 10
200.7323641805027
 20
211.8165282673583
 30
0.0
 10
199.5643045562287
 20
211.6383737670774
 30
0.0
 10
198.370148333654
 20
211.4002530735063
 30
0.0
 10
197.2839527908483
 20
211.1854083063074
 30
0.0
 10
196.2362131263967
 20
210.9239901545173
 30
0.0
 10
195.1711618571317
 20
210.6029718508323
 30
0.0
 10
194.2105615766101
 20
210.3154571007415
 30
0.0
 10
193.2891061935397
 20
209.9852446984803
 30
0.0
 10
192.3584782437398
 20
209.5957766538728
 30
0.0
 10
191.527671935625
 20
209.2504058314765
 30
0.0
 10
190.7353430377111
 20
208.8666006625729
 30
0.0
 10
189.9423035888534
 20
208.424917889517
 30
0.0
 10
189.2381476035151
 20
208.0347392939657
 30
0.0
 10
188.5752897003063
 20
207.6117676957642
 30
0.0
 10
187.9215828319801
 20
207.1355047767752
 30
0.0
 10
187.3433881503213
 20
206.7171194619383
 30
0.0
 10
186.803993856565
 20
206.2690847940816
 30
0.0
 10
186.2801024924925
 20
205.770967050608
 30
0.0
 10
185.7273153900374
 20
205.2495518489155
 30
0.0
 10
185.2302527070562
 20
204.6921784630956
 30
0.0
 10
184.7677486381614
 20
204.0748173521389
 30
0.0
 10
183.7277604385515
 20
202.696865285426
 30
0.0
 10
183.0310329403533
 20
201.1291099893227
 30
0.0
 10
182.7032967004722
 20
199.4237877241241
 30
0.0
 10
182.5477291074664
 20
198.5982997821647
 30
0.0
 10
182.4732935131382
 20
197.7988869066592
 30
0.0
 10
182.4732935131382
 20
196.9698677418274
 30
0.0
 10
182.4732935131382
 20
196.9698677418274
 30
0.0
 10
182.4739825322352
 20
196.8146446583701
 30
0.0
 10
182.4739825322352
 20
196.8146446583701
 30
0.0
 10
182.4746930831791
 20
196.4505841929663
 30
0.0
 10
182.5060865157884
 20
196.0695781641445
 30
0.0
 10
182.5688949128539
 20
195.6797656099885
 30
0.0
 10
182.6450961186182
 20
195.1692885864616
 30
0.0
 10
182.8168987240983
 20
194.6468183242766
 30
0.0
 10
183.0740535702254
 20
194.1599832685173
 30
0.0
 10
183.0740535702254
 20
194.1599832685173
 30
0.0
 10
183.096295967952
 20
194.11907275963
 30
0.0
 10
183.096295967952
 20
194.11907275963
 30
0.0
 10
183.2747949777815
 20
193.7948677426211
 30
0.0
 10
183.4751703439424
 20
193.4978359162523
 30
0.0
 10
183.7090707955441
 20
193.2106656757099
 30
0.0
 10
184.0121100071653
 20
192.8413083759976
 30
0.0
 10
184.3229006836285
 20
192.5121725660755
 30
0.0
 10
184.6665058945886
 20
192.19537450436
 30
0.0
 10
185.041504538158
 20
191.8514247838514
 30
0.0
 10
185.4154481212351
 20
191.5399020245977
 30
0.0
 10
185.8155098344597
 20
191.238283914864
 30
0.0
 10
186.2374263721689
 20
190.9214858531485
 30
0.0
 10
186.6533570564725
 20
190.6318609820729
 30
0.0
 10
187.0914870748092
 20
190.3496430662906
 30
0.0
 10
187.6901585427584
 20
189.9654718559917
 30
0.0
 10
188.2792914025829
 20
189.616569810723
 30
0.0
 10
188.897018554935
 20
189.2796610041124
 30
0.0
 10
189.7246381497259
 20
188.8298822566662
 30
0.0
 10
190.5391879135197
 20
188.4210140181074
 30
0.0
 10
191.3907939856267
 20
188.0280147506275
 30
0.0
 10
192.5962328959156
 20
187.4752061163256
 30
0.0
 10
193.7780513702838
 20
186.9774328824006
 30
0.0
 10
195.0110079807611
 20
186.5025910652992
 30
0.0
 10
196.2545367280088
 20
186.0245840667208
 30
0.0
 10
197.4719904088026
 20
185.5857219655936
 30
0.0
 10
198.7345748404531
 20
185.160274205012
 30
0.0
 10
200.0440771662433
 20
184.7203570433924
 30
0.0
 10
201.3264278332405
 20
184.3104337443412
 30
0.0
 10
202.6564069453212
 20
183.906862340091
 30
0.0
 10
203.9472196281039
 20
183.5163392349911
 30
0.0
 10
205.2052177763897
 20
183.1490920562635
 30
0.0
 10
206.5045140068049
 20
182.7839765303673
 30
0.0
 10
208.4927647387297
 20
182.2272921636445
 30
0.0
 10
210.4288007422062
 20
181.7044773919111
 30
0.0
 10
212.425879531312
 20
181.1848278016547
 30
0.0
 10
214.7034106247638
 20
180.5925189944298
 30
0.0
 10
216.9308586425989
 20
180.0224310530847
 30
0.0
 10
219.2355413948439
 20
179.4424599940662
 30
0.0
 10
219.2355413948439
 20
179.4424599940662
 30
0.0
 10
219.3639573290566
 20
179.4093009500207
 30
0.0
 10
219.3639573290566
 20
179.4093009500207
 30
0.0
 10
221.4682862469875
 20
178.8508509718617
 30
0.0
 10
223.4879304115217
 20
178.3096910666693
 30
0.0
 10
225.6056521381516
 20
177.7367824533957
 30
0.0
 10
227.6507038818894
 20
177.1836293095452
 30
0.0
 10
229.6417968175895
 20
176.6311759507152
 30
0.0
 10
231.6932004561284
 20
176.0462740987836
 30
0.0
 10
233.9343857922109
 20
175.4095020279521
 30
0.0
 10
236.0993914543758
 20
174.7660443186945
 30
0.0
 10
238.3137696412137
 20
174.0784786213024
 30
0.0
 10
240.6177633743616
 20
173.3658606201785
 30
0.0
 10
242.8381489464519
 20
172.6370291384271
 30
0.0
 10
245.1051079031334
 20
171.8489204824827
 30
0.0
 10
247.1303934115247
 20
171.1465408745039
 30
0.0
 10
249.0826644274754
 20
170.4258161330663
 30
0.0
 10
251.075501442765
 20
169.6451144324151
 30
0.0
 10
253.0623526046489
 20
168.8682992301082
 30
0.0
 10
254.9747681722047
 20
168.0671422750134
 30
0.0
 10
256.923507965283
 20
167.1947256729908
 30
0.0
 10
259.0331121856757
 20
166.2528042695533
 30
0.0
 10
261.0510122706205
 20
165.2742033651213
 30
0.0
 10
263.0946429124707
 20
164.2028109669788
 30
0.0
 10
265.2532966798347
 20
163.0735732624542
 30
0.0
 10
267.3018796464449
 20
161.8959965619023
 30
0.0
 10
269.3599796893332
 20
160.6016634221705
 30
0.0
 10
271.1644345771199
 20
159.469594279794
 30
0.0
 10
272.8697783741654
 20
158.3004903609511
 30
0.0
 10
274.5751006393641
 20
157.026612475663
 30
0.0
 10
276.4790326592874
 20
155.6077391341395
 30
0.0
 10
278.2524601558601
 20
154.1405375625119
 30
0.0
 10
279.9997695222852
 20
152.5396339882865
 30
0.0
 10
282.027875702605
 20
150.6836641570719
 30
0.0
 10
283.8728965897306
 20
148.759965901802
 30
0.0
 10
285.6410272519947
 20
146.6577686367025
 30
0.0
 10
288.5352089054595
 20
143.2202954252138
 30
0.0
 10
290.9319833663946
 20
139.6039679284236
 30
0.0
 10
292.9696281548392
 20
135.601003824878
 30
0.0
 10
294.3059591617208
 20
132.9699844027927
 30
0.0
 10
295.4094447774931
 20
130.3276822929931
 30
0.0
 10
296.3411277877854
 20
127.5252155408997
 30
0.0
 10
297.1274708322937
 20
125.1541931687169
 30
0.0
 10
297.7550595704723
 20
122.8096334362301
 30
0.0
 10
298.2595292087467
 20
120.3599444618262
 30
0.0
 10
298.6991018608179
 20
118.2147050350079
 30
0.0
 10
299.02823767074
 20
116.1121417285132
 30
0.0
 10
299.265669345214
 20
113.9344430426698
 30
0.0
 10
299.549997381981
 20
111.2981375521993
 30
0.0
 10
299.6963924082574
 20
108.7239191419271
 30
0.0
 10
299.7122829111831
 20
106.0678581820334
 30
0.0
 10
299.7140485226193
 20
105.8607756455997
 30
0.0
 10
299.7147375417163
 20
105.6670966837883
 30
0.0
 10
299.7147375417163
 20
105.4642559211708
 30
0.0
 10
299.7147375417163
 20
102.6660201769702
 30
0.0
 10
299.5711631873685
 20
99.95315820526345
 30
0.0
 10
299.2755309310405
 20
97.17009164712132
 30
0.0
 10
298.9336913315166
 20
93.93935646251776
 30
0.0
 10
298.3967732001404
 20
90.83526083476732
 30
0.0
 10
297.6337060820043
 20
87.67896662745362
 30
0.0
 10
296.7919831275707
 20
84.18611350603951
 30
0.0
 10
295.7174147820277
 20
80.87529061732729
 30
0.0
 10
294.3482907724958
 20
77.5556558203192
 30
0.0
 10
291.819935195871
 20
71.41484847932511
 30
0.0
 10
288.5397951888243
 20
65.93868080186114
 30
0.0
 10
284.3198761970949
 20
60.81246484719652
 30
0.0
 10
281.9689645698073
 20
57.96201975750928
 30
0.0
 10
279.4709473652994
 20
55.39379796656604
 30
0.0
 10
276.6843603502082
 20
52.96386446158543
 30
0.0
 10
274.3345037834129
 20
50.9177522743935
 30
0.0
 10
271.9289012652969
 20
49.08366418247193
 30
0.0
 10
269.3317514382009
 20
47.35858106488833
 30
0.0
 10
266.7317809391764
 20
45.63525817577922
 30
0.0
 10
264.1099340838206
 20
44.11584725866505
 30
0.0
 10
261.3184162758162
 20
42.71531905060046
 30
0.0
 10
258.7717155657324
 20
41.44038072185833
 30
0.0
 10
256.2384076643475
 20
40.32524906845737
 30
0.0
 10
253.575284258709
 20
39.30819228567127
 30
0.0
 10
250.9746247405875
 20
38.31724017562848
 30
0.0
 10
248.4060476741724
 20
37.46528151953044
 30
0.0
 10
245.7263447465111
 20
36.70398539579227
 30
0.0
 10
242.9355159576038
 20
35.91411651137331
 30
0.0
 10
240.1933706742724
 20
35.25653929358794
 30
0.0
 10
237.3453963640035
 20
34.69456347551826
 30
0.0
 10
234.5556226355885
 20
34.14634650754279
 30
0.0
 10
231.8251260813667
 20
33.70890281682235
 30
0.0
 10
229.0007937388653
 20
33.35718279110596
 30
0.0
 10
226.0554524174445
 20
32.99311694274049
 30
0.0
 10
223.1820705279718
 20
32.73170686539292
 30
0.0
 10
220.2187501144874
 20
32.5584939239486
 30
0.0
 10
217.208834784565
 20
32.38528098250427
 30
0.0
 10
214.2776183546337
 20
32.30096765346448
 30
0.0
 10
211.259607050321
 20
32.30096765346448
 30
0.0
  0
SPLINE
  5
7E
330
79
100
AcDbEntity
  8
レイヤー 1
 62
   140
370
    18
100
AcDbSpline
210
0.0
220
0.0
230
1.0
 70
     9
 71
     3
 72
   458
 73
   454
 74
     0
 42
0.0000000001
 43
0.0000000001
 40
0.0
 40
0.0
 40
0.0
 40
0.0
 40
1.0
 40
1.0
 40
1.0
 40
2.0
 40
2.0
 40
2.0
 40
3.0
 40
3.0
 40
3.0
 40
4.0
 40
4.0
 40
4.0
 40
5.0
 40
5.0
 40
5.0
 40
6.0
 40
6.0
 40
6.0
 40
7.0
 40
7.0
 40
7.0
 40
8.0
 40
8.0
 40
8.0
 40
9.0
 40
9.0
 40
9.0
 40
10.0
 40
10.0
 40
10.0
 40
11.0
 40
11.0
 40
11.0
 40
12.0
 40
12.0
 40
12.0
 40
13.0
 40
13.0
 40
13.0
 40
14.0
 40
14.0
 40
14.0
 40
15.0
 40
15.0
 40
15.0
 40
16.0
 40
16.0
 40
16.0
 40
17.0
 40
17.0
 40
17.0
 40
18.0
 40
18.0
 40
18.0
 40
19.0
 40
19.0
 40
19.0
 40
20.0
 40
20.0
 40
20.0
 40
21.0
 40
21.0
 40
21.0
 40
22.0
 40
22.0
 40
22.0
 40
23.0
 40
23.0
 40
23.0
 40
24.0
 40
24.0
 40
24.0
 40
25.0
 40
25.0
 40
25.0
 40
26.0
 40
26.0
 40
26.0
 40
27.0
 40
27.0
 40
27.0
 40
28.0
 40
28.0
 40
28.0
 40
29.0
 40
29.0
 40
29.0
 40
30.0
 40
30.0
 40
30.0
 40
31.0
 40
31.0
 40
31.0
 40
32.0
 40
32.0
 40
32.0
 40
33.0
 40
33.0
 40
33.0
 40
34.0
 40
34.0
 40
34.0
 40
35.0
 40
35.0
 40
35.0
 40
36.0
 40
36.0
 40
36.0
 40
37.0
 40
37.0
 40
37.0
 40
38.0
 40
38.0
 40
38.0
 40
39.0
 40
39.0
 40
39.0
 40
40.0
 40
40.0
 40
40.0
 40
41.0
 40
41.0
 40
41.0
 40
42.0
 40
42.0
 40
42.0
 40
43.0
 40
43.0
 40
43.0
 40
44.0
 40
44.0
 40
44.0
 40
45.0
 40
45.0
 40
45.0
 40
46.0
 40
46.0
 40
46.0
 40
47.0
 40
47.0
 40
47.0
 40
48.0
 40
48.0
 40
48.0
 40
49.0
 40
49.0
 40
49.0
 40
50.0
 40
50.0
 40
50.0
 40
51.0
 40
51.0
 40
51.0
 40
52.0
 40
52.0
 40
52.0
 40
53.0
 40
53.0
 40
53.0
 40
54.0
 40
54.0
 40
54.0
 40
55.0
 40
55.0
 40
55.0
 40
56.0
 40
56.0
 40
56.0
 40
57.0
 40
57.0
 40
57.0
 40
58.0
 40
58.0
 40
58.0
 40
59.0
 40
59.0
 40
59.0
 40
60.0
 40
60.0
 40
60.0
 40
61.0
 40
61.0
 40
61.0
 40
62.0
 40
62.0
 40
62.0
 40
63.0
 40
63.0
 40
63.0
 40
64.0
 40
64.0
 40
64.0
 40
65.0
 40
65.0
 40
65.0
 40
66.0
 40
66.0
 40
66.0
 40
67.0
 40
67.0
 40
67.0
 40
68.0
 40
68.0
 40
68.0
 40
69.0
 40
69.0
 40
69.0
 40
70.0
 40
70.0
 40
70.0
 40
71.0
 40
71.0
 40
71.0
 40
72.0
 40
72.0
 40
72.0
 40
73.0
 40
73.0
 40
73.0
 40
74.0
 40
74.0
 40
74.0
 40
75.0
 40
75.0
 40
75.0
 40
76.0
 40
76.0
 40
76.0
 40
77.0
 40
77.0
 40
77.0
 40
78.0
 40
78.0
 40
78.0
 40
79.0
 40
79.0
 40
79.0
 40
80.0
 40
80.0
 40
80.0
 40
81.0
 40
81.0
 40
81.0
 40
82.0
 40
82.0
 40
82.0
 40
83.0
 40
83.0
 40
83.0
 40
84.0
 40
84.0
 40
84.0
 40
85.0
 40
85.0
 40
85.0
 40
86.0
 40
86.0
 40
86.0
 40
87.0
 40
87.0
 40
87.0
 40
88.0
 40
88.0
 40
88.0
 40
89.0
 40
89.0
 40
89.0
 40
90.0
 40
90.0
 40
90.0
 40
91.0
 40
91.0
 40
91.0
 40
92.0
 40
92.0
 40
92.0
 40
93.0
 40
93.0
 40
93.0
 40
94.0
 40
94.0
 40
94.0
 40
95.0
 40
95.0
 40
95.0
 40
96.0
 40
96.0
 40
96.0
 40
97.0
 40
97.0
 40
97.0
 40
98.0
 40
98.0
 40
98.0
 40
99.0
 40
99.0
 40
99.0
 40
100.0
 40
100.0
 40
100.0
 40
101.0
 40
101.0
 40
101.0
 40
102.0
 40
102.0
 40
102.0
 40
103.0
 40
103.0
 40
103.0
 40
104.0
 40
104.0
 40
104.0
 40
105.0
 40
105.0
 40
105.0
 40
106.0
 40
106.0
 40
106.0
 40
107.0
 40
107.0
 40
107.0
 40
108.0
 40
108.0
 40
108.0
 40
109.0
 40
109.0
 40
109.0
 40
110.0
 40
110.0
 40
110.0
 40
111.0
 40
111.0
 40
111.0
 40
112.0
 40
112.0
 40
112.0
 40
113.0
 40
113.0
 40
113.0
 40
114.0
 40
114.0
 40
114.0
 40
115.0
 40
115.0
 40
115.0
 40
116.0
 40
116.0
 40
116.0
 40
117.0
 40
117.0
 40
117.0
 40
118.0
 40
118.0
 40
118.0
 40
119.0
 40
119.0
 40
119.0
 40
120.0
 40
120.0
 40
120.0
 40
121.0
 40
121.0
 40
121.0
 40
122.0
 40
122.0
 40
122.0
 40
123.0
 40
123.0
 40
123.0
 40
124.0
 40
124.0
 40
124.0
 40
125.0
 40
125.0
 40
125.0
 40
126.0
 40
126.0
 40
126.0
 40
127.0
 40
127.0
 40
127.0
 40
128.0
 40
128.0
 40
128.0
 40
129.0
 40
129.0
 40
129.0
 40
130.0
 40
130.0
 40
130.0
 40
131.0
 40
131.0
 40
131.0
 40
132.0
 40
132.0
 40
132.0
 40
133.0
 40
133.0
 40
133.0
 40
134.0
 40
134.0
 40
134.0
 40
135.0
 40
135.0
 40
135.0
 40
136.0
 40
136.0
 40
136.0
 40
137.0
 40
137.0
 40
137.0
 40
138.0
 40
138.0
 40
138.0
 40
139.0
 40
139.0
 40
139.0
 40
140.0
 40
140.0
 40
140.0
 40
141.0
 40
141.0
 40
141.0
 40
142.0
 40
142.0
 40
142.0
 40
143.0
 40
143.0
 40
143.0
 40
144.0
 40
144.0
 40
144.0
 40
145.0
 40
145.0
 40
145.0
 40
146.0
 40
146.0
 40
146.0
 40
147.0
 40
147.0
 40
147.0
 40
148.0
 40
148.0
 40
148.0
 40
149.0
 40
149.0
 40
149.0
 40
150.0
 40
150.0
 40
150.0
 40
151.0
 40
151.0
 40
151.0
 40
151.0
 10
211.259607050321
 20
26.2009120239877
 30
0.0
 10
210.2636945410756
 20
26.2009120239877
 30
0.0
 10
209.2921560823883
 20
26.20972931524526
 30
0.0
 10
208.289202659245
 20
26.22807444870421
 30
0.0
 10
205.1805207481298
 20
26.28275457360917
 30
0.0
 10
202.1593442623399
 20
26.42527655894544
 30
0.0
 10
199.0566697364771
 20
26.66269746749611
 30
0.0
 10
195.5775754651572
 20
26.9272808007633
 30
0.0
 10
192.2057097908157
 20
27.30510549922299
 30
0.0
 10
188.7513125477557
 20
27.81733736826268
 30
0.0
 10
185.1416922212384
 20
28.35073773417073
 30
0.0
 10
181.6576671570053
 20
29.00902281141908
 30
0.0
 10
178.1030822308648
 20
29.82923006795502
 30
0.0
 10
174.1505564784079
 20
30.73869221236741
 30
0.0
 10
170.3557299717882
 20
31.80443250072945
 30
0.0
 10
166.5051575138479
 20
33.08678047624572
 30
0.0
 10
162.524769551654
 20
34.41004972657273
 30
0.0
 10
158.7292324940905
 20
35.89594901565031
 30
0.0
 10
154.9054671853947
 20
37.62914694799018
 30
0.0
 10
150.5091593048206
 20
39.6195185668231
 30
0.0
 10
146.3721271572817
 20
41.81626755410756
 30
0.0
 10
142.2605025889466
 20
44.3442732382222
 30
0.0
 10
134.0471365699496
 20
49.38934642828581
 30
0.0
 10
126.8222438071345
 20
55.23699229237022
 30
0.0
 10
120.1759117673735
 20
62.21952258779799
 30
0.0
 10
116.3147564067394
 20
66.26588412853443
 30
0.0
 10
114.1853967169235
 20
71.5804768277402
 30
0.0
 10
114.1853967169235
 20
77.17870854461591
 30
0.0
 10
114.1853967169235
 20
81.85407454245696
 30
0.0
 10
115.6554189604796
 20
86.31248026915267
 30
0.0
 10
118.4363646317136
 20
90.07097178432633
 30
0.0
 10
118.4363646317136
 20
90.07097178432633
 30
0.0
 10
132.4338844815942
 20
108.9766814913105
 30
0.0
 10
132.4338844815942
 20
108.9766814913105
 30
0.0
 10
135.6205224439865
 20
113.1983768603994
 30
0.0
 10
140.2330854277238
 20
116.1024416315375
 30
0.0
 10
145.4217437380586
 20
117.1537232847849
 30
0.0
 10
146.853320869184
 20
117.4451137672967
 30
0.0
 10
148.2626663685061
 20
117.5865780006598
 30
0.0
 10
149.7274025436771
 20
117.5865780006598
 30
0.0
 10
155.510135272673
 20
117.5865780006598
 30
0.0
 10
161.1464622094692
 20
115.2166214548927
 30
0.0
 10
165.1914134142414
 20
111.0834758056981
 30
0.0
 10
167.2516343440378
 20
108.955515685923
 30
0.0
 10
169.3570075565377
 20
107.0420558237983
 30
0.0
 10
171.6511289379357
 20
105.2100724698997
 30
0.0
 10
174.8148354835044
 20
102.6803065573106
 30
0.0
 10
178.084026546462
 20
100.5170772725053
 30
0.0
 10
181.6481285488805
 20
98.59478935319962
 30
0.0
 10
185.4694284611196
 20
96.53139247600279
 30
0.0
 10
189.3432876113556
 20
94.91742983670359
 30
0.0
 10
193.4940678430653
 20
93.65836586200208
 30
0.0
 10
197.4028301169362
 20
92.47444803257257
 30
0.0
 10
201.2787993881569
 20
91.69022587497241
 30
0.0
 10
205.3403301149518
 20
91.26089161604655
 30
0.0
 10
207.7328843339175
 20
91.01006713287357
 30
0.0
 10
210.0693265601671
 20
90.88800309346181
 30
0.0
 10
212.4788048107041
 20
90.88800309346181
 30
0.0
 10
213.0030191524784
 20
90.88800309346181
 30
0.0
 10
213.5029025073882
 20
90.89329992777038
 30
0.0
 10
214.0274828905578
 20
90.90529316642841
 30
0.0
 10
215.5335063819348
 20
90.93563153854539
 30
0.0
 10
216.9827073296519
 20
91.0164190276745
 30
0.0
 10
218.4724958085547
 20
91.15188664170856
 30
0.0
 10
219.9005309508843
 20
91.27888147403359
 30
0.0
 10
221.2710760623038
 20
91.46126698220738
 30
0.0
 10
222.6751247273174
 20
91.71032585394417
 30
0.0
 10
223.8699915008359
 20
91.91987378683448
 30
0.0
 10
225.0098228739776
 20
92.17635037978794
 30
0.0
 10
226.1715090716038
 20
92.49666889845244
 30
0.0
 10
227.1875107938976
 20
92.77431129679341
 30
0.0
 10
228.1463669948298
 20
93.09321947949362
 30
0.0
 10
229.1161398420808
 20
93.47562507835636
 30
0.0
 10
229.9603389588945
 20
93.80618199016607
 30
0.0
 10
230.7438613314742
 20
94.17095300651368
 30
0.0
 10
231.5263286435616
 20
94.59640076709526
 30
0.0
 10
232.1567380536687
 20
94.93718530612682
 30
0.0
 10
232.7324781047943
 20
95.30019071103824
 30
0.0
 10
233.3025552802161
 20
95.71506633484945
 30
0.0
 10
233.7724663044041
 20
96.05514032293719
 30
0.0
 10
234.1915621701847
 20
96.40579721371866
 30
0.0
 10
234.5993753482512
 20
96.79879648119852
 30
0.0
 10
234.993774185772
 20
97.17697107216844
 30
0.0
 10
235.336690377635
 20
97.56608384130402
 30
0.0
 10
235.6562875794323
 20
97.99753898713799
 30
0.0
 10
236.2422552577797
 20
98.78387126572288
 30
0.0
 10
236.669124120249
 20
99.6517123503041
 30
0.0
 10
236.93194184208
 20
100.5872710930172
 30
0.0
 10
237.1344273292255
 20
101.3147030047277
 30
0.0
 10
237.230739279885
 20
102.0160275522141
 30
0.0
 10
237.230739279885
 20
102.7808495158629
 30
0.0
 10
237.230739279885
 20
102.9427690036697
 30
0.0
 10
237.2261529965203
 20
103.0934058037622
 30
0.0
 10
237.2169804297908
 20
103.2546255065485
 30
0.0
 10
237.2169804297908
 20
103.2546255065485
 30
0.0
 10
237.2141597578623
 20
103.3033090121245
 30
0.0
 10
237.2141597578623
 20
103.3033090121245
 30
0.0
 10
237.2014559682604
 20
103.5611959410422
 30
0.0
 10
237.1690074751587
 20
103.816251432108
 30
0.0
 10
237.115737686218
 20
104.0840107127756
 30
0.0
 10
237.115737686218
 20
104.0840107127756
 30
0.0
 10
237.1055100589962
 20
104.136225441224
 30
0.0
 10
237.1055100589962
 20
104.136225441224
 30
0.0
 10
237.0561160024764
 20
104.3976328270907
 30
0.0
 10
236.9562943607913
 20
104.6519777672126
 30
0.0
 10
236.8098778026682
 20
104.8932851741076
 30
0.0
 10
236.6927660880165
 20
105.0770810182457
 30
0.0
 10
236.5791640643904
 20
105.229827939323
 30
0.0
 10
236.4443962353767
 20
105.3854062982521
 30
0.0
 10
236.2687178974758
 20
105.5850818793925
 30
0.0
 10
236.0789146680853
 20
105.7801604112448
 30
0.0
 10
235.8679671651541
 20
105.9745499240001
 30
0.0
 10
235.5910245518336
 20
106.2285503545735
 30
0.0
 10
235.3095171869951
 20
106.4631398252722
 30
0.0
 10
234.9965948577005
 20
106.6998609488024
 30
0.0
 10
234.5827958262284
 20
107.0117174516813
 30
0.0
 10
234.1601687375754
 20
107.3041629946855
 30
0.0
 10
233.7138996811549
 20
107.5867361859397
 30
0.0
 10
233.1095868693485
 20
107.9677422147615
 30
0.0
 10
232.4992882041365
 20
108.3215750529435
 30
0.0
 10
231.8600507368484
 20
108.6605939805388
 30
0.0
 10
230.9558854267446
 20
109.1375459186249
 30
0.0
 10
230.0531196866816
 20
109.574287132844
 30
0.0
 10
229.110864539619
 20
109.9895072662038
 30
0.0
 10
228.0108886148723
 20
110.4738769255065
 30
0.0
 10
226.9278797853905
 20
110.9159042081109
 30
0.0
 10
225.8018072623429
 20
111.3402969082001
 30
0.0
 10
224.5406224007334
 20
111.8147834498295
 30
0.0
 10
223.2995482840189
 20
112.2532795095614
 30
0.0
 10
222.0112117636162
 20
112.6794378210869
 30
0.0
 10
220.4272429868854
 20
113.200842256856
 30
0.0
 10
218.8785433751849
 20
113.6838015801945
 30
0.0
 10
217.2832703788932
 20
114.1533465629873
 30
0.0
 10
215.5712517093451
 20
114.6560505898255
 30
0.0
 10
213.8906049405595
 20
115.1312476823988
 30
0.0
 10
212.1489584498382
 20
115.6050236730844
 30
0.0
 10
209.9451523997707
 20
116.2029845900899
 30
0.0
 10
207.7921399762638
 20
116.773072531435
 30
0.0
 10
205.5710653850764
 20
117.3474022465963
 30
0.0
 10
203.7207261317955
 20
117.8250539697028
 30
0.0
 10
201.9586028547838
 20
118.2843713252737
 30
0.0
 10
200.1104167861812
 20
118.7705065960127
 30
0.0
 10
198.0078534796864
 20
119.3197840074422
 30
0.0
 10
195.9645673473847
 20
119.8623542485989
 30
0.0
 10
193.8729422190556
 20
120.4271453556354
 30
0.0
 10
192.4212651089585
 20
120.8176684607352
 30
0.0
 10
190.9942850271212
 20
121.2106677282151
 30
0.0
 10
189.5136691149479
 20
121.627653473011
 30
0.0
 10
186.9510994337852
 20
122.3466126030125
 30
0.0
 10
184.4647094265401
 20
123.0821512550367
 30
0.0
 10
181.9190637769486
 20
123.8748461943459
 30
0.0
 10
179.6027322955941
 20
124.5941605998193
 30
0.0
 10
177.3640123559682
 20
125.3353405957007
 30
0.0
 10
175.0780084808073
 20
126.1393289886474
 30
0.0
 10
173.2813158237858
 20
126.7697383987546
 30
0.0
 10
171.541058137182
 20
127.416382821336
 30
0.0
 10
169.7616447872037
 20
128.1148866968938
 30
0.0
 10
168.0030527330643
 20
128.8038519643268
 30
0.0
 10
166.3058372081794
 20
129.5108178556702
 30
0.0
 10
164.5761731901927
 20
130.2749400342987
 30
0.0
 10
162.5896773037807
 20
131.1508878591936
 30
0.0
 10
160.6825585705336
 20
132.0582291166979
 30
0.0
 10
158.750043024006
 20
133.0470684142751
 30
0.0
 10
156.4901465130693
 20
134.2003033620391
 30
0.0
 10
154.3364450704654
 20
135.4096180047489
 30
0.0
 10
152.1714394083004
 20
136.7413519623424
 30
0.0
 10
150.1242775435779
 20
137.9983058160592
 30
0.0
 10
148.188230774178
 20
139.3078189077729
 30
0.0
 10
146.2571255636147
 20
140.7411508844111
 30
0.0
 10
144.0945960638298
 20
142.3424097341084
 30
0.0
 10
142.0812930281732
 20
144.0138731702411
 30
0.0
 10
140.1075009313631
 20
145.8472560941805
 30
0.0
 10
138.0917324992498
 20
147.7166295000174
 30
0.0
 10
136.2502320690733
 20
149.6519657184735
 30
0.0
 10
134.4806910708449
 20
151.7615807047896
 30
0.0
 10
130.6188359251903
 20
156.358274717448
 30
0.0
 10
127.5761275926177
 20
161.2724665768423
 30
0.0
 10
125.1814740185907
 20
166.7817986813134
 30
0.0
 10
124.0487050911938
 20
169.3965830909245
 30
0.0
 10
123.1226634247586
 20
171.9954985294566
 30
0.0
 10
122.3476138338879
 20
174.7341125899156
 30
0.0
 10
121.7630564915047
 20
176.8052716978777
 30
0.0
 10
121.291035346332
 20
178.8383302029575
 30
0.0
 10
120.9036881886326
 20
180.9532312576588
 30
0.0
 10
120.5632589250729
 20
182.8176523387357
 30
0.0
 10
120.3032618751705
 20
184.6365766275605
 30
0.0
 10
120.1088831283386
 20
186.5175987625069
 30
0.0
 10
119.8245443256482
 20
189.2696056316648
 30
0.0
 10
119.6866113151575
 20
191.9524737408031
 30
0.0
 10
119.6866113151575
 20
194.7203711128867
 30
0.0
 10
119.6866113151575
 20
195.0558803494565
 30
0.0
 10
119.6887214361423
 20
195.3751330417053
 30
0.0
 10
119.6929632099585
 20
195.7102762368797
 30
0.0
 10
119.7278878654402
 20
198.9403116364628
 30
0.0
 10
119.9698950573556
 20
202.0701593529655
 30
0.0
 10
120.4316778093832
 20
205.2716004600211
 30
0.0
 10
121.1700371333359
 20
210.4165060576932
 30
0.0
 10
122.428401323017
 20
215.2834355133992
 30
0.0
 10
124.2773087084868
 20
220.1457786857405
 30
0.0
 10
126.0768220374369
 20
224.8719329271805
 30
0.0
 10
128.2950867226191
 20
229.2241651173902
 30
0.0
 10
131.0594528718304
 20
233.4536011853975
 30
0.0
 10
133.1454366563024
 20
236.6413049742056
 30
0.0
 10
135.3996810574586
 20
239.5608942068741
 30
0.0
 10
137.9527336623434
 20
242.3824058774469
 30
0.0
 10
140.2990590062664
 20
244.9714597301525
 30
0.0
 10
142.7371100174841
 20
247.3191846441164
 30
0.0
 10
145.4086954389082
 20
249.5628461425789
 30
0.0
 10
148.2672526518709
 20
251.9592760939655
 30
0.0
 10
151.1871971600114
 20
254.0868809382686
 30
0.0
 10
154.3396102519424
 20
256.0702008772802
 30
0.0
 10
157.2038195746856
 20
257.8700694817022
 30
0.0
 10
160.0775459737067
 20
259.4536937488844
 30
0.0
 10
163.1276612615726
 20
260.9131223238234
 30
0.0
 10
166.2317568893231
 20
262.3955038474328
 30
0.0
 10
169.3153864967065
 20
263.6683159063052
 30
0.0
 10
172.5588254709119
 20
264.8053266075183
 30
0.0
 10
175.9035071886901
 20
265.9751303113817
 30
0.0
 10
179.2016262878005
 20
266.9406829166633
 30
0.0
 10
182.6461511791106
 20
267.7587854351762
 30
0.0
 10
186.198259942871
 20
268.599797838666
 30
0.0
 10
189.6784092746832
 20
269.2450211593597
 30
0.0
 10
193.2897952126367
 20
269.732566766063
 30
0.0
 10
196.0520512408633
 20
270.1036896772115
 30
0.0
 10
198.7444579581264
 20
270.3707491728587
 30
0.0
 10
201.5243485688681
 20
270.5485376317444
 30
0.0
 10
203.8410245597711
 20
270.6970643108522
 30
0.0
 10
206.0973898478354
 20
270.7775072904328
 30
0.0
 10
208.4218603672739
 20
270.7951418729479
 30
0.0
 10
208.8134385328661
 20
270.7979625448765
 30
0.0
 10
209.1859610140555
 20
270.7997281563127
 30
0.0
 10
209.5768501605506
 20
270.7997281563127
 30
0.0
 10
212.9412873477521
 20
270.7997281563127
 30
0.0
 10
216.2069579537607
 20
270.6938991293752
 30
0.0
 10
219.5604569627966
 20
270.4765781997962
 30
0.0
 10
223.1351526338321
 20
270.2476300729546
 30
0.0
 10
226.6015431155501
 20
269.8944862538697
 30
0.0
 10
230.152618350665
 20
269.39707906134
 30
0.0
 10
233.8585506278418
 20
268.8799056334636
 30
0.0
 10
237.4371220312983
 20
268.2233780932089
 30
0.0
 10
241.0890739685906
 20
267.3904831959562
 30
0.0
 10
244.654963114292
 20
266.5794431231881
 30
0.0
 10
248.0818426571636
 20
265.635056323294
 30
0.0
 10
251.5627025399197
 20
264.504763558277
 30
0.0
 10
255.2721445081221
 20
263.3024898294652
 30
0.0
 10
258.8119370555227
 20
261.951344911997
 30
0.0
 10
262.3816804017983
 20
260.3754936415033
 30
0.0
 10
266.3091538505234
 20
258.6440532461571
 30
0.0
 10
270.0179067996288
 20
256.74188683767
 30
0.0
 10
273.7164321215123
 20
254.56172275537
 30
0.0
 10
281.0725507245452
 20
250.2236154566499
 30
0.0
 10
287.6338642672843
 20
245.2321457991521
 30
0.0
 10
293.776447985638
 20
239.3008971569717
 30
0.0
 10
297.9942568563826
 20
235.2428976530491
 30
0.0
 10
300.4178384665622
 20
229.5501142139883
 30
0.0
 10
300.4178384665622
 20
223.6894254337152
 30
0.0
 10
300.4178384665622
 20
218.7953443192161
 30
0.0
 10
298.8218549193267
 20
214.1725429423336
 30
0.0
 10
295.8031545959169
 20
210.3212706993728
 30
0.0
 10
295.8031545959169
 20
210.3212706993728
 30
0.0
 10
281.7498995606389
 20
192.390280781438
 30
0.0
 10
281.7498995606389
 20
192.390280781438
 30
0.0
 10
278.9244906257984
 20
188.7841916777931
 30
0.0
 10
275.1035567549546
 20
186.2060975350999
 30
0.0
 10
270.7005309381843
 20
184.9357401067608
 30
0.0
 10
268.7214527729889
 20
184.3638757880562
 30
0.0
 10
266.7557674164925
 20
184.0855336046947
 30
0.0
 10
264.6941361507319
 20
184.0855336046947
 30
0.0
 10
259.0578092139356
 20
184.0855336046947
 30
0.0
 10
253.7195691640007
 20
186.2410221905816
 30
0.0
 10
249.6629907619658
 20
190.1550812987611
 30
0.0
 10
249.6629907619658
 20
190.1550812987611
 30
0.0
 10
249.6361836127212
 20
190.1815439384572
 30
0.0
 10
249.6361836127212
 20
190.1815439384572
 30
0.0
 10
246.5447917745726
 20
193.2013208542062
 30
0.0
 10
243.2237412586385
 20
195.7339182046472
 30
0.0
 10
239.483573345077
 20
197.9232548536767
 30
0.0
 10
237.0748271773307
 20
199.3297796810703
 30
0.0
 10
234.63994134759
 20
200.5186390693365
 30
0.0
 10
232.0449016414788
 20
201.5543854951301
 30
0.0
 10
229.8245376012353
 20
202.4391506112826
 30
0.0
 10
227.6210760607163
 20
203.1711688063578
 30
0.0
 10
225.3117854932598
 20
203.7906400382993
 30
0.0
 10
222.6306829955576
 20
204.5074998132395
 30
0.0
 10
219.9869597838704
 20
205.0415972726871
 30
0.0
 10
217.2356419338096
 20
205.4226033015089
 30
0.0
 10
214.2903006123888
 20
205.8279403171954
 30
0.0
 10
211.410588359962
 20
206.0501920396875
 30
0.0
 10
208.4366742778605
 20
206.1009856662482
 30
0.0
 10
208.0235642654855
 20
206.1087586629368
 30
0.0
 10
207.6372829342018
 20
206.1122683539624
 30
0.0
 10
207.2322904280639
 20
206.1122683539624
 30
0.0
 10
206.927830114555
 20
206.1122683539624
 30
0.0
 10
206.6378607339308
 20
206.110524274373
 30
0.0
 10
206.3334004204218
 20
206.1059379910083
 30
0.0
 10
205.0687058677866
 20
206.0886479180417
 30
0.0
 10
203.8459768845311
 20
206.014556833262
 30
0.0
 10
202.591488427271
 20
205.8794444946999
 30
0.0
 10
201.5603282848422
 20
205.77008424489
 30
0.0
 10
200.5739543837215
 20
205.6194474447974
 30
0.0
 10
199.5639600466802
 20
205.4180170181442
 30
0.0
 10
198.6636704689973
 20
205.2402070274117
 30
0.0
 10
197.8064230530332
 20
205.026438852552
 30
0.0
 10
196.9325961150464
 20
204.7629105797772
 30
0.0
 10
196.1670528345303
 20
204.5335964115402
 30
0.0
 10
195.4452837985236
 20
204.2750204635254
 30
0.0
 10
194.7143206639408
 20
203.9691605799756
 30
0.0
 10
194.0842557633821
 20
203.7070318772417
 30
0.0
 10
193.4989986359785
 20
203.4234143914185
 30
0.0
 10
192.9112653461949
 20
203.0960226610858
 30
0.0
 10
192.4149132141575
 20
202.8212117005968
 30
0.0
 10
191.9619477533876
 20
202.5319313390697
 30
0.0
 10
191.5135685759823
 20
202.2052716915277
 30
0.0
 10
191.1396249929052
 20
201.9350470144034
 30
0.0
 10
190.8080130206031
 20
201.6588149520267
 30
0.0
 10
190.4830974526505
 20
201.3501343965483
 30
0.0
 10
190.1684310437665
 20
201.053447079728
 30
0.0
 10
189.9013715481192
 20
200.7528840304867
 30
0.0
 10
189.6498365140025
 20
200.4173963257637
 30
0.0
 10
189.1545394424574
 20
199.760868785509
 30
0.0
 10
188.845858886979
 20
199.0648303064078
 30
0.0
 10
188.6934564754503
 20
198.2725014084939
 30
0.0
 10
188.6130350277165
 20
197.84352242504
 30
0.0
 10
188.5731580474748
 20
197.4222949064278
 30
0.0
 10
188.5731580474748
 20
196.9700399966017
 30
0.0
 10
188.5731580474748
 20
196.9700399966017
 30
0.0
 10
188.5735240888701
 20
196.907253131383
 30
0.0
 10
188.5735240888701
 20
196.907253131383
 30
0.0
 10
188.643717909382
 20
196.8310519256186
 30
0.0
 10
188.7184980132587
 20
196.7562502898951
 30
0.0
 10
188.8007066042755
 20
196.680415125526
 30
0.0
 10
189.0204821643877
 20
196.4789846988729
 30
0.0
 10
189.242023335936
 20
196.294478303791
 30
0.0
 10
189.4872064752519
 20
196.1096273991605
 30
0.0
 10
189.7814176296922
 20
195.8887752467092
 30
0.0
 10
190.0816361693849
 20
195.6795718233674
 30
0.0
 10
190.3952690496234
 20
195.4774308457704
 30
0.0
 10
190.8588066471638
 20
195.180054509853
 30
0.0
 10
191.3276626108595
 20
194.9024228774354
 30
0.0
 10
191.8176628480959
 20
194.6349973403929
 30
0.0
 10
192.517577059618
 20
194.2547018625149
 30
0.0
 10
193.2164146788009
 20
193.9036896962615
 30
0.0
 10
193.9477223229323
 20
193.5660918705538
 30
0.0
 10
195.0201805474906
 20
193.0743260218811
 30
0.0
 10
196.0897965682735
 20
192.6238151916444
 30
0.0
 10
197.2031653017192
 20
192.1952022495857
 30
0.0
 10
198.3620308274169
 20
191.749643744109
 30
0.0
 10
199.5011516496147
 20
191.339009894114
 30
0.0
 10
200.6819150634906
 20
190.9410798337209
 30
0.0
 10
201.9282644826668
 20
190.5223284774887
 30
0.0
 10
203.1552352397385
 20
190.1300397609527
 30
0.0
 10
204.4284133400062
 20
189.7437368978223
 30
0.0
 10
205.6768944120139
 20
189.3659175823243
 30
0.0
 10
206.8978577838333
 20
189.0096085817623
 30
0.0
 10
208.1551453811752
 20
188.6564862945242
 30
0.0
 10
210.0996649322841
 20
188.112139676008
 30
0.0
 10
212.0014868312227
 20
187.598497471004
 30
0.0
 10
213.9622198629591
 20
187.0883864888724
 30
0.0
 10
216.2288343100921
 20
186.4985430781041
 30
0.0
 10
218.4411023759453
 20
185.9326861446518
 30
0.0
 10
220.7242748132543
 20
185.3580011540186
 30
0.0
 10
220.7242748132543
 20
185.3580011540186
 30
0.0
 10
220.8950223582419
 20
185.3139039318073
 30
0.0
 10
220.8950223582419
 20
185.3139039318073
 30
0.0
 10
223.042371906045
 20
184.7441712659342
 30
0.0
 10
225.0715546787039
 20
184.2009012397571
 30
0.0
 10
227.1991595230071
 20
183.6248166790829
 30
0.0
 10
229.2780808617343
 20
183.0628354780515
 30
0.0
 10
231.2956149052837
 20
182.5026198884564
 30
0.0
 10
233.3653636772815
 20
181.912776477688
 30
0.0
 10
235.6485361145905
 20
181.2640219341219
 30
0.0
 10
237.8608041804437
 20
180.6064500992982
 30
0.0
 10
240.1228108123651
 20
179.9040704913196
 30
0.0
 10
242.4853711687624
 20
179.1734626322086
 30
0.0
 10
244.7727853798876
 20
178.4223995186539
 30
0.0
 10
247.1081725456448
 20
177.6106596608653
 30
0.0
 10
249.2057835273796
 20
176.8832385150782
 30
0.0
 10
251.2324901376584
 20
176.1349960734521
 30
0.0
 10
253.30047329822
 20
175.3250110611763
 30
0.0
 10
255.3755189045264
 20
174.5136264788596
 30
0.0
 10
257.3771839769969
 20
173.675068705903
 30
0.0
 10
259.4155393163853
 20
172.7624413800136
 30
0.0
 10
261.6369799489679
 20
171.7704261350359
 30
0.0
 10
263.768460525692
 20
170.736789830227
 30
0.0
 10
265.9274588026045
 20
169.6050759633225
 30
0.0
 10
268.2233350295153
 20
168.4038680609264
 30
0.0
 10
270.4098510066163
 20
167.1472694826815
 30
0.0
 10
272.6069391204876
 20
165.7657969590197
 30
0.0
 10
274.5479274487241
 20
164.5476542591289
 30
0.0
 10
276.3869624824441
 20
163.2868246729912
 30
0.0
 10
278.2252869652201
 20
161.9138141651151
 30
0.0
 10
280.288683842417
 20
160.3760527315802
 30
0.0
 10
282.2190785020364
 20
158.7793801652476
 30
0.0
 10
284.1205558914264
 20
157.0370123576591
 30
0.0
 10
286.3430515845015
 20
155.0032540675589
 30
0.0
 10
288.3687031342881
 20
152.8915181943346
 30
0.0
 10
290.309346952976
 20
150.5840040042377
 30
0.0
 10
293.504802206626
 20
146.7884669466742
 30
0.0
 10
296.1538007207749
 20
142.7921992474779
 30
0.0
 10
298.4055797254746
 20
138.368362900792
 30
0.0
 10
299.8840855166631
 20
135.4579462348529
 30
0.0
 10
301.1015176656101
 20
132.5418882250568
 30
0.0
 10
302.1295126265619
 20
129.4494413264158
 30
0.0
 10
302.9931119373268
 20
126.845584329047
 30
0.0
 10
303.6810329101909
 20
124.2759522021395
 30
0.0
 10
304.2341860540413
 20
121.5899081456008
 30
0.0
 10
304.7136141545073
 20
119.2502792060272
 30
0.0
 10
305.0716887665055
 20
116.9639308213178
 30
0.0
 10
305.3299202049718
 20
114.5953738455916
 30
0.0
 10
305.6371796585625
 20
111.7438683124503
 30
0.0
 10
305.7948789043998
 20
108.9689192605453
 30
0.0
 10
305.8121689773664
 20
106.1050759791974
 30
0.0
 10
305.8139345888026
 20
105.8905864874705
 30
0.0
 10
305.8146236078997
 20
105.6824488905444
 30
0.0
 10
305.8146236078997
 20
105.4640729004732
 30
0.0
 10
305.8146236078997
 20
102.4492375435609
 30
0.0
 10
305.6597665658377
 20
99.52577257847144
 30
0.0
 10
305.3415474022345
 20
96.52609564169422
 30
0.0
 10
304.9715010834251
 20
93.02795645189492
 30
0.0
 10
304.3897536470471
 20
89.66421904971394
 30
0.0
 10
303.5628446032
 20
86.24545163011779
 30
0.0
 10
302.6477411149305
 20
82.44850423659002
 30
0.0
 10
301.4779374110672
 20
78.8441753614196
 30
0.0
 10
299.9878044226159
 20
75.22996336857587
 30
0.0
 10
297.2258929039379
 20
68.52224941659883
 30
0.0
 10
293.640625096132
 20
62.53702043453394
 30
0.0
 10
289.0294509165122
 20
56.93561815321944
 30
0.0
 10
286.4594742800562
 20
53.81952928681096
 30
0.0
 10
283.7339085187475
 20
51.01776770269967
 30
0.0
 10
280.6933318390063
 20
48.36629302617069
 30
0.0
 10
278.1378030717416
 20
46.14096589524373
 30
0.0
 10
275.5261838436076
 20
44.15024438390059
 30
0.0
 10
272.7067822940195
 20
42.27734782963384
 30
0.0
 10
269.8947876997246
 20
40.41362115061573
 30
0.0
 10
267.0662135834071
 20
38.77426438951705
 30
0.0
 10
264.0534991134029
 20
37.26296290419745
 30
0.0
 10
261.3184162758162
 20
35.89348092771283
 30
0.0
 10
258.6044992436171
 20
34.69897481262788
 30
0.0
 10
255.7519386499834
 20
33.60959793946002
 30
0.0
 10
252.9769788321551
 20
32.55232235836447
 30
0.0
 10
250.2443721569485
 20
31.64603616135254
 30
0.0
 10
247.3925005824118
 20
30.83605922351928
 30
0.0
 10
244.4365871242207
 20
29.9996223374708
 30
0.0
 10
241.5381636969397
 20
29.30429710079432
 30
0.0
 10
238.5265042874279
 20
28.70986740666124
 30
0.0
 10
235.5910245518336
 20
28.1334275705152
 30
0.0
 10
232.7233055380649
 20
27.6737576309532
 30
0.0
 10
229.7543222488766
 20
27.30404774724978
 30
0.0
 10
226.6717584679089
 20
26.92269451739856
 30
0.0
 10
223.6706711951674
 20
26.6499963693751
 30
0.0
 10
220.5746930736541
 20
26.46902119716557
 30
0.0
 10
217.4399145642381
 20
26.28875119293818
 30
0.0
 10
214.3943855597369
 20
26.2009120239877
 30
0.0
 10
211.259607050321
 20
26.2009120239877
 30
0.0
  0
SPLINE
  5
7F
330
79
100
AcDbEntity
  8
レイヤー 1
 62
     1
370
    18
100
AcDbSpline
210
0.0
220
0.0
230
1.0
 70
     9
 71
     3
 72
   467
 73
   463
 74
     0
 42
0.0000000001
 43
0.0000000001
 40
0.0
 40
0.0
 40
0.0
 40
0.0
 40
1.0
 40
1.0
 40
1.0
 40
2.0
 40
2.0
 40
2.0
 40
3.0
 40
3.0
 40
3.0
 40
4.0
 40
4.0
 40
4.0
 40
5.0
 40
5.0
 40
5.0
 40
6.0
 40
6.0
 40
6.0
 40
7.0
 40
7.0
 40
7.0
 40
8.0
 40
8.0
 40
8.0
 40
9.0
 40
9.0
 40
9.0
 40
10.0
 40
10.0
 40
10.0
 40
11.0
 40
11.0
 40
11.0
 40
12.0
 40
12.0
 40
12.0
 40
13.0
 40
13.0
 40
13.0
 40
14.0
 40
14.0
 40
14.0
 40
15.0
 40
15.0
 40
15.0
 40
16.0
 40
16.0
 40
16.0
 40
17.0
 40
17.0
 40
17.0
 40
18.0
 40
18.0
 40
18.0
 40
19.0
 40
19.0
 40
19.0
 40
20.0
 40
20.0
 40
20.0
 40
21.0
 40
21.0
 40
21.0
 40
22.0
 40
22.0
 40
22.0
 40
23.0
 40
23.0
 40
23.0
 40
24.0
 40
24.0
 40
24.0
 40
25.0
 40
25.0
 40
25.0
 40
26.0
 40
26.0
 40
26.0
 40
27.0
 40
27.0
 40
27.0
 40
28.0
 40
28.0
 40
28.0
 40
29.0
 40
29.0
 40
29.0
 40
30.0
 40
30.0
 40
30.0
 40
31.0
 40
31.0
 40
31.0
 40
32.0
 40
32.0
 40
32.0
 40
33.0
 40
33.0
 40
33.0
 40
34.0
 40
34.0
 40
34.0
 40
35.0
 40
35.0
 40
35.0
 40
36.0
 40
36.0
 40
36.0
 40
37.0
 40
37.0
 40
37.0
 40
38.0
 40
38.0
 40
38.0
 40
39.0
 40
39.0
 40
39.0
 40
40.0
 40
40.0
 40
40.0
 40
41.0
 40
41.0
 40
41.0
 40
42.0
 40
42.0
 40
42.0
 40
43.0
 40
43.0
 40
43.0
 40
44.0
 40
44.0
 40
44.0
 40
45.0
 40
45.0
 40
45.0
 40
46.0
 40
46.0
 40
46.0
 40
47.0
 40
47.0
 40
47.0
 40
48.0
 40
48.0
 40
48.0
 40
49.0
 40
49.0
 40
49.0
 40
50.0
 40
50.0
 40
50.0
 40
51.0
 40
51.0
 40
51.0
 40
52.0
 40
52.0
 40
52.0
 40
53.0
 40
53.0
 40
53.0
 40
54.0
 40
54.0
 40
54.0
 40
55.0
 40
55.0
 40
55.0
 40
56.0
 40
56.0
 40
56.0
 40
57.0
 40
57.0
 40
57.0
 40
58.0
 40
58.0
 40
58.0
 40
59.0
 40
59.0
 40
59.0
 40
60.0
 40
60.0
 40
60.0
 40
61.0
 40
61.0
 40
61.0
 40
62.0
 40
62.0
 40
62.0
 40
63.0
 40
63.0
 40
63.0
 40
64.0
 40
64.0
 40
64.0
 40
65.0
 40
65.0
 40
65.0
 40
66.0
 40
66.0
 40
66.0
 40
67.0
 40
67.0
 40
67.0
 40
68.0
 40
68.0
 40
68.0
 40
69.0
 40
69.0
 40
69.0
 40
70.0
 40
70.0
 40
70.0
 40
71.0
 40
71.0
 40
71.0
 40
72.0
 40
72.0
 40
72.0
 40
73.0
 40
73.0
 40
73.0
 40
74.0
 40
74.0
 40
74.0
 40
75.0
 40
75.0
 40
75.0
 40
76.0
 40
76.0
 40
76.0
 40
77.0
 40
77.0
 40
77.0
 40
78.0
 40
78.0
 40
78.0
 40
79.0
 40
79.0
 40
79.0
 40
80.0
 40
80.0
 40
80.0
 40
81.0
 40
81.0
 40
81.0
 40
82.0
 40
82.0
 40
82.0
 40
83.0
 40
83.0
 40
83.0
 40
84.0
 40
84.0
 40
84.0
 40
85.0
 40
85.0
 40
85.0
 40
86.0
 40
86.0
 40
86.0
 40
87.0
 40
87.0
 40
87.0
 40
88.0
 40
88.0
 40
88.0
 40
89.0
 40
89.0
 40
89.0
 40
90.0
 40
90.0
 40
90.0
 40
91.0
 40
91.0
 40
91.0
 40
92.0
 40
92.0
 40
92.0
 40
93.0
 40
93.0
 40
93.0
 40
94.0
 40
94.0
 40
94.0
 40
95.0
 40
95.0
 40
95.0
 40
96.0
 40
96.0
 40
96.0
 40
97.0
 40
97.0
 40
97.0
 40
98.0
 40
98.0
 40
98.0
 40
99.0
 40
99.0
 40
99.0
 40
100.0
 40
100.0
 40
100.0
 40
101.0
 40
101.0
 40
101.0
 40
102.0
 40
102.0
 40
102.0
 40
103.0
 40
103.0
 40
103.0
 40
104.0
 40
104.0
 40
104.0
 40
105.0
 40
105.0
 40
105.0
 40
106.0
 40
106.0
 40
106.0
 40
107.0
 40
107.0
 40
107.0
 40
108.0
 40
108.0
 40
108.0
 40
109.0
 40
109.0
 40
109.0
 40
110.0
 40
110.0
 40
110.0
 40
111.0
 40
111.0
 40
111.0
 40
112.0
 40
112.0
 40
112.0
 40
113.0
 40
113.0
 40
113.0
 40
114.0
 40
114.0
 40
114.0
 40
115.0
 40
115.0
 40
115.0
 40
116.0
 40
116.0
 40
116.0
 40
117.0
 40
117.0
 40
117.0
 40
118.0
 40
118.0
 40
118.0
 40
119.0
 40
119.0
 40
119.0
 40
120.0
 40
120.0
 40
120.0
 40
121.0
 40
121.0
 40
121.0
 40
122.0
 40
122.0
 40
122.0
 40
123.0
 40
123.0
 40
123.0
 40
124.0
 40
124.0
 40
124.0
 40
125.0
 40
125.0
 40
125.0
 40
126.0
 40
126.0
 40
126.0
 40
127.0
 40
127.0
 40
127.0
 40
128.0
 40
128.0
 40
128.0
 40
129.0
 40
129.0
 40
129.0
 40
130.0
 40
130.0
 40
130.0
 40
131.0
 40
131.0
 40
131.0
 40
132.0
 40
132.0
 40
132.0
 40
133.0
 40
133.0
 40
133.0
 40
134.0
 40
134.0
 40
134.0
 40
135.0
 40
135.0
 40
135.0
 40
136.0
 40
136.0
 40
136.0
 40
137.0
 40
137.0
 40
137.0
 40
138.0
 40
138.0
 40
138.0
 40
139.0
 40
139.0
 40
139.0
 40
140.0
 40
140.0
 40
140.0
 40
141.0
 40
141.0
 40
141.0
 40
142.0
 40
142.0
 40
142.0
 40
143.0
 40
143.0
 40
143.0
 40
144.0
 40
144.0
 40
144.0
 40
145.0
 40
145.0
 40
145.0
 40
146.0
 40
146.0
 40
146.0
 40
147.0
 40
147.0
 40
147.0
 40
148.0
 40
148.0
 40
148.0
 40
149.0
 40
149.0
 40
149.0
 40
150.0
 40
150.0
 40
150.0
 40
151.0
 40
151.0
 40
151.0
 40
152.0
 40
152.0
 40
152.0
 40
153.0
 40
153.0
 40
153.0
 40
154.0
 40
154.0
 40
154.0
 40
154.0
 10
211.259607050321
 20
33.30091738398163
 30
0.0
 10
210.3148542090316
 20
33.30091738398163
 30
0.0
 10
209.385281319724
 20
33.30938209124813
 30
0.0
 10
208.4179631030062
 20
33.32702205672494
 30
0.0
 10
205.4472357342285
 20
33.37923140221157
 30
0.0
 10
202.5632817079855
 20
33.51505160023669
 30
0.0
 10
199.5985186607666
 20
33.74188960609361
 30
0.0
 10
196.286640711562
 20
33.99377184123979
 30
0.0
 10
193.0799027701979
 20
34.35289882224945
 30
0.0
 10
189.7923558078579
 20
34.84043904599096
 30
0.0
 10
186.3686629783102
 20
35.34667429570164
 30
0.0
 10
183.0680677168198
 20
35.97003202598742
 30
0.0
 10
179.6993995217255
 20
36.74755508775728
 30
0.0
 10
175.9638286574522
 20
37.60692069914862
 30
0.0
 10
172.3827810916157
 20
38.61269210273968
 30
0.0
 10
168.7484745027619
 20
39.82307257186525
 30
0.0
 10
164.9998553393381
 20
41.06908286445468
 30
0.0
 10
161.4315115631035
 20
42.46643512511879
 30
0.0
 10
157.8370496567213
 20
44.0959168429867
 30
0.0
 10
153.7120215137638
 20
45.96316667043466
 30
0.0
 10
149.834286631107
 20
48.02233253973867
 30
0.0
 10
145.9787833802533
 20
50.39264436097769
 30
0.0
 10
138.293162925903
 20
55.11422308497633
 30
0.0
 10
131.5353497494241
 20
60.58333908261893
 30
0.0
 10
125.318351968589
 20
67.11466414575117
 30
0.0
 10
122.7159053071845
 20
69.84234541100621
 30
0.0
 10
121.2853940024749
 20
73.41457030262346
 30
0.0
 10
121.2853940024749
 20
77.17870854461591
 30
0.0
 10
121.2853940024749
 20
80.32266500372305
 30
0.0
 10
122.2735227491082
 20
83.32057094610236
 30
0.0
 10
124.1439512154375
 20
85.84822673770679
 30
0.0
 10
124.1439512154375
 20
85.84822673770679
 30
0.0
 10
138.1203052599306
 20
104.7253583010485
 30
0.0
 10
138.1203052599306
 20
104.7253583010485
 30
0.0
 10
140.2581377314556
 20
107.547935798037
 30
0.0
 10
143.3505846300966
 20
109.4899791867659
 30
0.0
 10
146.8317997883246
 20
110.1951794666732
 30
0.0
 10
147.7977076690781
 20
110.3916791004131
 30
0.0
 10
148.7435048049365
 20
110.4865807151084
 30
0.0
 10
149.7274025436771
 20
110.4865807151084
 30
0.0
 10
153.6125443816272
 20
110.4865807151084
 30
0.0
 10
157.3996086574817
 20
108.8941391566686
 30
0.0
 10
160.1174121880251
 20
106.1174244933274
 30
0.0
 10
162.3578977390871
 20
103.8028478574857
 30
0.0
 10
164.6890538969516
 20
101.6833605194196
 30
0.0
 10
167.220585420977
 20
99.66193997752593
 30
0.0
 10
170.7169697652635
 20
96.86653567117724
 30
0.0
 10
174.3350628734898
 20
94.47222660669877
 30
0.0
 10
178.2777055082734
 20
92.34568758881136
 30
0.0
 10
182.5177352448979
 20
90.05615787373976
 30
0.0
 10
186.8219729486287
 20
88.262635781157
 30
0.0
 10
191.4327810868532
 20
86.86387318452862
 30
0.0
 10
195.7779508313181
 20
85.54801358097574
 30
0.0
 10
200.0821885350489
 20
84.67700193195575
 30
0.0
 10
204.5942085602338
 20
84.20039988637991
 30
0.0
 10
207.2410969533981
 20
83.92276287100065
 30
0.0
 10
209.8185020769942
 20
83.78800580791041
 30
0.0
 10
212.4788048107041
 20
83.78800580791041
 30
0.0
 10
213.0573440019114
 20
83.78800580791041
 30
0.0
 10
213.6098081266649
 20
83.79400242723944
 30
0.0
 10
214.1883473178722
 20
83.80705610935152
 30
0.0
 10
215.8418208960179
 20
83.84056504590727
 30
0.0
 10
217.4582596976971
 20
83.93052510176586
 30
0.0
 10
219.1159535178122
 20
84.08116190185841
 30
0.0
 10
220.7309712176037
 20
84.22474163916788
 30
0.0
 10
222.3054229180565
 20
84.43393967954799
 30
0.0
 10
223.9158543344833
 20
84.71968881820268
 30
0.0
 10
225.3181373880607
 20
84.96557712550069
 30
0.0
 10
226.6770337703707
 20
85.27108173357861
 30
0.0
 10
228.0578065090121
 20
85.65172710396685
 30
0.0
 10
229.3091297847951
 20
85.99392197896268
 30
0.0
 10
230.5110374722116
 20
86.393617650792
 30
0.0
 10
231.7207181563168
 20
86.87057497183976
 30
0.0
 10
232.8234932211453
 20
87.30237462722227
 30
0.0
 10
233.8751301498646
 20
87.79132518692803
 30
0.0
 10
234.9203936519361
 20
88.36035806778079
 30
0.0
 10
235.8083454814125
 20
88.8401360607571
 30
0.0
 10
236.6518340472824
 20
89.37141823123788
 30
0.0
 10
237.481563763058
 20
89.97537038461066
 30
0.0
 10
238.202299270419
 20
90.49642492786961
 30
0.0
 10
238.8764613931889
 20
91.06016097441379
 30
0.0
 10
239.5266155067959
 20
91.68704992757195
 30
0.0
 10
240.1947917761601
 20
92.32769773082432
 30
0.0
 10
240.7976834860788
 20
93.01173220534407
 30
0.0
 10
241.357899075674
 20
93.76667105131962
 30
0.0
 10
242.4557433475892
 20
95.23952473272768
 30
0.0
 10
243.2685274999468
 20
96.89157720898567
 30
0.0
 10
243.7673557943642
 20
98.66745933609159
 30
0.0
 10
244.1476512722422
 20
100.0320078281821
 30
0.0
 10
244.3307580972832
 20
101.373269627977
 30
0.0
 10
244.3307580972832
 20
102.7808495158629
 30
0.0
 10
244.3307580972832
 20
103.0725952738466
 30
0.0
 10
244.3226405910461
 20
103.3544686800804
 30
0.0
 10
244.3064055785718
 20
103.6409283696789
 30
0.0
 10
244.3064055785718
 20
103.6409283696789
 30
0.0
 10
244.3046399671356
 20
103.6702009153802
 30
0.0
 10
244.3046399671356
 20
103.6702009153802
 30
0.0
 10
244.2750121459625
 20
104.2663962209494
 30
0.0
 10
244.2009210611828
 20
104.8590603036463
 30
0.0
 10
244.0785125122226
 20
105.4725456821822
 30
0.0
 10
244.0785125122226
 20
105.4725456821822
 30
0.0
 10
244.0760363498426
 20
105.4855939813326
 30
0.0
 10
244.0760363498426
 20
105.4855939813326
 30
0.0
 10
243.8721297608093
 20
106.5601623268756
 30
0.0
 10
243.4682138470106
 20
107.6068469308348
 30
0.0
 10
242.8797700062831
 20
108.5769858194812
 30
0.0
 10
242.8797700062831
 20
108.5769858194812
 30
0.0
 10
242.8099206953197
 20
108.6895220166915
 30
0.0
 10
242.8099206953197
 20
108.6895220166915
 30
0.0
 10
242.4934886749995
 20
109.1858849146523
 30
0.0
 10
242.1745804922992
 20
109.6148638981062
 30
0.0
 10
241.8066227626278
 20
110.0392565981955
 30
0.0
 10
241.8066227626278
 20
110.0392565981955
 30
0.0
 10
241.7791050624394
 20
110.0702947553329
 30
0.0
 10
241.7791050624394
 20
110.0702947553329
 30
0.0
 10
241.4309135681145
 20
110.4661146947413
 30
0.0
 10
241.0721499370193
 20
110.8337063830175
 30
0.0
 10
240.681971341468
 20
111.1931913309799
 30
0.0
 10
240.2205438649123
 20
111.6161736951048
 30
0.0
 10
239.7668678531985
 20
111.9939930106028
 30
0.0
 10
239.2800327974391
 20
112.3622952498228
 30
0.0
 10
238.6983068929079
 20
112.8008020754782
 30
0.0
 10
238.1232773927261
 20
113.1983768603994
 30
0.0
 10
237.5136677466112
 20
113.5846689576064
 30
0.0
 10
236.7432152050286
 20
114.0704489528734
 30
0.0
 10
235.9864999816935
 20
114.5086005030569
 30
0.0
 10
235.188874249471
 20
114.9322826522022
 30
0.0
 10
234.114305903928
 20
115.498839370675
 30
0.0
 10
233.0669107490249
 20
116.0050746203856
 30
0.0
 10
231.9732867190792
 20
116.4869681173084
 30
0.0
 10
230.7565651210761
 20
117.0228419541156
 30
0.0
 10
229.5574781055881
 20
117.5121424063316
 30
0.0
 10
228.3065208712003
 20
117.9838082760324
 30
0.0
 10
226.9462033870026
 20
118.4953403600517
 30
0.0
 10
225.6180114182049
 20
118.9648853428445
 30
0.0
 10
224.2407699024359
 20
119.4203162000711
 30
0.0
 10
222.5742480251398
 20
119.9688938264802
 30
0.0
 10
220.9567541629683
 20
120.4733634647547
 30
0.0
 10
219.2881221646875
 20
120.9644295284069
 30
0.0
 10
217.5224676648034
 20
121.4830132922475
 30
0.0
 10
215.798089715202
 20
121.9705481330273
 30
0.0
 10
214.0126689799712
 20
122.4563281282943
 30
0.0
 10
211.7732492553249
 20
123.0634616120293
 30
0.0
 10
209.5944847430658
 20
123.6406012331957
 30
0.0
 10
207.3480025726747
 20
124.2216273527065
 30
0.0
 10
205.5061468670262
 20
124.6971689548283
 30
0.0
 10
203.7535406662925
 20
125.1540209139426
 30
0.0
 10
201.9152161835164
 20
125.6369694713577
 30
0.0
 10
199.8133634279655
 20
126.1862468827872
 30
0.0
 10
197.7908985915028
 20
126.7235310555587
 30
0.0
 10
195.7236259818851
 20
127.2816257582458
 30
0.0
 10
194.295935349104
 20
127.6657969685447
 30
0.0
 10
192.8957408846645
 20
128.0513892807313
 30
0.0
 10
191.4377118797664
 20
128.4620123648029
 30
0.0
 10
188.9308881499244
 20
129.1654577991973
 30
0.0
 10
186.5094166607294
 20
129.8815962572702
 30
0.0
 10
184.0293785482852
 20
130.6538251762124
 30
0.0
 10
181.8005309604092
 20
131.3459771569693
 30
0.0
 10
179.6440088458767
 20
132.0599947281341
 30
0.0
 10
177.4327958405159
 20
132.8371652059129
 30
0.0
 10
175.7147697857154
 20
133.440067681755
 30
0.0
 10
174.0553103541641
 20
134.0567182417679
 30
0.0
 10
172.3559739423711
 20
134.723817918793
 30
0.0
 10
170.6838107212179
 20
135.379279632632
 30
0.0
 10
169.0786653731763
 20
136.0478004115447
 30
0.0
 10
167.4456578153977
 20
136.7692249380028
 30
0.0
 10
165.5819365193413
 20
137.5908479134647
 30
0.0
 10
163.7968818255058
 20
138.4403330986636
 30
0.0
 10
161.9836096464615
 20
139.3681403765349
 30
0.0
 10
159.8866984497473
 20
140.4377671632412
 30
0.0
 10
157.8959715554424
 20
141.5560666896001
 30
0.0
 10
155.8914858110434
 20
142.7890233000775
 30
0.0
 10
154.0171816122932
 20
143.9397928513848
 30
0.0
 10
152.2511718369372
 20
145.1339383080362
 30
0.0
 10
150.4886932844535
 20
146.4423963392574
 30
0.0
 10
148.5314807096662
 20
147.891608052898
 30
0.0
 10
146.7182085306219
 20
149.3972655028796
 30
0.0
 10
144.9391504561154
 20
151.0496732546095
 30
0.0
 10
143.1375054743339
 20
152.7204261397984
 30
0.0
 10
141.497090961262
 20
154.4448040893998
 30
0.0
 10
139.9205291398246
 20
156.3244051224586
 30
0.0
 10
136.5007012767743
 20
160.3947531405111
 30
0.0
 10
133.8104154464193
 20
164.739922884976
 30
0.0
 10
131.6930489952614
 20
169.6121384090672
 30
0.0
 10
130.6908061230619
 20
171.9252939430213
 30
0.0
 10
129.8674175361638
 20
174.2352842954983
 30
0.0
 10
129.1791520537512
 20
176.667338687387
 30
0.0
 10
128.6573923425101
 20
178.5173011333492
 30
0.0
 10
128.2340547029133
 20
180.3394013695744
 30
0.0
 10
127.8872843104761
 20
182.2323952113321
 30
0.0
 10
127.5807138759824
 20
183.91162087823
 30
0.0
 10
127.3461136393603
 20
185.5531012177176
 30
0.0
 10
127.1711458524032
 20
187.2471407952021
 30
0.0
 10
126.912559138465
 20
189.7543305664395
 30
0.0
 10
126.7866086007089
 20
192.1987334724581
 30
0.0
 10
126.7866086007089
 20
194.7203711128867
 30
0.0
 10
126.7866086007089
 20
195.025886486888
 30
0.0
 10
126.788729487617
 20
195.3169324598513
 30
0.0
 10
126.7922607104894
 20
195.6224263020058
 30
0.0
 10
126.8240094185707
 20
198.5462573084906
 30
0.0
 10
127.0420193672466
 20
201.3677689790634
 30
0.0
 10
127.4590051120426
 20
204.2577303905588
 30
0.0
 10
128.1229396075906
 20
208.8840629903137
 30
0.0
 10
129.2528770971355
 20
213.2546187821356
 30
0.0
 10
130.9137576305745
 20
217.6227199434242
 30
0.0
 10
132.5284200548941
 20
221.8627496800486
 30
0.0
 10
134.5205572851633
 20
225.7715334857663
 30
0.0
 10
137.0023502431203
 20
229.5691914302379
 30
0.0
 10
138.8815960007071
 20
232.440441666879
 30
0.0
 10
140.9153650567308
 20
235.0746262704414
 30
0.0
 10
143.2172379029706
 20
237.6185278404435
 30
0.0
 10
145.340611739381
 20
239.9613219614941
 30
0.0
 10
147.5521692542903
 20
242.0910369267819
 30
0.0
 10
149.9750510794496
 20
244.1262055528465
 30
0.0
 10
152.5781975258745
 20
246.308501287978
 30
0.0
 10
155.2441416034415
 20
248.2508891862554
 30
0.0
 10
158.1203333989193
 20
250.0606409083507
 30
0.0
 10
160.7485321490761
 20
251.7123488750602
 30
0.0
 10
163.3897791983832
 20
253.1679017175783
 30
0.0
 10
166.1922459504767
 20
254.5084529664293
 30
0.0
 10
169.0582101187326
 20
255.8772324664126
 30
0.0
 10
171.9104154368944
 20
257.0544646574161
 30
0.0
 10
174.9083267622354
 20
258.1053910351915
 30
0.0
 10
178.0134774504782
 20
259.1912205366019
 30
0.0
 10
181.082982166372
 20
260.090110544244
 30
0.0
 10
184.2869209676544
 20
260.8510460095486
 30
0.0
 10
187.6044402607161
 20
261.6363339935645
 30
0.0
 10
190.8616273190923
 20
262.2402807639755
 30
0.0
 10
194.239823356388
 20
262.6964329380694
 30
0.0
 10
196.8334634924583
 20
263.0449689419428
 30
0.0
 10
199.3656948015041
 20
263.2957934251157
 30
0.0
 10
201.977314029638
 20
263.4626652376825
 30
0.0
 10
204.1581886628819
 20
263.6027083691579
 30
0.0
 10
206.283317344805
 20
263.6789095749223
 30
0.0
 10
208.4758191753116
 20
263.695489096945
 30
0.0
 10
208.8465975769116
 20
263.6983097688736
 30
0.0
 10
209.2029065774736
 20
263.6997308707613
 30
0.0
 10
209.5768501605506
 20
263.6997308707613
 30
0.0
 10
212.7835881019148
 20
263.6997308707613
 30
0.0
 10
215.8993324587747
 20
263.598832636737
 30
0.0
 10
219.1014841167741
 20
263.3913948248314
 30
0.0
 10
222.5047432237249
 20
263.1733848761555
 30
0.0
 10
225.7961659184859
 20
262.8378971714325
 30
0.0
 10
229.1676655514321
 20
262.3655315167111
 30
0.0
 10
232.6760216025298
 20
261.8762202985717
 30
0.0
 10
236.0581149040931
 20
261.2556940061379
 30
0.0
 10
239.5104020261684
 20
260.4682959011372
 30
0.0
 10
242.8688318281174
 20
259.7045182320574
 30
0.0
 10
246.0928813742949
 20
258.8162218930325
 30
0.0
 10
249.3694686266225
 20
257.7519027065581
 30
0.0
 10
252.8503285093786
 20
256.6237200625259
 30
0.0
 10
256.1675032928917
 20
255.3576044080031
 30
0.0
 10
259.5146504071266
 20
253.8801536773069
 30
0.0
 10
263.189189251694
 20
252.2602051846021
 30
0.0
 10
266.6545246729197
 20
250.4825574460599
 30
0.0
 10
270.1113980783597
 20
248.4452571671639
 30
0.0
 10
276.9799926065362
 20
244.3943201089861
 30
0.0
 10
283.1084299015536
 20
239.7327183442009
 30
0.0
 10
288.8446000118818
 20
234.1933923771613
 30
0.0
 10
291.6904642011659
 20
231.4554888676461
 30
0.0
 10
293.317819649164
 20
227.6296242038891
 30
0.0
 10
293.317819649164
 20
223.689446965562
 30
0.0
 10
293.317819649164
 20
220.3987348217449
 30
0.0
 10
292.245038446904
 20
217.2907634615736
 30
0.0
 10
290.2151451233013
 20
214.7010205897709
 30
0.0
 10
290.2151451233013
 20
214.7010205897709
 30
0.0
 10
276.1618900880234
 20
196.7700306718361
 30
0.0
 10
276.1618900880234
 20
196.7700306718361
 30
0.0
 10
274.2614677591256
 20
194.3446834502202
 30
0.0
 10
271.6925461831619
 20
192.6114774434378
 30
0.0
 10
268.7323909511546
 20
191.7573952089508
 30
0.0
 10
267.3995911671454
 20
191.3725134477081
 30
0.0
 10
266.079495172738
 20
191.1855524220929
 30
0.0
 10
264.6941361507319
 20
191.1855524220929
 30
0.0
 10
260.9116581582422
 20
191.1855524220929
 30
0.0
 10
257.3292110223647
 20
192.6298225768968
 30
0.0
 10
254.6047003215485
 20
195.2530690022935
 30
0.0
 10
254.6047003215485
 20
195.2530690022935
 30
0.0
 10
254.5969273248599
 20
195.2611865085306
 30
0.0
 10
254.5969273248599
 20
195.2611865085306
 30
0.0
 10
251.0864396209306
 20
198.6901977042337
 30
0.0
 10
247.3162993766475
 20
201.5653236732958
 30
0.0
 10
243.070628296166
 20
204.0506586200486
 30
0.0
 10
240.3450625348573
 20
205.6420343520726
 30
0.0
 10
237.6011516400897
 20
206.9815305404313
 30
0.0
 10
234.6762871049594
 20
208.1485135723661
 30
0.0
 10
232.1909521582066
 20
209.1391077154561
 30
0.0
 10
229.7303357715605
 20
209.9564996830252
 30
0.0
 10
227.151186568375
 20
210.6482963883102
 30
0.0
 10
224.1783275467657
 20
211.443101448604
 30
0.0
 10
221.2548410498295
 20
212.0339999198648
 30
0.0
 10
218.2093120453283
 20
212.4555719480254
 30
0.0
 10
214.9746903623805
 20
212.9007859439536
 30
0.0
 10
211.8194565985208
 20
213.143837430438
 30
0.0
 10
208.5587383172722
 20
213.199949423154
 30
0.0
 10
208.1103591398669
 20
213.2084114389396
 30
0.0
 10
207.6817246659615
 20
213.2122871713606
 30
0.0
 10
207.2322904280639
 20
213.2122871713606
 30
0.0
 10
206.8929054590732
 20
213.2122871713606
 30
0.0
 10
206.5697770344036
 20
213.2101770503759
 30
0.0
 10
206.2307581068082
 20
213.2052247256158
 30
0.0
 10
204.7515417646758
 20
213.1851139807207
 30
0.0
 10
203.3104583231958
 20
213.0979961286374
 30
0.0
 10
201.8308974715149
 20
212.9385312713639
 30
0.0
 10
200.5961752496014
 20
212.807660706618
 30
0.0
 10
199.3967437245649
 20
212.624553881577
 30
0.0
 10
198.1740147413093
 20
212.3804473346002
 30
0.0
 10
197.0609905174122
 20
212.1606502426413
 30
0.0
 10
195.9804363184636
 20
211.8914806260093
 30
0.0
 10
194.8818814956046
 20
211.5602346951026
 30
0.0
 10
193.8937635148946
 20
211.2646024387746
 30
0.0
 10
192.9373834763424
 20
210.9223967978553
 30
0.0
 10
191.9718308710608
 20
210.5181148426613
 30
0.0
 10
191.1096311303367
 20
210.1596957211146
 30
0.0
 10
190.2823775769411
 20
209.7589449887929
 30
0.0
 10
189.4561575521911
 20
209.2989170822781
 30
0.0
 10
188.7174429527664
 20
208.8893382927755
 30
0.0
 10
188.018949843132
 20
208.4437797872988
 30
0.0
 10
187.3317394212118
 20
207.943207413292
 30
0.0
 10
186.723895386533
 20
207.5036347612209
 30
0.0
 10
186.1488658863512
 20
207.025972272191
 30
0.0
 10
185.5918370100799
 20
206.4964610961081
 30
0.0
 10
184.9998834783269
 20
205.9376666084006
 30
0.0
 10
184.4633098564992
 20
205.3365189780713
 30
0.0
 10
183.966247173518
 20
204.67260601437
 30
0.0
 10
182.8380645294858
 20
203.1778652107073
 30
0.0
 10
182.0778180832783
 20
201.4686672130877
 30
0.0
 10
181.7211645731678
 20
199.6119975968526
 30
0.0
 10
181.5528931905601
 20
198.7173493630268
 30
0.0
 10
181.4731607619234
 20
197.8611570075551
 30
0.0
 10
181.4731607619234
 20
196.9700399966017
 30
0.0
 10
181.4731607619234
 20
196.9700399966017
 30
0.0
 10
181.4872641215661
 20
194.1255969092051
 30
0.0
 10
181.4872641215661
 20
194.1255969092051
 30
0.0
 10
181.4872641215661
 20
194.1255969092051
 30
0.0
 10
183.3456993492374
 20
192.1034765822909
 30
0.0
 10
183.3456993492374
 20
192.1034765822909
 30
0.0
 10
183.544309103962
 20
191.8865216941073
 30
0.0
 10
183.7566992406277
 20
191.6737870478932
 30
0.0
 10
183.9881019980025
 20
191.4603633825819
 30
0.0
 10
184.3909843831557
 20
191.0910060828696
 30
0.0
 10
184.787514873508
 20
190.7607936806084
 30
0.0
 10
185.2129626340895
 20
190.440119886472
 30
0.0
 10
185.6585211395663
 20
190.1060532836367
 30
0.0
 10
186.0917203649896
 20
189.8040691325077
 30
0.0
 10
186.5485830900274
 20
189.5098579780674
 30
0.0
 10
187.1722745639383
 20
189.1101623062381
 30
0.0
 10
187.7794080476732
 20
188.7503220828037
 30
0.0
 10
188.4172459449204
 20
188.4024750980274
 30
0.0
 10
189.2677754246882
 20
187.9399925609794
 30
0.0
 10
190.1003473442392
 20
187.5222962652396
 30
0.0
 10
190.9709875689022
 20
187.1201459628771
 30
0.0
 10
192.1983028355225
 20
186.5574542109019
 30
0.0
 10
193.3967008319134
 20
186.0526400630788
 30
0.0
 10
194.6508232477782
 20
185.5693362301918
 30
0.0
 10
195.9109315170487
 20
185.085321846361
 30
0.0
 10
197.140722946049
 20
184.6422179714176
 30
0.0
 10
198.414956106809
 20
184.2128944784151
 30
0.0
 10
199.7424590565097
 20
183.7669914633899
 30
0.0
 10
201.0332717392925
 20
183.3542259605633
 30
0.0
 10
202.3667820742455
 20
182.9495994958207
 30
0.0
 10
203.6650017123216
 20
182.5569662697362
 30
0.0
 10
204.9282966949159
 20
182.1882979891209
 30
0.0
 10
206.2335787787368
 20
181.8214168517885
 30
0.0
 10
208.2352223193605
 20
181.2612012621934
 30
0.0
 10
210.176210647597
 20
180.7369653885723
 30
0.0
 10
212.1743444971951
 20
180.2173373301626
 30
0.0
 10
214.4360066195681
 20
179.6285489798867
 30
0.0
 10
216.6662753093317
 20
179.0577612535211
 30
0.0
 10
218.9914348478672
 20
178.4725041261175
 30
0.0
 10
218.9914348478672
 20
178.4725041261175
 30
0.0
 10
219.0997400371847
 20
178.4446311504572
 30
0.0
 10
219.0997400371847
 20
178.4446311504572
 30
0.0
 10
221.221682005784
 20
177.8815948889335
 30
0.0
 10
223.2342852564202
 20
177.3425558706492
 30
0.0
 10
225.3438894768129
 20
176.7714021028883
 30
0.0
 10
227.4013005006041
 20
176.2150730116374
 30
0.0
 10
229.3877856210928
 20
175.6636854792232
 30
0.0
 10
231.4187340051879
 20
175.0847802466205
 30
0.0
 10
233.6486366535562
 20
174.4511841231895
 30
0.0
 10
235.8051802999355
 20
173.8101918103886
 30
0.0
 10
238.0174483657886
 20
173.1233258980169
 30
0.0
 10
240.3073172074471
 20
172.4153049461811
 30
0.0
 10
242.5164200918231
 20
171.6899939213787
 30
0.0
 10
244.777005621857
 20
170.9043614278143
 30
0.0
 10
246.7924295444217
 20
170.205157767236
 30
0.0
 10
248.7323628121659
 20
169.4893638187116
 30
0.0
 10
250.7107304264174
 20
168.7143142278409
 30
0.0
 10
252.6855883496433
 20
167.9417300334269
 30
0.0
 10
254.5831684747657
 20
167.1465696976611
 30
0.0
 10
256.5146397267242
 20
166.2822598359522
 30
0.0
 10
258.6041332022218
 20
165.3491664896957
 30
0.0
 10
260.6029776027638
 20
164.3800826615417
 30
0.0
 10
262.6303947639865
 20
163.3168185355597
 30
0.0
 10
264.7664616240753
 20
162.1995633037697
 30
0.0
 10
266.7921131738619
 20
161.0354009437635
 30
0.0
 10
268.8276478413217
 20
159.7555264391464
 30
0.0
 10
270.6102263727772
 20
158.6365163618437
 30
0.0
 10
272.2933277720959
 20
157.4825708631358
 30
0.0
 10
273.9767952128101
 20
156.2252724998705
 30
0.0
 10
275.8539200834888
 20
154.8261546277702
 30
0.0
 10
277.6012294499139
 20
153.380829412474
 30
0.0
 10
279.3241862976278
 20
151.8021467041284
 30
0.0
 10
281.3212650867335
 20
149.974760399518
 30
0.0
 10
283.1363136431374
 20
148.0821110673089
 30
0.0
 10
284.8755055033254
 20
146.0137726312754
 30
0.0
 10
287.7206591416658
 20
142.6348660430359
 30
0.0
 10
290.0761570523182
 20
139.0813361773878
 30
0.0
 10
292.0781666343373
 20
135.1475108338618
 30
0.0
 10
293.3919107339437
 20
132.56164369448
 30
0.0
 10
294.4767067067085
 20
129.9637940823636
 30
0.0
 10
295.391810194978
 20
127.2100108358461
 30
0.0
 10
296.1654494498844
 20
124.8774443420174
 30
0.0
 10
296.783521111785
 20
122.5692196009766
 30
0.0
 10
297.2798732438224
 20
120.1579757390035
 30
0.0
 10
297.7127279596972
 20
118.0466059071745
 30
0.0
 10
298.0376435276499
 20
115.9736811877763
 30
0.0
 10
298.2715224474048
 20
113.825965598578
 30
0.0
 10
298.5519962835977
 20
111.225650590005
 30
0.0
 10
298.6966256984378
 20
108.6835253973625
 30
0.0
 10
298.7124946695168
 20
106.0620338174786
 30
0.0
 10
298.7139157714045
 20
105.8556618319888
 30
0.0
 10
298.7146263223483
 20
105.6644590325574
 30
0.0
 10
298.7146263223483
 20
105.4640836663965
 30
0.0
 10
298.7146263223483
 20
102.7025381891139
 30
0.0
 10
298.5727960475898
 20
100.023890321945
 30
0.0
 10
298.2810610555296
 20
97.27574841928458
 30
0.0
 10
297.9438077393704
 20
94.08664506043558
 30
0.0
 10
297.4139305218922
 20
91.02488104346013
 30
0.0
 10
296.6618015819218
 20
87.91409439432193
 30
0.0
 10
295.8317273565977
 20
84.47097983897611
 30
0.0
 10
294.7730279821335
 20
81.20849056332961
 30
0.0
 10
293.4240147174969
 20
77.93647882844339
 30
0.0
 10
290.9334044682823
 20
71.88810232272622
 30
0.0
 10
287.7033690686991
 20
66.49589269883013
 30
0.0
 10
283.5480025536247
 20
61.4483487293482
 30
0.0
 10
281.2327261327626
 20
58.6409458013798
 30
0.0
 10
278.7717437047211
 20
56.11081923035706
 30
0.0
 10
276.0267777494612
 20
53.71757599229435
 30
0.0
 10
273.7107907776552
 20
51.70074711672705
 30
0.0
 10
271.33871334498
 20
49.89240573059602
 30
0.0
 10
268.7785982943505
 20
48.19166436580039
 30
0.0
 10
266.2132079412592
 20
46.49127827647668
 30
0.0
 10
263.6248646394975
 20
44.99126755331381
 30
0.0
 10
260.870037098411
 20
43.60943706269925
 30
0.0
 10
258.3526196999518
 20
42.34860747656155
 30
0.0
 10
255.8482290687962
 20
41.24652950527267
 30
0.0
 10
253.21828623905
 20
40.24217112912674
 30
0.0
 10
250.646522459311
 20
39.26215450576877
 30
0.0
 10
248.1047740739873
 20
38.41901583240914
 30
0.0
 10
245.4532993974583
 20
37.66618710741831
 30
0.0
 10
242.6896222673441
 20
36.88408045376455
 30
0.0
 10
239.9728845632164
 20
36.2324998553082
 30
0.0
 10
237.1517174021921
 20
35.67546290459432
 30
0.0
 10
234.386640702037
 20
35.13253738796573
 30
0.0
 10
231.6780205041465
 20
34.69826964464575
 30
0.0
 10
228.8769640880173
 20
34.34972556632983
 30
0.0
 10
225.9534991229279
 20
33.98812780590184
 30
0.0
 10
223.1005724878989
 20
33.72883592398153
 30
0.0
 10
220.160894042182
 20
33.55703331850147
 30
0.0
 10
217.1679242756777
 20
33.38487812903036
 30
0.0
 10
214.2543208964147
 20
33.30091738398163
 30
0.0
 10
211.259607050321
 20
33.30091738398163
 30
0.0
  0
SPLINE
  5
80
330
79
100
AcDbEntity
  8
レイヤー 1
 62
     1
370
    18
100
AcDbSpline
210
0.0
220
0.0
230
1.0
 70
     9
 71
     3
 72
   458
 73
   454
 74
     0
 42
0.0000000001
 43
0.0000000001
 40
0.0
 40
0.0
 40
0.0
 40
0.0
 40
1.0
 40
1.0
 40
1.0
 40
2.0
 40
2.0
 40
2.0
 40
3.0
 40
3.0
 40
3.0
 40
4.0
 40
4.0
 40
4.0
 40
5.0
 40
5.0
 40
5.0
 40
6.0
 40
6.0
 40
6.0
 40
7.0
 40
7.0
 40
7.0
 40
8.0
 40
8.0
 40
8.0
 40
9.0
 40
9.0
 40
9.0
 40
10.0
 40
10.0
 40
10.0
 40
11.0
 40
11.0
 40
11.0
 40
12.0
 40
12.0
 40
12.0
 40
13.0
 40
13.0
 40
13.0
 40
14.0
 40
14.0
 40
14.0
 40
15.0
 40
15.0
 40
15.0
 40
16.0
 40
16.0
 40
16.0
 40
17.0
 40
17.0
 40
17.0
 40
18.0
 40
18.0
 40
18.0
 40
19.0
 40
19.0
 40
19.0
 40
20.0
 40
20.0
 40
20.0
 40
21.0
 40
21.0
 40
21.0
 40
22.0
 40
22.0
 40
22.0
 40
23.0
 40
23.0
 40
23.0
 40
24.0
 40
24.0
 40
24.0
 40
25.0
 40
25.0
 40
25.0
 40
26.0
 40
26.0
 40
26.0
 40
27.0
 40
27.0
 40
27.0
 40
28.0
 40
28.0
 40
28.0
 40
29.0
 40
29.0
 40
29.0
 40
30.0
 40
30.0
 40
30.0
 40
31.0
 40
31.0
 40
31.0
 40
32.0
 40
32.0
 40
32.0
 40
33.0
 40
33.0
 40
33.0
 40
34.0
 40
34.0
 40
34.0
 40
35.0
 40
35.0
 40
35.0
 40
36.0
 40
36.0
 40
36.0
 40
37.0
 40
37.0
 40
37.0
 40
38.0
 40
38.0
 40
38.0
 40
39.0
 40
39.0
 40
39.0
 40
40.0
 40
40.0
 40
40.0
 40
41.0
 40
41.0
 40
41.0
 40
42.0
 40
42.0
 40
42.0
 40
43.0
 40
43.0
 40
43.0
 40
44.0
 40
44.0
 40
44.0
 40
45.0
 40
45.0
 40
45.0
 40
46.0
 40
46.0
 40
46.0
 40
47.0
 40
47.0
 40
47.0
 40
48.0
 40
48.0
 40
48.0
 40
49.0
 40
49.0
 40
49.0
 40
50.0
 40
50.0
 40
50.0
 40
51.0
 40
51.0
 40
51.0
 40
52.0
 40
52.0
 40
52.0
 40
53.0
 40
53.0
 40
53.0
 40
54.0
 40
54.0
 40
54.0
 40
55.0
 40
55.0
 40
55.0
 40
56.0
 40
56.0
 40
56.0
 40
57.0
 40
57.0
 40
57.0
 40
58.0
 40
58.0
 40
58.0
 40
59.0
 40
59.0
 40
59.0
 40
60.0
 40
60.0
 40
60.0
 40
61.0
 40
61.0
 40
61.0
 40
62.0
 40
62.0
 40
62.0
 40
63.0
 40
63.0
 40
63.0
 40
64.0
 40
64.0
 40
64.0
 40
65.0
 40
65.0
 40
65.0
 40
66.0
 40
66.0
 40
66.0
 40
67.0
 40
67.0
 40
67.0
 40
68.0
 40
68.0
 40
68.0
 40
69.0
 40
69.0
 40
69.0
 40
70.0
 40
70.0
 40
70.0
 40
71.0
 40
71.0
 40
71.0
 40
72.0
 40
72.0
 40
72.0
 40
73.0
 40
73.0
 40
73.0
 40
74.0
 40
74.0
 40
74.0
 40
75.0
 40
75.0
 40
75.0
 40
76.0
 40
76.0
 40
76.0
 40
77.0
 40
77.0
 40
77.0
 40
78.0
 40
78.0
 40
78.0
 40
79.0
 40
79.0
 40
79.0
 40
80.0
 40
80.0
 40
80.0
 40
81.0
 40
81.0
 40
81.0
 40
82.0
 40
82.0
 40
82.0
 40
83.0
 40
83.0
 40
83.0
 40
84.0
 40
84.0
 40
84.0
 40
85.0
 40
85.0
 40
85.0
 40
86.0
 40
86.0
 40
86.0
 40
87.0
 40
87.0
 40
87.0
 40
88.0
 40
88.0
 40
88.0
 40
89.0
 40
89.0
 40
89.0
 40
90.0
 40
90.0
 40
90.0
 40
91.0
 40
91.0
 40
91.0
 40
92.0
 40
92.0
 40
92.0
 40
93.0
 40
93.0
 40
93.0
 40
94.0
 40
94.0
 40
94.0
 40
95.0
 40
95.0
 40
95.0
 40
96.0
 40
96.0
 40
96.0
 40
97.0
 40
97.0
 40
97.0
 40
98.0
 40
98.0
 40
98.0
 40
99.0
 40
99.0
 40
99.0
 40
100.0
 40
100.0
 40
100.0
 40
101.0
 40
101.0
 40
101.0
 40
102.0
 40
102.0
 40
102.0
 40
103.0
 40
103.0
 40
103.0
 40
104.0
 40
104.0
 40
104.0
 40
105.0
 40
105.0
 40
105.0
 40
106.0
 40
106.0
 40
106.0
 40
107.0
 40
107.0
 40
107.0
 40
108.0
 40
108.0
 40
108.0
 40
109.0
 40
109.0
 40
109.0
 40
110.0
 40
110.0
 40
110.0
 40
111.0
 40
111.0
 40
111.0
 40
112.0
 40
112.0
 40
112.0
 40
113.0
 40
113.0
 40
113.0
 40
114.0
 40
114.0
 40
114.0
 40
115.0
 40
115.0
 40
115.0
 40
116.0
 40
116.0
 40
116.0
 40
117.0
 40
117.0
 40
117.0
 40
118.0
 40
118.0
 40
118.0
 40
119.0
 40
119.0
 40
119.0
 40
120.0
 40
120.0
 40
120.0
 40
121.0
 40
121.0
 40
121.0
 40
122.0
 40
122.0
 40
122.0
 40
123.0
 40
123.0
 40
123.0
 40
124.0
 40
124.0
 40
124.0
 40
125.0
 40
125.0
 40
125.0
 40
126.0
 40
126.0
 40
126.0
 40
127.0
 40
127.0
 40
127.0
 40
128.0
 40
128.0
 40
128.0
 40
129.0
 40
129.0
 40
129.0
 40
130.0
 40
130.0
 40
130.0
 40
131.0
 40
131.0
 40
131.0
 40
132.0
 40
132.0
 40
132.0
 40
133.0
 40
133.0
 40
133.0
 40
134.0
 40
134.0
 40
134.0
 40
135.0
 40
135.0
 40
135.0
 40
136.0
 40
136.0
 40
136.0
 40
137.0
 40
137.0
 40
137.0
 40
138.0
 40
138.0
 40
138.0
 40
139.0
 40
139.0
 40
139.0
 40
140.0
 40
140.0
 40
140.0
 40
141.0
 40
141.0
 40
141.0
 40
142.0
 40
142.0
 40
142.0
 40
143.0
 40
143.0
 40
143.0
 40
144.0
 40
144.0
 40
144.0
 40
145.0
 40
145.0
 40
145.0
 40
146.0
 40
146.0
 40
146.0
 40
147.0
 40
147.0
 40
147.0
 40
148.0
 40
148.0
 40
148.0
 40
149.0
 40
149.0
 40
149.0
 40
150.0
 40
150.0
 40
150.0
 40
151.0
 40
151.0
 40
151.0
 40
151.0
 10
211.259607050321
 20
27.50093226275096
 30
0.0
 10
210.2802955949451
 20
27.50093226275096
 30
0.0
 10
209.3164870692529
 20
27.50974955400852
 30
0.0
 10
208.3128446270125
 20
27.52774210347641
 30
0.0
 10
205.2299148046496
 20
27.58206964439029
 30
0.0
 10
202.234490407612
 20
27.7231812937623
 30
0.0
 10
199.1557808272184
 20
27.95883659087678
 30
0.0
 10
195.7081015203547
 20
28.22130442019755
 30
0.0
 10
192.3669402595254
 20
28.59560058726571
 30
0.0
 10
188.94182632809
 20
29.10324886442151
 30
0.0
 10
185.3664201061106
 20
29.6317076714929
 30
0.0
 10
181.9166091464154
 20
30.28328826994926
 30
0.0
 10
178.395527773869
 20
31.09573598720084
 30
0.0
 10
174.48216845071
 20
31.99637814887482
 30
0.0
 10
170.7271973924853
 20
33.05083036656097
 30
0.0
 10
166.9157913638429
 20
34.32012465996517
 30
0.0
 10
162.9759694009878
 20
35.6296377516788
 30
0.0
 10
159.2231192296712
 20
37.09931010272469
 30
0.0
 10
155.4423960826943
 20
38.81310514963239
 30
0.0
 10
151.0958267681885
 20
40.78089793563268
 30
0.0
 10
147.0064230657332
 20
42.95224472667513
 30
0.0
 10
142.9410166065173
 20
45.45167226714728
 30
0.0
 10
134.8239517722564
 20
50.43818959988502
 30
0.0
 10
127.6851325669557
 20
56.21598615300601
 30
0.0
 10
121.1174778953391
 20
63.11561345535825
 30
0.0
 10
117.48528142747
 20
66.92208330812571
 30
0.0
 10
115.4850266909638
 20
71.91635748866696
 30
0.0
 10
115.4850266909638
 20
77.17874622534778
 30
0.0
 10
115.4850266909638
 20
81.5736491529193
 30
0.0
 10
116.8672097655694
 20
85.76430098190908
 30
0.0
 10
119.48129439016
 20
89.29772010266201
 30
0.0
 10
119.48129439016
 20
89.29772010266201
 30
0.0
 10
133.4788034741173
 20
108.2030745341743
 30
0.0
 10
133.4788034741173
 20
108.2030745341743
 30
0.0
 10
136.4689525686931
 20
112.1644175778888
 30
0.0
 10
140.8024735840485
 20
114.8917489506336
 30
0.0
 10
145.6799751765249
 20
115.8795224217951
 30
0.0
 10
147.0265338106283
 20
116.1536335972636
 30
0.0
 10
148.3505055374566
 20
116.2866250489177
 30
0.0
 10
149.7274025436771
 20
116.2866250489177
 30
0.0
 10
155.1626435633686
 20
116.2866250489177
 30
0.0
 10
160.4603068480414
 20
114.0588325215341
 30
0.0
 10
164.2621958004058
 20
110.1744012345278
 30
0.0
 10
166.3513447663549
 20
108.0164580181076
 30
0.0
 10
168.503291363446
 20
106.0599559942641
 30
0.0
 10
170.8397335896956
 20
104.1941138112995
 30
0.0
 10
174.0641276454217
 20
101.616008902683
 30
0.0
 10
177.3978711850342
 20
99.41009273163077
 30
0.0
 10
181.0307674379237
 20
97.45077003585867
 30
0.0
 10
184.9279025145319
 20
95.3464411179277
 30
0.0
 10
188.8811280520093
 20
93.69897492503445
 30
0.0
 10
193.1165930371158
 20
92.41415886158071
 30
0.0
 10
197.1054537810188
 20
91.20624378891177
 30
0.0
 10
201.0590238280447
 20
90.40614189430927
 30
0.0
 10
205.2038182063488
 20
89.96800111004922
 30
0.0
 10
207.6429242780589
 20
89.7122350680396
 30
0.0
 10
210.0227531755759
 20
89.58805552468144
 30
0.0
 10
212.4788048107041
 20
89.58805552468144
 30
0.0
 10
213.0129022701517
 20
89.58805552468144
 30
0.0
 10
213.5226687427348
 20
89.59370225150022
 30
0.0
 10
214.0567662021824
 20
89.60569549015826
 30
0.0
 10
215.5860656199316
 20
89.63673903025737
 30
0.0
 10
217.0691361626381
 20
89.71893685535077
 30
0.0
 10
218.5903180741501
 20
89.85758041678527
 30
0.0
 10
220.0483470790483
 20
89.9866961360184
 30
0.0
 10
221.4591136802581
 20
90.1743730955391
 30
0.0
 10
222.9023287745695
 20
90.43048364709724
 30
0.0
 10
224.1331537322154
 20
90.64638347478849
 30
0.0
 10
225.3156827575274
 20
90.91237714401996
 30
0.0
 10
226.5172459353955
 20
91.2432893313016
 30
0.0
 10
227.574502676125
 20
91.53256969282868
 30
0.0
 10
228.5806428125923
 20
91.86700233705929
 30
0.0
 10
229.5931133120136
 20
92.26634273341671
 30
0.0
 10
230.4814096510385
 20
92.61417895226964
 30
0.0
 10
231.3171252202198
 20
93.0029472118567
 30
0.0
 10
232.1475654869392
 20
93.45484684621094
 30
0.0
 10
232.8217276097091
 20
93.81856280206619
 30
0.0
 10
233.4500268988315
 20
94.21438274147462
 30
0.0
 10
234.0677325193368
 20
94.66417225484416
 30
0.0
 10
234.5803196638484
 20
95.0352951659927
 30
0.0
 10
235.0498646466412
 20
95.42722860705683
 30
0.0
 10
235.5014305373703
 20
95.86255948531171
 30
0.0
 10
235.9438023295232
 20
96.28695218540093
 30
0.0
 10
236.3360910460592
 20
96.73215541540573
 30
0.0
 10
236.7005175528583
 20
97.222866203586
 30
0.0
 10
237.3785554080491
 20
98.13303889894221
 30
0.0
 10
237.8777497438617
 20
99.14691973432786
 30
0.0
 10
238.1835880955648
 20
100.2359467149855
 30
0.0
 10
238.420309219095
 20
101.0861424511282
 30
0.0
 10
238.5307245293973
 20
101.8943510860444
 30
0.0
 10
238.5307245293973
 20
102.7808818136331
 30
0.0
 10
238.5307245293973
 20
102.9689194315874
 30
0.0
 10
238.525793736484
 20
103.1438979844679
 30
0.0
 10
238.5145110487698
 20
103.3308697760064
 30
0.0
 10
238.5145110487698
 20
103.3308697760064
 30
0.0
 10
238.5123793959383
 20
103.3721355603657
 30
0.0
 10
238.5123793959383
 20
103.3721355603657
 30
0.0
 10
238.4965104248594
 20
103.6910545089893
 30
0.0
 10
238.4566549764644
 20
104.007142019761
 30
0.0
 10
238.3906813979219
 20
104.3383987165912
 30
0.0
 10
238.3906813979219
 20
104.3383987165912
 30
0.0
 10
238.3818533407409
 20
104.3839062747666
 30
0.0
 10
238.3818533407409
 20
104.3839062747666
 30
0.0
 10
238.3038865235404
 20
104.7941848492897
 30
0.0
 10
238.1490294814784
 20
105.1928254606267
 30
0.0
 10
237.9214809246776
 20
105.5678348701195
 30
0.0
 10
237.7567407649423
 20
105.8264108181343
 30
0.0
 10
237.6050489043574
 20
106.0313832335833
 30
0.0
 10
237.4258393435841
 20
106.2377552190731
 30
0.0
 10
237.2106285349899
 20
106.4822278074452
 30
0.0
 10
236.9897979143854
 20
106.7083552623583
 30
0.0
 10
236.7495455679827
 20
106.92990719983
 30
0.0
 10
236.4380443405758
 20
107.2153010630128
 30
0.0
 10
236.1216123202556
 20
107.4788293357876
 30
0.0
 10
235.7811722907726
 20
107.73635022331
 30
0.0
 10
235.3345587248035
 20
108.0732590299207
 30
0.0
 10
234.8861795473982
 20
108.3833499213634
 30
0.0
 10
234.4099381602561
 20
108.6849787970203
 30
0.0
 10
233.7735213648965
 20
109.086084804814
 30
0.0
 10
233.1392362223684
 20
109.4536764930901
 30
0.0
 10
232.469294341568
 20
109.8089196672363
 30
0.0
 10
231.5294938250386
 20
110.3045720142533
 30
0.0
 10
230.6027631395064
 20
110.7529619575819
 30
0.0
 10
229.6347343718448
 20
111.1791095031839
 30
0.0
 10
228.5153797849936
 20
111.6722964537442
 30
0.0
 10
227.4115281278259
 20
112.1227965180576
 30
0.0
 10
226.2600695574215
 20
112.5570615698967
 30
0.0
 10
224.9780633999729
 20
113.0389550668195
 30
0.0
 10
223.721464821728
 20
113.4831032363319
 30
0.0
 10
222.4193694512311
 20
113.9134925557501
 30
0.0
 10
220.8188211524776
 20
114.4405383353764
 30
0.0
 10
219.2588388530629
 20
114.9270288815872
 30
0.0
 10
217.6501730480723
 20
115.4008048722728
 30
0.0
 10
215.9264841175679
 20
115.9066848465116
 30
0.0
 10
214.2387964348843
 20
116.3839920600696
 30
0.0
 10
212.4904320079668
 20
116.8595444281147
 30
0.0
 10
210.2742882096927
 20
117.4606705265973
 30
0.0
 10
208.1174000537649
 20
118.0318135284347
 30
0.0
 10
205.8963254625776
 20
118.6057879681241
 30
0.0
 10
204.0477518207329
 20
119.083450457154
 30
0.0
 10
202.2873941551573
 20
119.5424125372531
 30
0.0
 10
200.4409521661441
 20
120.0274819815762
 30
0.0
 10
198.3310034362028
 20
120.5788695139905
 30
0.0
 10
196.2937031573068
 20
121.1200401851062
 30
0.0
 10
194.2116166371025
 20
121.6820106202142
 30
0.0
 10
192.7652148294671
 20
122.0714786648217
 30
0.0
 10
191.3435315819384
 20
122.463056830414
 30
0.0
 10
189.8657363416937
 20
122.8789875147175
 30
0.0
 10
187.3105736158242
 20
123.5961810332828
 30
0.0
 10
184.8375979491248
 20
124.3274886774142
 30
0.0
 10
182.305366640079
 20
125.1159526088306
 30
0.0
 10
180.0105454736605
 20
125.828915119503
 30
0.0
 10
177.7876945051136
 20
126.5648090469992
 30
0.0
 10
175.5094528607179
 20
127.3656107266221
 30
0.0
 10
173.7258085028468
 20
127.991089343816
 30
0.0
 10
172.0014305532453
 20
128.6320816566169
 30
0.0
 10
170.236486604305
 20
129.3249441883176
 30
0.0
 10
168.4905875738441
 20
130.0093339383093
 30
0.0
 10
166.8106621219258
 20
130.7088928743594
 30
0.0
 10
165.1018086338547
 20
131.4641869958069
 30
0.0
 10
163.1392992247588
 20
132.3291966425362
 30
0.0
 10
161.2554671838072
 20
133.2255997218748
 30
0.0
 10
159.3420073216825
 20
134.2045666677021
 30
0.0
 10
157.1120939073908
 20
135.3422663880123
 30
0.0
 10
154.9894306219243
 20
136.5343124896023
 30
0.0
 10
152.8526532108917
 20
137.8487563742292
 30
0.0
 10
150.835829718286
 20
139.0870098190151
 30
0.0
 10
148.9322422079112
 20
140.3746465543974
 30
0.0
 10
147.0318198790135
 20
141.7850471142119
 30
0.0
 10
144.905636136598
 20
143.3594988146646
 30
0.0
 10
142.9300784283517
 20
144.9999133277366
 30
0.0
 10
140.9919107720437
 20
146.7997926980819
 30
0.0
 10
139.0142429428126
 20
148.6342306825137
 30
0.0
 10
137.2101325645744
 20
150.5304112375952
 30
0.0
 10
135.4765928141669
 20
152.5969840621925
 30
0.0
 10
131.6951591162461
 20
157.0980766751352
 30
0.0
 10
128.7173693017236
 20
161.9074945680843
 30
0.0
 10
126.3735093542573
 20
167.3000594674523
 30
0.0
 10
125.2654374551203
 20
169.8580536311737
 30
0.0
 10
124.357740922144
 20
172.405454126278
 30
0.0
 10
123.5985603023523
 20
175.0879777258677
 30
0.0
 10
123.0252964136067
 20
177.1189261099629
 30
0.0
 10
122.5621033256149
 20
179.1142285217091
 30
0.0
 10
122.1825076327573
 20
181.1874977506558
 30
0.0
 10
121.8477197130548
 20
183.0191258290824
 30
0.0
 10
121.592664221989
 20
184.8066566852979
 30
0.0
 10
121.4018166980295
 20
186.6513330628749
 30
0.0
 10
121.1224086882524
 20
189.3585321588778
 30
0.0
 10
120.9865965646698
 20
191.9976690872002
 30
0.0
 10
120.9865965646698
 20
194.7204141765803
 30
0.0
 10
120.9865965646698
 20
195.0502605374462
 30
0.0
 10
120.9887066856545
 20
195.3645824367817
 30
0.0
 10
120.9929484594707
 20
195.6944287976476
 30
0.0
 10
121.0271625640086
 20
198.8676631854176
 30
0.0
 10
121.2645834725593
 20
201.9393103200664
 30
0.0
 10
121.7182594842731
 20
205.0857375585918
 30
0.0
 10
122.4432152336036
 20
210.1368073679845
 30
0.0
 10
123.6779374555171
 20
214.9116451150004
 30
0.0
 10
125.4922754609772
 20
219.684028231483
 30
0.0
 10
127.2579191949379
 20
224.3205884584598
 30
0.0
 10
129.4349180957608
 20
228.5920116276936
 30
0.0
 10
132.1474247919957
 20
232.7424473498548
 30
0.0
 10
134.195652483134
 20
235.8719505568089
 30
0.0
 10
136.4100414358953
 20
238.740035611973
 30
0.0
 10
138.9165206561888
 20
241.5103876145899
 30
0.0
 10
141.2212249402806
 20
244.0528680827042
 30
0.0
 10
143.6183439107642
 20
246.3614480992169
 30
0.0
 10
146.2447770494848
 20
248.5673642702692
 30
0.0
 10
149.0560610928358
 20
250.9242617509625
 30
0.0
 10
151.9304980428008
 20
253.0187075512202
 30
0.0
 10
155.0317622326993
 20
254.9699235066785
 30
0.0
 10
157.8525741182517
 20
256.7422744109121
 30
0.0
 10
160.6843241819698
 20
258.3029672612706
 30
0.0
 10
163.6889319116602
 20
259.7405410117251
 30
0.0
 10
166.749274826748
 20
261.2021012394955
 30
0.0
 10
169.7916386497721
 20
262.4576232254012
 30
0.0
 10
172.9888595148582
 20
263.5787649555354
 30
0.0
 10
176.2890995008767
 20
264.7326996883199
 30
0.0
 10
179.5462865592529
 20
265.686603564492
 30
0.0
 10
182.9463481869565
 20
266.4941124143878
 30
0.0
 10
186.454725769901
 20
267.3245526811073
 30
0.0
 10
189.8950196533183
 20
267.962735087903
 30
0.0
 10
193.4637294709483
 20
268.4442733093538
 30
0.0
 10
196.1959916366064
 20
268.8115204880814
 30
0.0
 10
198.8598040613419
 20
269.0753932704048
 30
0.0
 10
201.6075906885304
 20
269.2510716083057
 30
0.0
 10
203.8971150206403
 20
269.3978326759774
 30
0.0
 10
206.1294938313886
 20
269.4779096141626
 30
0.0
 10
208.4317219531004
 20
269.4955441966778
 30
0.0
 10
208.8194243862717
 20
269.4983648686063
 30
0.0
 10
209.1891477273794
 20
269.4994199290987
 30
0.0
 10
209.5768501605506
 20
269.4994199290987
 30
0.0
 10
212.9095278737475
 20
269.4994199290987
 30
0.0
 10
216.1476807795677
 20
269.3950120040489
 30
0.0
 10
219.4765042921904
 20
269.1794566859061
 30
0.0
 10
223.0222611611498
 20
268.9522741705007
 30
0.0
 10
226.4554925988223
 20
268.6023170647396
 30
0.0
 10
229.971987688004
 20
268.1094746237278
 30
0.0
 10
233.6429953096991
 20
267.5972535206116
 30
0.0
 10
237.1848764462376
 20
266.9477884261016
 30
0.0
 10
240.8001596484588
 20
266.1233340127878
 30
0.0
 10
244.3272268744108
 20
265.320777487652
 30
0.0
 10
247.7163610898721
 20
264.3869628245283
 30
0.0
 10
251.1608752152588
 20
263.2683187886209
 30
0.0
 10
254.8287176554769
 20
262.0794594003547
 30
0.0
 10
258.3272121207481
 20
260.7441834539654
 30
0.0
 10
261.8567555090801
 20
259.1863112755354
 30
0.0
 10
265.7390766751017
 20
257.4746371155359
 30
0.0
 10
269.4026773415036
 20
255.5954021238724
 30
0.0
 10
273.056394890232
 20
253.4416791494217
 30
0.0
 10
280.3232639883502
 20
249.1561526205452
 30
0.0
 10
286.8055556533962
 20
244.2246706881843
 30
0.0
 10
292.8733162041797
 20
238.3657259875006
 30
0.0
 10
296.8420662031875
 20
234.5472682790368
 30
0.0
 10
299.11785321705
 20
229.1980900509362
 30
0.0
 10
299.11785321705
 20
223.6894684974088
 30
0.0
 10
299.11785321705
 20
219.0888879864062
 30
0.0
 10
297.6178371109254
 20
214.743739773788
 30
0.0
 10
294.7797459183298
 20
211.1228152277098
 30
0.0
 10
294.7797459183298
 20
211.1228152277098
 30
0.0
 10
280.7268353926005
 20
193.1921698193234
 30
0.0
 10
280.7268353926005
 20
193.1921698193234
 30
0.0
 10
278.0707744327067
 20
189.8019805433698
 30
0.0
 10
274.4791331982531
 20
187.3787434427386
 30
0.0
 10
270.3403462052014
 20
186.1846087520107
 30
0.0
 10
268.4790903056016
 20
185.6469585378439
 30
0.0
 10
266.6323038070399
 20
185.3855619179006
 30
0.0
 10
264.6941361507319
 20
185.3855619179006
 30
0.0
 10
259.3961175905871
 20
185.3855619179006
 30
0.0
 10
254.3785728666354
 20
187.4115579772356
 30
0.0
 10
250.5657349701819
 20
191.0906831051678
 30
0.0
 10
247.3759210603891
 20
194.2067719715763
 30
0.0
 10
243.9726834852851
 20
196.8017901458408
 30
0.0
 10
240.1404453948803
 20
199.0454731761501
 30
0.0
 10
237.671711501997
 20
200.4869226590254
 30
0.0
 10
235.1814672941777
 20
201.7025891965362
 30
0.0
 10
232.5268059043249
 20
202.7619775900973
 30
0.0
 10
230.2563372566178
 20
203.6665089415964
 30
0.0
 10
228.0066683729029
 20
204.4136855568067
 30
0.0
 10
225.6483497903219
 20
205.0462266197454
 30
0.0
 10
222.9136114622838
 20
205.7775342638768
 30
0.0
 10
220.2201496845283
 20
206.3218593505463
 30
0.0
 10
217.4141624754859
 20
206.7102723346614
 30
0.0
 10
214.4151853237291
 20
207.1230163056411
 30
0.0
 10
211.4860790147826
 20
207.3487992510057
 30
0.0
 10
208.4588951437403
 20
207.401013979454
 30
0.0
 10
208.0397992779597
 20
207.4087654442958
 30
0.0
 10
207.6457449499874
 20
207.4122966671682
 30
0.0
 10
207.2322904280639
 20
207.4122966671682
 30
0.0
 10
206.9211337102055
 20
207.4122966671682
 30
0.0
 10
206.625156944329
 20
207.410531055732
 30
0.0
 10
206.3143662678659
 20
207.4059447723672
 30
0.0
 10
205.0133044260145
 20
207.3883101898521
 30
0.0
 10
203.7500094434201
 20
207.3117644745392
 30
0.0
 10
202.4521558467394
 20
207.1720443207656
 30
0.0
 10
201.3853389660382
 20
207.0588083385348
 30
0.0
 10
200.356999495538
 20
206.9021856850366
 30
0.0
 10
199.3096043406348
 20
206.6929822616948
 30
0.0
 10
198.3729690055825
 20
206.5077653156691
 30
0.0
 10
197.4723349183511
 20
206.2834034721922
 30
0.0
 10
196.5572314300816
 20
206.0075374512108
 30
0.0
 10
195.7543088635506
 20
205.7672851048082
 30
0.0
 10
194.9870215034451
 20
205.4924741443192
 30
0.0
 10
194.211961146651
 20
205.1682691273104
 30
0.0
 10
193.5423853072459
 20
204.8895824344004
 30
0.0
 10
192.909865776154
 20
204.5833780413021
 30
0.0
 10
192.2787458151031
 20
204.2319998336534
 30
0.0
 10
191.7407510913877
 20
203.9335469053968
 30
0.0
 10
191.2398126759856
 20
203.6146387226966
 30
0.0
 10
190.748046827313
 20
203.2562196011499
 30
0.0
 10
190.334936814938
 20
202.9570561219495
 30
0.0
 10
189.9549858466085
 20
202.6416791621217
 30
0.0
 10
189.5873941583323
 20
202.2924326073045
 30
0.0
 10
189.2254438139133
 20
201.9505930077806
 30
0.0
 10
188.9054805707207
 20
201.5921738862339
 30
0.0
 10
188.6091377634488
 20
201.196698456374
 30
0.0
 10
187.9977840377445
 20
200.3863689345497
 30
0.0
 10
187.6076054421931
 20
199.5097213246343
 30
0.0
 10
187.4171131937056
 20
198.5177060796566
 30
0.0
 10
187.3204567334976
 20
198.0033533237088
 30
0.0
 10
187.2731727979625
 20
197.4974841153934
 30
0.0
 10
187.2731727979625
 20
196.9700830602952
 30
0.0
 10
187.2731727979625
 20
196.9700830602952
 30
0.0
 10
187.2763595112864
 20
196.3982187415906
 30
0.0
 10
187.2763595112864
 20
196.3982187415906
 30
0.0
 10
187.2763595112864
 20
196.3982187415906
 30
0.0
 10
187.6164334993741
 20
196.0278063813858
 30
0.0
 10
187.6164334993741
 20
196.0278063813858
 30
0.0
 10
187.7095587367097
 20
195.9261975964177
 30
0.0
 10
187.8097464197902
 20
195.8260099133373
 30
0.0
 10
187.9198172205439
 20
195.724422660216
 30
0.0
 10
188.1720628056045
 20
195.4929983709943
 30
0.0
 10
188.4285286326346
 20
195.2795531738363
 30
0.0
 10
188.704394653616
 20
195.0714263428337
 30
0.0
 10
189.0282551610763
 20
194.8283533245025
 30
0.0
 10
189.3510390761974
 20
194.6039914810256
 30
0.0
 10
189.6911130642851
 20
194.3849264718573
 30
0.0
 10
190.1864101358301
 20
194.0670733496494
 30
0.0
 10
190.6781975163496
 20
193.7760273766862
 30
0.0
 10
191.1950049028306
 20
193.4938094609039
 30
0.0
 10
191.9249129769211
 20
193.0972789705516
 30
0.0
 10
192.647048054323
 20
192.7346180751887
 30
0.0
 10
193.402686685319
 20
192.3857375617668
 30
0.0
 10
194.505117240599
 20
191.8801913311532
 30
0.0
 10
195.5952100476724
 20
191.4212400169776
 30
0.0
 10
196.7360964813064
 20
190.9820334063018
 30
0.0
 10
197.9154172614478
 20
190.5287019041365
 30
0.0
 10
199.070062545176
 20
190.1124267102844
 30
0.0
 10
200.2670394396794
 20
189.7091998155826
 30
0.0
 10
201.5338656451461
 20
189.2834075454526
 30
0.0
 10
202.7714085389881
 20
188.8879321155927
 30
0.0
 10
204.0505724926614
 20
188.4998851728728
 30
0.0
 10
205.3068265613577
 20
188.1195896949948
 30
0.0
 10
206.534141827978
 20
187.7615150829967
 30
0.0
 10
207.803422663978
 20
187.4048615728862
 30
0.0
 10
209.7627561256734
 20
186.856639221949
 30
0.0
 10
211.6702193684691
 20
186.3415759150574
 30
0.0
 10
213.6348496644732
 20
185.8304098724335
 30
0.0
 10
215.8823868953567
 20
185.2451527450298
 30
0.0
 10
218.0974971649852
 20
184.6782407510852
 30
0.0
 10
220.4071322419903
 20
184.097203865651
 30
0.0
 10
220.4071322419903
 20
184.097203865651
 30
0.0
 10
220.5704512998379
 20
184.0552382962713
 30
0.0
 10
220.5704512998379
 20
184.0552382962713
 30
0.0
 10
222.706884201322
 20
183.4879602609314
 30
0.0
 10
224.7339353211494
 20
182.9454007856981
 30
0.0
 10
226.8594300444679
 20
182.370005244121
 30
0.0
 10
228.9404615041799
 20
181.8073350239926
 30
0.0
 10
230.9520096943237
 20
181.2488850458336
 30
0.0
 10
233.008710167171
 20
180.6625728579376
 30
0.0
 10
235.2795233244266
 20
180.0173387713205
 30
0.0
 10
237.4805087025657
 20
179.3632981593692
 30
0.0
 10
239.7372400320254
 20
178.6626733969033
 30
0.0
 10
242.0842543950453
 20
177.9366625870805
 30
0.0
 10
244.3557996350916
 20
177.190885541911
 30
0.0
 10
246.6813036831756
 20
176.3826769069948
 30
0.0
 10
248.7658663657599
 20
175.6598312786491
 30
0.0
 10
250.7759934540161
 20
174.9179407318239
 30
0.0
 10
252.8263420320625
 20
174.1146628898209
 30
0.0
 10
254.8855186672899
 20
173.3092749268332
 30
0.0
 10
256.8670729948653
 20
172.4788346601138
 30
0.0
 10
258.8842409970194
 20
171.5757244105023
 30
0.0
 10
261.0820611936814
 20
170.5946473436903
 30
0.0
 10
263.1881341912017
 20
169.5733595530114
 30
0.0
 10
265.3234905003467
 20
168.4536389247648
 30
0.0
 10
267.5925595780129
 20
167.2669004234068
 30
0.0
 10
269.7483926734483
 20
166.027936427677
 30
0.0
 10
271.9151424152026
 20
164.6651643129461
 30
0.0
 10
273.8275579827584
 20
163.4650114710424
 30
0.0
 10
275.6369651953052
 20
162.2242926297998
 30
0.0
 10
277.4474059364976
 20
160.8724479273112
 30
0.0
 10
279.4783543205927
 20
159.3586729710924
 30
0.0
 10
281.3738243247303
 20
157.790583931364
 30
0.0
 10
283.2424871796234
 20
156.078543729969
 30
0.0
 10
285.4247829147549
 20
154.0814757067867
 30
0.0
 10
287.410923525695
 20
152.0103165988247
 30
0.0
 10
289.3145110360698
 20
149.7472441404874
 30
0.0
 10
292.4464688735572
 20
146.026853228196
 30
0.0
 10
295.0411425382732
 20
142.1120728031493
 30
0.0
 10
297.2470587093254
 20
137.7785517877939
 30
0.0
 10
298.6948600870016
 20
134.9284673565402
 30
0.0
 10
299.8883057586326
 20
132.0698993776542
 30
0.0
 10
300.8958454651406
 20
129.0395395592115
 30
0.0
 10
301.7428652538829
 20
126.4857871693063
 30
0.0
 10
302.4180824371451
 20
123.9630729365385
 30
0.0
 10
302.9606634442251
 20
121.3278225065604
 30
0.0
 10
303.4312634875103
 20
119.0319462796495
 30
0.0
 10
303.783330714256
 20
116.7836984978223
 30
0.0
 10
304.0376864203014
 20
114.4542971854706
 30
0.0
 10
304.3400150809788
 20
111.6504200974129
 30
0.0
 10
304.4952381644361
 20
108.9167475957905
 30
0.0
 10
304.5121837278542
 20
106.0970015366539
 30
0.0
 10
304.5139278074436
 20
105.8842668904397
 30
0.0
 10
304.5146383583874
 20
105.6789499654422
 30
0.0
 10
304.5146383583874
 20
105.4641159641667
 30
0.0
 10
304.5146383583874
 20
102.4958432259222
 30
0.0
 10
304.3622359468587
 20
99.61717526806445
 30
0.0
 10
304.048624598467
 20
96.66336116493464
 30
0.0
 10
303.6845641330633
 20
93.21990210004029
 30
0.0
 10
303.11235530481
 20
89.91226054169024
 30
0.0
 10
302.2992051110572
 20
86.55099391892758
 30
0.0
 10
301.3996045524713
 20
82.81789921703424
 30
0.0
 10
300.2502561030516
 20
79.27706775802633
 30
0.0
 10
298.7858752033526
 20
75.72565339632466
 30
0.0
 10
296.0733792730412
 20
69.13788259685127
 30
0.0
 10
292.5537190023824
 20
63.26201386459628
 30
0.0
 10
288.0254639647233
 20
57.76185432685457
 30
0.0
 10
285.5034387510526
 20
54.70327164024128
 30
0.0
 10
282.8255014348275
 20
51.95054883717784
 30
0.0
 10
279.8388835631241
 20
49.34598667182691
 30
0.0
 10
277.3278180594658
 20
47.15947069472597
 30
0.0
 10
274.7596070344459
 20
45.20155295195645
 30
0.0
 10
271.9874678885461
 20
43.36041048873265
 30
0.0
 10
269.221702169294
 20
41.52702218183152
 30
0.0
 10
266.4358041732999
 20
39.91271234150295
 30
0.0
 10
263.4707181483793
 20
38.42504744098917
 30
0.0
 10
260.7762013101314
 20
37.07602610190992
 30
0.0
 10
258.0993190543988
 20
35.89809950884774
 30
0.0
 10
255.2880350110478
 20
34.82389182173836
 30
0.0
 10
252.551875581122
 20
33.78178811818216
 30
0.0
 10
249.8527724595095
 20
32.88643740785506
 30
0.0
 10
247.0372681741891
 20
32.08668809724363
 30
0.0
 10
244.1176789415205
 20
31.26013163738761
 30
0.0
 10
241.2513594977927
 20
30.57292121546739
 30
0.0
 10
238.274969253311
 20
29.98519330864547
 30
0.0
 10
235.3701939312291
 20
29.41475009182844
 30
0.0
 10
232.5306816367458
 20
28.95966643563118
 30
0.0
 10
229.5938023311107
 20
28.59419025130143
 30
0.0
 10
226.5398113108239
 20
28.21636555284174
 30
0.0
 10
223.5644761268346
 20
27.94613549275577
 30
0.0
 10
220.4988363774382
 20
27.76692593198243
 30
0.0
 10
217.3891209376775
 20
27.58806626371931
 30
0.0
 10
214.3668678595485
 20
27.50093226275096
 30
0.0
 10
211.259607050321
 20
27.50093226275096
 30
0.0
  0
LINE
  5
81
330
79
100
AcDbEntity
  8
レイヤー 1
 62
    29
370
    25
100
AcDbLine
 10
0.0
 20
148.5000011496697
 30
0.0
 11
2.645833332671875
 21
148.5000011496697
 31
0.0
  0
LWPOLYLINE
  5
82
330
79
100
AcDbEntity
  8
レイヤー 1
100
AcDbPolyline
 90
        4
 70
     1
 43
0.0
 10
0.0
 20
297.0000884267266
 10
419.9999449633593
 20
297.0000884267266
 10
419.9999449633593
 20
0.0
 10
0.0
 20
0.0
  0
ENDBLK
  5
7C
330
79
100
AcDbEntity
  8
0
100
AcDbBlockEnd
  0
BLOCK
  5
89
330
87
100
AcDbEntity
  8
0
100
AcDbBlockBegin
  2
Block_1
 70
     0
 10
0.0
 20
0.0
 30
0.0
  3
Block_1
  1

  0
LINE
  5
8B
330
87
100
AcDbEntity
  8
レイヤー 1
 62
    29
370
    25
100
AcDbLine
 10
417.3541546943811
 20
148.5000011496697
 30
0.0
 11
419.9999880270529
 21
148.5000011496697
 31
0.0
  0
LINE
  5
8C
330
87
100
AcDbEntity
  8
レイヤー 1
  6
AI-Linetype-2
 62
    29
370
    25
100
AcDbLine
 10
209.9999940135265
 20
297.0000022993394
 30
0.0
 11
209.9999940135265
 21
-0.0000861273871312
 31
0.0
  0
LINE
  5
8E
330
87
100
AcDbEntity
  8
レイヤー 1
 62
    29
370
    25
100
AcDbLine
 10
0.0
 20
248.4999911216858
 30
0.0
 11
0.3527777776895833
 21
248.4999911216858
 31
0.0
  0
LWPOLYLINE
  5
8F
330
87
100
AcDbEntity
  8
レイヤー 1
100
AcDbPolyline
 90
        4
 70
     1
 43
0.0
 10
0.0
 20
297.0000884267266
 10
419.9999449633593
 20
297.0000884267266
 10
419.9999449633593
 20
0.0
 10
0.0
 20
0.0
  0
ENDBLK
  5
8A
330
87
100
AcDbEntity
  8
0
100
AcDbBlockEnd
  0
BLOCK
  5
96
330
94
100
AcDbEntity
  8
0
100
AcDbBlockBegin
  2
Block_2
 70
     0
 10
0.0
 20
0.0
 30
0.0
  3
Block_2
  1

  0
LINE
  5
98
330
94
100
AcDbEntity
  8
レイヤー 1
 62
    29
370
    25
100
AcDbLine
 10
419.6472102493634
 20
248.4999911216858
 30
0.0
 11
419.9999880270529
 21
248.4999911216858
 31
0.0
  0
LINE
  5
99
330
94
100
AcDbEntity
  8
レイヤー 1
 62
    29
370
    25
100
AcDbLine
 10
0.0
 20
48.49999502876856
 30
0.0
 11
0.3527777776895833
 21
48.49999502876856
 31
0.0
  0
LWPOLYLINE
  5
9A
330
94
100
AcDbEntity
  8
レイヤー 1
100
AcDbPolyline
 90
        4
 70
     1
 43
0.0
 10
0.0
 20
297.0000884267266
 10
419.9999449633593
 20
297.0000884267266
 10
419.9999449633593
 20
0.0
 10
0.0
 20
0.0
  0
ENDBLK
  5
97
330
94
100
AcDbEntity
  8
0
100
AcDbBlockEnd
  0
BLOCK
  5
A1
330
9F
100
AcDbEntity
  8
0
100
AcDbBlockBegin
  2
Block_3
 70
     0
 10
0.0
 20
0.0
 30
0.0
  3
Block_3
  1

  0
LINE
  5
A3
330
9F
100
AcDbEntity
  8
レイヤー 1
 62
    29
370
    25
100
AcDbLine
 10
419.6472102493634
 20
48.49999502876856
 30
0.0
 11
419.9999880270529
 21
48.49999502876856
 31
0.0
  0
LINE
  5
A4
330
9F
100
AcDbEntity
  8
レイヤー 1
 62
    29
370
    18
100
AcDbLine
 10
0.0
 20
270.923816189322
 30
0.0
 11
419.9999449633593
 21
270.923816189322
 31
0.0
  0
LWPOLYLINE
  5
A5
330
9F
100
AcDbEntity
  8
レイヤー 1
100
AcDbPolyline
 90
        4
 70
     1
 43
0.0
 10
0.0
 20
297.0000884267266
 10
419.9999449633593
 20
297.0000884267266
 10
419.9999449633593
 20
0.0
 10
0.0
 20
0.0
  0
ENDBLK
  5
A2
330
9F
100
AcDbEntity
  8
0
100
AcDbBlockEnd
  0
BLOCK
  5
AA
330
A8
100
AcDbEntity
  8
0
100
AcDbBlockBegin
  2
Block_4
 70
     0
 10
0.0
 20
0.0
 30
0.0
  3
Block_4
  1

  0
SPLINE
  5
AC
330
A8
100
AcDbEntity
  8
レイヤー 1
  6
AI-Linetype-7
 62
   255
370
    18
100
AcDbSpline
210
0.0
220
0.0
230
1.0
 70
     9
 71
     3
 72
   461
 73
   457
 74
     0
 42
0.0000000001
 43
0.0000000001
 40
0.0
 40
0.0
 40
0.0
 40
0.0
 40
1.0
 40
1.0
 40
1.0
 40
2.0
 40
2.0
 40
2.0
 40
3.0
 40
3.0
 40
3.0
 40
4.0
 40
4.0
 40
4.0
 40
5.0
 40
5.0
 40
5.0
 40
6.0
 40
6.0
 40
6.0
 40
7.0
 40
7.0
 40
7.0
 40
8.0
 40
8.0
 40
8.0
 40
9.0
 40
9.0
 40
9.0
 40
10.0
 40
10.0
 40
10.0
 40
11.0
 40
11.0
 40
11.0
 40
12.0
 40
12.0
 40
12.0
 40
13.0
 40
13.0
 40
13.0
 40
14.0
 40
14.0
 40
14.0
 40
15.0
 40
15.0
 40
15.0
 40
16.0
 40
16.0
 40
16.0
 40
17.0
 40
17.0
 40
17.0
 40
18.0
 40
18.0
 40
18.0
 40
19.0
 40
19.0
 40
19.0
 40
20.0
 40
20.0
 40
20.0
 40
21.0
 40
21.0
 40
21.0
 40
22.0
 40
22.0
 40
22.0
 40
23.0
 40
23.0
 40
23.0
 40
24.0
 40
24.0
 40
24.0
 40
25.0
 40
25.0
 40
25.0
 40
26.0
 40
26.0
 40
26.0
 40
27.0
 40
27.0
 40
27.0
 40
28.0
 40
28.0
 40
28.0
 40
29.0
 40
29.0
 40
29.0
 40
30.0
 40
30.0
 40
30.0
 40
31.0
 40
31.0
 40
31.0
 40
32.0
 40
32.0
 40
32.0
 40
33.0
 40
33.0
 40
33.0
 40
34.0
 40
34.0
 40
34.0
 40
35.0
 40
35.0
 40
35.0
 40
36.0
 40
36.0
 40
36.0
 40
37.0
 40
37.0
 40
37.0
 40
38.0
 40
38.0
 40
38.0
 40
39.0
 40
39.0
 40
39.0
 40
40.0
 40
40.0
 40
40.0
 40
41.0
 40
41.0
 40
41.0
 40
42.0
 40
42.0
 40
42.0
 40
43.0
 40
43.0
 40
43.0
 40
44.0
 40
44.0
 40
44.0
 40
45.0
 40
45.0
 40
45.0
 40
46.0
 40
46.0
 40
46.0
 40
47.0
 40
47.0
 40
47.0
 40
48.0
 40
48.0
 40
48.0
 40
49.0
 40
49.0
 40
49.0
 40
50.0
 40
50.0
 40
50.0
 40
51.0
 40
51.0
 40
51.0
 40
52.0
 40
52.0
 40
52.0
 40
53.0
 40
53.0
 40
53.0
 40
54.0
 40
54.0
 40
54.0
 40
55.0
 40
55.0
 40
55.0
 40
56.0
 40
56.0
 40
56.0
 40
57.0
 40
57.0
 40
57.0
 40
58.0
 40
58.0
 40
58.0
 40
59.0
 40
59.0
 40
59.0
 40
60.0
 40
60.0
 40
60.0
 40
61.0
 40
61.0
 40
61.0
 40
62.0
 40
62.0
 40
62.0
 40
63.0
 40
63.0
 40
63.0
 40
64.0
 40
64.0
 40
64.0
 40
65.0
 40
65.0
 40
65.0
 40
66.0
 40
66.0
 40
66.0
 40
67.0
 40
67.0
 40
67.0
 40
68.0
 40
68.0
 40
68.0
 40
69.0
 40
69.0
 40
69.0
 40
70.0
 40
70.0
 40
70.0
 40
71.0
 40
71.0
 40
71.0
 40
72.0
 40
72.0
 40
72.0
 40
73.0
 40
73.0
 40
73.0
 40
74.0
 40
74.0
 40
74.0
 40
75.0
 40
75.0
 40
75.0
 40
76.0
 40
76.0
 40
76.0
 40
77.0
 40
77.0
 40
77.0
 40
78.0
 40
78.0
 40
78.0
 40
79.0
 40
79.0
 40
79.0
 40
80.0
 40
80.0
 40
80.0
 40
81.0
 40
81.0
 40
81.0
 40
82.0
 40
82.0
 40
82.0
 40
83.0
 40
83.0
 40
83.0
 40
84.0
 40
84.0
 40
84.0
 40
85.0
 40
85.0
 40
85.0
 40
86.0
 40
86.0
 40
86.0
 40
87.0
 40
87.0
 40
87.0
 40
88.0
 40
88.0
 40
88.0
 40
89.0
 40
89.0
 40
89.0
 40
90.0
 40
90.0
 40
90.0
 40
91.0
 40
91.0
 40
91.0
 40
92.0
 40
92.0
 40
92.0
 40
93.0
 40
93.0
 40
93.0
 40
94.0
 40
94.0
 40
94.0
 40
95.0
 40
95.0
 40
95.0
 40
96.0
 40
96.0
 40
96.0
 40
97.0
 40
97.0
 40
97.0
 40
98.0
 40
98.0
 40
98.0
 40
99.0
 40
99.0
 40
99.0
 40
100.0
 40
100.0
 40
100.0
 40
101.0
 40
101.0
 40
101.0
 40
102.0
 40
102.0
 40
102.0
 40
103.0
 40
103.0
 40
103.0
 40
104.0
 40
104.0
 40
104.0
 40
105.0
 40
105.0
 40
105.0
 40
106.0
 40
106.0
 40
106.0
 40
107.0
 40
107.0
 40
107.0
 40
108.0
 40
108.0
 40
108.0
 40
109.0
 40
109.0
 40
109.0
 40
110.0
 40
110.0
 40
110.0
 40
111.0
 40
111.0
 40
111.0
 40
112.0
 40
112.0
 40
112.0
 40
113.0
 40
113.0
 40
113.0
 40
114.0
 40
114.0
 40
114.0
 40
115.0
 40
115.0
 40
115.0
 40
116.0
 40
116.0
 40
116.0
 40
117.0
 40
117.0
 40
117.0
 40
118.0
 40
118.0
 40
118.0
 40
119.0
 40
119.0
 40
119.0
 40
120.0
 40
120.0
 40
120.0
 40
121.0
 40
121.0
 40
121.0
 40
122.0
 40
122.0
 40
122.0
 40
123.0
 40
123.0
 40
123.0
 40
124.0
 40
124.0
 40
124.0
 40
125.0
 40
125.0
 40
125.0
 40
126.0
 40
126.0
 40
126.0
 40
127.0
 40
127.0
 40
127.0
 40
128.0
 40
128.0
 40
128.0
 40
129.0
 40
129.0
 40
129.0
 40
130.0
 40
130.0
 40
130.0
 40
131.0
 40
131.0
 40
131.0
 40
132.0
 40
132.0
 40
132.0
 40
133.0
 40
133.0
 40
133.0
 40
134.0
 40
134.0
 40
134.0
 40
135.0
 40
135.0
 40
135.0
 40
136.0
 40
136.0
 40
136.0
 40
137.0
 40
137.0
 40
137.0
 40
138.0
 40
138.0
 40
138.0
 40
139.0
 40
139.0
 40
139.0
 40
140.0
 40
140.0
 40
140.0
 40
141.0
 40
141.0
 40
141.0
 40
142.0
 40
142.0
 40
142.0
 40
143.0
 40
143.0
 40
143.0
 40
144.0
 40
144.0
 40
144.0
 40
145.0
 40
145.0
 40
145.0
 40
146.0
 40
146.0
 40
146.0
 40
147.0
 40
147.0
 40
147.0
 40
148.0
 40
148.0
 40
148.0
 40
149.0
 40
149.0
 40
149.0
 40
150.0
 40
150.0
 40
150.0
 40
151.0
 40
151.0
 40
151.0
 40
152.0
 40
152.0
 40
152.0
 40
152.0
 10
211.2596931777081
 20
37.50098401297718
 30
0.0
 10
214.1933857700194
 20
37.50098401297718
 30
0.0
 10
216.9898559027838
 20
37.58141622663438
 30
0.0
 10
219.9189622117303
 20
37.75004288471397
 30
0.0
 10
222.7852816554582
 20
37.9176144823012
 30
0.0
 10
225.5119024772592
 20
38.16561560206477
 30
0.0
 10
228.3616423989643
 20
38.51804079576329
 30
0.0
 10
231.0780355935434
 20
38.85600197138545
 30
0.0
 10
233.6557852266881
 20
39.26910390931793
 30
0.0
 10
236.3418400491502
 20
39.79686023988803
 30
0.0
 10
239.0645636066835
 20
40.33414172117868
 30
0.0
 10
241.6391480583511
 20
40.95150283213544
 30
0.0
 10
244.3093123778875
 20
41.70715222905482
 30
0.0
 10
246.8542474765351
 20
42.42999516591974
 30
0.0
 10
249.2506774279217
 20
43.22515550168557
 30
0.0
 10
251.7229425436774
 20
44.16707152216136
 30
0.0
 10
254.235063107828
 20
45.12662750811396
 30
0.0
 10
256.5845751650748
 20
46.16061908839474
 30
0.0
 10
258.989467132247
 20
47.36464766271939
 30
0.0
 10
261.6031964813657
 20
48.67592098290752
 30
0.0
 10
264.0200816871959
 20
50.07644919097209
 30
0.0
 10
266.4577666570184
 20
51.6921720587458
 30
0.0
 10
268.8749963723972
 20
53.29801719180788
 30
0.0
 10
271.0802235243523
 20
54.97935836265219
 30
0.0
 10
273.268849622438
 20
56.88471148446318
 30
0.0
 10
275.8472882746797
 20
59.13366981723427
 30
0.0
 10
278.1304822438354
 20
61.48070032913937
 30
0.0
 10
280.3074596128116
 20
64.12018176701032
 30
0.0
 10
284.1862495559608
 20
68.83223803176926
 30
0.0
 10
287.2169646498755
 20
73.89248040789135
 30
0.0
 10
289.5403585769747
 20
79.53621968294256
 30
0.0
 10
290.8121371072015
 20
82.61984929032594
 30
0.0
 10
291.797434415983
 20
85.6551506676053
 30
0.0
 10
292.5788466675779
 20
88.8978844738286
 30
0.0
 10
293.2914646687019
 20
91.8456965746677
 30
0.0
 10
293.7857066797545
 20
94.70177762525034
 30
0.0
 10
294.1042488210594
 20
97.7176788085784
 30
0.0
 10
294.3818804534771
 20
100.3307083726766
 30
0.0
 10
294.5148826710545
 20
102.8361325324778
 30
0.0
 10
294.5148826710545
 20
105.4639760071626
 30
0.0
 10
294.5148826710545
 20
105.6558893575378
 30
0.0
 10
294.5141721201106
 20
105.8382748657116
 30
0.0
 10
294.5124280405212
 20
106.0301774501634
 30
0.0
 10
294.4975925980878
 20
108.5222088012657
 30
0.0
 10
294.362846300921
 20
110.897451415418
 30
0.0
 10
294.0957868052738
 20
113.3753686409541
 30
0.0
 10
293.8749561846693
 20
115.3999543643249
 30
0.0
 10
293.5743716035812
 20
117.3197768871739
 30
0.0
 10
293.1655033650224
 20
119.3147347893716
 30
0.0
 10
292.7005446655944
 20
121.5725104134003
 30
0.0
 10
292.1311780411165
 20
123.6994047067596
 30
0.0
 10
291.4058562503907
 20
125.8873417857482
 30
0.0
 10
290.5531951177914
 20
128.4513325687986
 30
0.0
 10
289.5576486499413
 20
130.8357585156038
 30
0.0
 10
288.3338646061935
 20
133.2445154492735
 30
0.0
 10
286.4754293785222
 20
136.8950678165249
 30
0.0
 10
284.3009066400793
 20
140.1758968426687
 30
0.0
 10
281.6624802627007
 20
143.3089205065718
 30
0.0
 10
280.0326486523226
 20
145.2474326724283
 30
0.0
 10
278.3573202496924
 20
146.9940314879097
 30
0.0
 10
276.4886573947993
 20
148.7035955269246
 30
0.0
 10
274.8609359054059
 20
150.1951388513401
 30
0.0
 10
273.2370901484334
 20
151.5385215380431
 30
0.0
 10
271.4668493651845
 20
152.8579069815066
 30
0.0
 10
269.863824904051
 20
154.0552391514818
 30
0.0
 10
268.2897392449935
 20
155.1343830144662
 30
0.0
 10
266.5949891165652
 20
156.1980024159201
 30
0.0
 10
264.639897428686
 20
157.4270832939766
 30
0.0
 10
262.7296135139617
 20
158.5252828413637
 30
0.0
 10
260.6831406683362
 20
159.5956094130905
 30
0.0
 10
258.7231181875436
 20
160.6236043740422
 30
0.0
 10
256.8234064095897
 20
161.5447044816407
 30
0.0
 10
254.8023411431679
 20
162.4467596707598
 30
0.0
 10
252.918498336293
 20
163.2902482366297
 30
0.0
 10
251.1034713117358
 20
164.0508391923857
 30
0.0
 10
249.1811726265068
 20
164.8026128568842
 30
0.0
 10
247.2380741772855
 20
165.5635483221887
 30
0.0
 10
245.372231994321
 20
166.2525243555452
 30
0.0
 10
243.400560784419
 20
166.9362143205164
 30
0.0
 10
241.1702920946554
 20
167.711619186859
 30
0.0
 10
239.0321151135818
 20
168.4132882438938
 30
0.0
 10
236.7764603764613
 20
169.1107262930359
 30
0.0
 10
234.5814608517279
 20
169.792295371099
 30
0.0
 10
232.4817397490085
 20
170.4167189278005
 30
0.0
 10
230.2708712531962
 20
171.0446629414511
 30
0.0
 10
228.2353581175831
 20
171.624978510018
 30
0.0
 10
226.291549117418
 20
172.1647280792461
 30
0.0
 10
224.2482629851163
 20
172.7171814380761
 30
0.0
 10
222.145355169073
 20
173.2862143189289
 30
0.0
 10
220.1398143641816
 20
173.823487725777
 30
0.0
 10
218.034064344363
 20
174.381937703936
 30
0.0
 10
218.034064344363
 20
174.381937703936
 30
0.0
 10
217.9366973332112
 20
174.4069792417444
 30
0.0
 10
217.9366973332112
 20
174.4069792417444
 30
0.0
 10
215.6249521352214
 20
174.9890711876709
 30
0.0
 10
213.4239667570824
 20
175.5520966832712
 30
0.0
 10
211.1168078424574
 20
176.1525337626567
 30
0.0
 10
209.0749212801966
 20
176.6838105501758
 30
0.0
 10
207.1335884424115
 20
177.2080356578735
 30
0.0
 10
205.101584997824
 20
177.7767132632544
 30
0.0
 10
203.7596341789321
 20
178.1538327937319
 30
0.0
 10
202.4843459576797
 20
178.5260215312962
 30
0.0
 10
201.1497805622343
 20
178.9295929355465
 30
0.0
 10
199.7644215402281
 20
179.3501099032148
 30
0.0
 10
198.4499668896779
 20
179.7702608294877
 30
0.0
 10
197.0776561668222
 20
180.2313437964949
 30
0.0
 10
195.7357053479302
 20
180.6832434308491
 30
0.0
 10
194.4660584705349
 20
181.1411612163792
 30
0.0
 10
193.1445413742399
 20
181.6491620775261
 30
0.0
 10
191.7986932910802
 20
182.1670245244995
 30
0.0
 10
190.531522576065
 20
182.7011435157939
 30
0.0
 10
189.2205991483871
 20
183.3022696142764
 30
0.0
 10
188.2543359921617
 20
183.7481726293017
 30
0.0
 10
187.3473500101293
 20
184.2032697429032
 30
0.0
 10
186.4124802865132
 20
184.7116151135986
 30
0.0
 10
185.6755312985247
 20
185.1134209064126
 30
0.0
 10
184.9872658161121
 20
185.521234084479
 30
0.0
 10
184.2809997097891
 20
185.9745655866444
 30
0.0
 10
183.7296121773749
 20
186.329819526714
 30
0.0
 10
183.2163144819194
 20
186.6871835877683
 30
0.0
 10
182.6921001401451
 20
187.0808718743452
 30
0.0
 10
182.1488085821212
 20
187.489740112904
 30
0.0
 10
181.6499802877038
 20
187.9049602462638
 30
0.0
 10
181.1493863818502
 20
188.3649881527785
 30
0.0
 10
180.618464869803
 20
188.8539333295226
 30
0.0
 10
180.1450441545894
 20
189.3555822958686
 30
0.0
 10
179.6874924104546
 20
189.9140322740276
 30
0.0
 10
179.2359372856489
 20
190.467185417878
 30
0.0
 10
178.8542314718066
 20
191.035152472315
 30
0.0
 10
178.5127363818312
 20
191.6627412104936
 30
0.0
 10
177.9645247968175
 20
192.6812190951673
 30
0.0
 10
177.6071607357631
 20
193.7448492625447
 30
0.0
 10
177.4293615109541
 20
194.8878458171634
 30
0.0
 10
177.3281080014579
 20
195.5267172430562
 30
0.0
 10
177.2776588844457
 20
196.1433893349159
 30
0.0
 10
177.2741384274968
 20
196.7900337574974
 30
0.0
 10
177.273427876553
 20
196.8510550112798
 30
0.0
 10
177.2730833670044
 20
196.9089110835852
 30
0.0
 10
177.2730833670044
 20
196.9699323373678
 30
0.0
 10
177.2730833670044
 20
198.1348052483178
 30
0.0
 10
177.3775020579777
 20
199.2460638607788
 30
0.0
 10
177.5937571611408
 20
200.3904815172852
 30
0.0
 10
178.0714088842473
 20
202.8870776199054
 30
0.0
 10
179.0849452100844
 20
205.1730707291429
 30
0.0
 10
180.6142338619102
 20
207.2033085622942
 30
0.0
 10
181.2538158387468
 20
208.0559912267403
 30
0.0
 10
181.93290875443
 20
208.8172712015934
 30
0.0
 10
182.7072585602802
 20
209.5492893966687
 30
0.0
 10
183.3980002050728
 20
210.2051063859796
 30
0.0
 10
184.0982589261434
 20
210.7868322905108
 30
0.0
 10
184.8694435505166
 20
211.3459928196136
 30
0.0
 10
185.6981182057998
 20
211.9488845295323
 30
0.0
 10
186.5239721891546
 20
212.4752305241381
 30
0.0
 10
187.4200199930213
 20
212.9719486975708
 30
0.0
 10
188.3866276587952
 20
213.5102879308347
 30
0.0
 10
189.3377108630388
 20
213.9710048564465
 30
0.0
 10
190.3590094196411
 20
214.3961081074795
 30
0.0
 10
191.4603849144287
 20
214.8568250330914
 30
0.0
 10
192.533532158084
 20
215.2409962433903
 30
0.0
 10
193.6772392636467
 20
215.5839124352533
 30
0.0
 10
194.9080857531393
 20
215.9546693050066
 30
0.0
 10
196.0983447114463
 20
216.2513566218269
 30
0.0
 10
197.3591850635074
 20
216.500781534959
 30
0.0
 10
198.7124401019603
 20
216.770640170688
 30
0.0
 10
200.0141909629088
 20
216.9692714572594
 30
0.0
 10
201.3865016857645
 20
217.1149559325919
 30
0.0
 10
203.0018638951046
 20
217.2888901909035
 30
0.0
 10
204.5498529558612
 20
217.382725979183
 30
0.0
 10
206.1743877319308
 20
217.4049468450628
 30
0.0
 10
206.5324623439289
 20
217.4098776379761
 30
0.0
 10
206.8739574339043
 20
217.4123538003561
 30
0.0
 10
207.2320105140557
 20
217.4123538003561
 30
0.0
 10
207.7079073916494
 20
217.4123538003561
 30
0.0
 10
208.1615834033633
 20
217.4081120265399
 30
0.0
 10
208.637480280957
 20
217.3993055012057
 30
0.0
 10
212.0841260591752
 20
217.3396838174642
 30
0.0
 10
215.3670652063036
 20
217.0863831719112
 30
0.0
 10
218.781973042364
 20
216.6161276381745
 30
0.0
 10
222.0194153972404
 20
216.1684590117131
 30
0.0
 10
225.0797583123282
 20
215.550042840264
 30
0.0
 10
228.2371237290193
 20
214.7054992139018
 30
0.0
 10
230.9933723719934
 20
213.9660740635332
 30
0.0
 10
233.5802945718675
 20
213.1066949947377
 30
0.0
 10
236.2317692483965
 20
212.0501272731051
 30
0.0
 10
239.3686578787971
 20
210.798114978225
 30
0.0
 10
242.271667589443
 20
209.381018014061
 30
0.0
 10
245.1884361501829
 20
207.6774613602985
 30
0.0
 10
249.7308160793316
 20
205.0189242380248
 30
0.0
 10
253.7574221506448
 20
201.9490427148122
 30
0.0
 10
257.5240311720556
 20
198.2727382588086
 30
0.0
 10
259.4537152807312
 20
196.418200295405
 30
0.0
 10
262.0177060637816
 20
195.3856190510885
 30
0.0
 10
264.694222278119
 20
195.3856190510885
 30
0.0
 10
265.6791750773519
 20
195.3856190510885
 30
0.0
 10
266.6203966957689
 20
195.5189657782144
 30
0.0
 10
267.5668936166478
 20
195.7923771686626
 30
0.0
 10
269.6722775950711
 20
196.3994891205507
 30
0.0
 10
271.5042501830463
 20
197.6356324443519
 30
0.0
 10
272.855739610063
 20
199.3603549035019
 30
0.0
 10
272.855739610063
 20
199.3603549035019
 30
0.0
 10
286.9093606867362
 20
217.2920553723805
 30
0.0
 10
286.9093606867362
 20
217.2920553723805
 30
0.0
 10
288.3462238862468
 20
219.1251045526949
 30
0.0
 10
289.1177314883217
 20
221.3599379939764
 30
0.0
 10
289.1177314883217
 20
223.6893393063281
 30
0.0
 10
289.1177314883217
 20
226.5111954864495
 30
0.0
 10
287.967694019805
 20
229.2110091590058
 30
0.0
 10
285.9332144128375
 20
231.1664668882805
 30
0.0
 10
280.4274135312386
 20
236.4835196009811
 30
0.0
 10
274.570944992935
 20
240.9394706971436
 30
0.0
 10
267.9778935080381
 20
244.8274332070223
 30
0.0
 10
264.6459048139384
 20
246.7913314202358
 30
0.0
 10
261.3590684025421
 20
248.4769089819346
 30
0.0
 10
257.8203524474807
 20
250.0368912813493
 30
0.0
 10
254.587496375969
 20
251.4642374045819
 30
0.0
 10
251.435772303135
 20
252.6668556429422
 30
0.0
 10
248.0741557878621
 20
253.7565824086203
 30
0.0
 10
244.900921400092
 20
254.7870535319521
 30
0.0
 10
241.8317504278233
 20
255.633018260202
 30
0.0
 10
238.578439101868
 20
256.3731324296676
 30
0.0
 10
235.2238850323399
 20
257.1383096687883
 30
0.0
 10
231.9949046932491
 20
257.7306292419367
 30
0.0
 10
228.5874253443288
 20
258.2058155685865
 30
0.0
 10
225.298478811948
 20
258.6665540260451
 30
0.0
 10
222.1471207805092
 20
258.9879168392786
 30
0.0
 10
218.8327666689246
 20
259.199940934549
 30
0.0
 10
215.7029189524219
 20
259.4027924630899
 30
0.0
 10
212.71348040879
 20
259.4994489232979
 30
0.0
 10
209.5769362879378
 20
259.4994489232979
 30
0.0
 10
209.2146199021235
 20
259.4994489232979
 30
0.0
 10
208.8696151211224
 20
259.4983938628055
 30
0.0
 10
208.5073202671548
 20
259.495573190877
 30
0.0
 10
206.3853567667088
 20
259.4793381784028
 30
0.0
 10
204.3635809493431
 20
259.407034236906
 30
0.0
 10
202.2462037322618
 20
259.2715558569486
 30
0.0
 10
199.7167930951446
 20
259.1096363691419
 30
0.0
 10
197.3112121088753
 20
258.8715156755708
 30
0.0
 10
194.7994145224264
 20
258.5338963180163
 30
0.0
 10
191.540461852614
 20
258.0936346468482
 30
0.0
 10
188.454366848774
 20
257.5214258185949
 30
0.0
 10
185.2546698213078
 20
256.7640215761628
 30
0.0
 10
182.177381342802
 20
256.0330584415798
 30
0.0
 10
179.2800345078601
 20
255.1846390827968
 30
0.0
 10
176.2948269721209
 20
254.1407536189193
 30
0.0
 10
173.4267419169569
 20
253.1349795238473
 30
0.0
 10
170.744573592839
 20
252.028328726598
 30
0.0
 10
168.0020730340357
 20
250.7188048689609
 30
0.0
 10
165.334018835484
 20
249.4417510362724
 30
0.0
 10
162.8599881082922
 20
248.0782683705976
 30
0.0
 10
160.3552637335114
 20
246.504893262484
 30
0.0
 10
157.6297087381262
 20
244.7893218382168
 30
0.0
 10
155.1415638853683
 20
242.9767494441929
 30
0.0
 10
152.6735297775054
 20
240.907711223139
 30
0.0
 10
150.3882364532883
 20
238.9882547416852
 30
0.0
 10
148.3336568673491
 20
237.0095210860384
 30
0.0
 10
146.3295263984219
 20
234.7983080806776
 30
0.0
 10
144.1669968986371
 20
232.4078855145434
 30
0.0
 10
142.2821097971931
 20
229.9666693218486
 30
0.0
 10
140.5171658482529
 20
227.2696763212208
 30
0.0
 10
138.196947868554
 20
223.7193116370498
 30
0.0
 10
136.3480297171608
 20
220.0917122184689
 30
0.0
 10
134.8388518102302
 20
216.1278930123743
 30
0.0
 10
133.2866317415807
 20
212.0451964801918
 30
0.0
 10
132.2367604242976
 20
207.9840102629454
 30
0.0
 10
131.6162233659403
 20
203.6603723652633
 30
0.0
 10
131.2235901398558
 20
200.9418690496994
 30
0.0
 10
131.0217936718073
 20
198.3242639681598
 30
0.0
 10
130.9921658506341
 20
195.5778769110122
 30
0.0
 10
130.9886346277617
 20
195.2875414889928
 30
0.0
 10
130.9868690163255
 20
195.010620407519
 30
0.0
 10
130.9868690163255
 20
194.7202849854996
 30
0.0
 10
130.9868690163255
 20
192.3319725403501
 30
0.0
 10
131.1039914969006
 20
190.0547859564468
 30
0.0
 10
131.3488193607446
 20
187.6788327913507
 30
0.0
 10
131.5142700714237
 20
186.0821602250181
 30
0.0
 10
131.7305251745869
 20
184.5662751478146
 30
0.0
 10
132.0190949851701
 20
182.9876032053924
 30
0.0
 10
132.3436552776508
 20
181.2159413202559
 30
0.0
 10
132.7324127713145
 20
179.5413127026461
 30
0.0
 10
133.221368713982
 20
177.8077621863152
 30
0.0
 10
133.8605954153467
 20
175.5492760113427
 30
0.0
 10
134.6137794158094
 20
173.4361405680776
 30
0.0
 10
135.546872762066
 20
171.2820730840783
 30
0.0
 10
137.4984439929962
 20
166.7926292002452
 30
0.0
 10
139.9869333553027
 20
162.7737853596972
 30
0.0
 10
143.1361812657567
 20
159.0258767472172
 30
0.0
 10
144.6076246112005
 20
157.2715049350474
 30
0.0
 10
146.1157474576388
 20
155.6861258223523
 30
0.0
 10
147.7949731245367
 20
154.1293194703381
 30
0.0
 10
149.4706675685622
 20
152.5728576278724
 30
0.0
 10
151.1505930204806
 20
151.1779815295883
 30
0.0
 10
152.9885622277847
 20
149.8173195358421
 30
0.0
 10
154.6632016113179
 20
148.5741245322195
 30
0.0
 10
156.3117336306269
 20
147.4593454628096
 30
0.0
 10
158.0893813691691
 20
146.3682083611673
 30
0.0
 10
160.0095484015666
 20
145.1867559281944
 30
0.0
 10
161.8849076608092
 20
144.1333641539623
 30
0.0
 10
163.8929246280806
 20
143.1088896499595
 30
0.0
 10
165.6448202778705
 20
142.2124865706209
 30
0.0
 10
167.3388598553549
 20
141.4063880566894
 30
0.0
 10
169.1394282447974
 20
140.6126380568879
 30
0.0
 10
170.7332801392014
 20
139.9084928374729
 30
0.0
 10
172.2664552893715
 20
139.2699659211287
 30
0.0
 10
173.8888799444564
 20
138.6342596767129
 30
0.0
 10
175.5487054174029
 20
137.9826736952949
 30
0.0
 10
177.1418467608632
 20
137.3903648880699
 30
0.0
 10
178.8245928847101
 20
136.8001662018297
 30
0.0
 10
180.9952398907321
 20
136.0367545741451
 30
0.0
 10
183.0776709204849
 20
135.3474232653168
 30
0.0
 10
185.2751250757515
 20
134.6647991267613
 30
0.0
 10
187.7361075037929
 20
133.8985668271482
 30
0.0
 10
190.0916054144454
 20
133.20183932895
 30
0.0
 10
192.5730430969305
 20
132.5058008498488
 30
0.0
 10
194.0070856245125
 20
132.1015188946547
 30
0.0
 10
195.3762096340444
 20
131.7247546396491
 30
0.0
 10
196.8148384449912
 20
131.3374074819497
 30
0.0
 10
198.8997671689708
 20
130.7747264958979
 30
0.0
 10
200.8887284518395
 20
130.2466148898559
 30
0.0
 10
202.9778774177885
 20
129.7005134258268
 30
0.0
 10
204.8123261681437
 20
129.2182646534322
 30
0.0
 10
206.5617456555536
 20
128.7624785207336
 30
0.0
 10
208.3983045268935
 20
128.2879919791042
 30
0.0
 10
210.6754911107969
 20
127.6992036288282
 30
0.0
 10
212.8422408525512
 20
127.1252291891388
 30
0.0
 10
215.1120204811612
 20
126.5096336896182
 30
0.0
 10
216.9319998304784
 20
126.0150471690171
 30
0.0
 10
218.6616746143884
 20
125.5257359508777
 30
0.0
 10
220.4714263364837
 20
124.9944591633586
 30
0.0
 10
222.2014456299423
 20
124.4854032417193
 30
0.0
 10
223.8422154184861
 20
123.9735158822282
 30
0.0
 10
225.554944638978
 20
123.4090692847402
 30
0.0
 10
226.9971046727972
 20
122.9321173466541
 30
0.0
 10
228.3626974594567
 20
122.4502238497314
 30
0.0
 10
229.7847467483807
 20
121.915060563868
 30
0.0
 10
231.1133047585737
 20
121.4144666580144
 30
0.0
 10
232.3667381553415
 20
120.9025900644467
 30
0.0
 10
233.6663573634584
 20
120.3307365116653
 30
0.0
 10
234.8647553598494
 20
119.8022696301514
 30
0.0
 10
235.9890622714607
 20
119.2586443285024
 30
0.0
 10
237.1472172462145
 20
118.6469245614027
 30
0.0
 10
238.0489279257851
 20
118.1692620723728
 30
0.0
 10
238.8906508802187
 20
117.681727231593
 30
0.0
 10
239.7535396400399
 20
117.1373913790001
 30
0.0
 10
240.4689783130924
 20
116.6847704277787
 30
0.0
 10
241.1329128086404
 20
116.2251085626592
 30
0.0
 10
241.8088190109996
 20
115.7153420900761
 30
0.0
 10
242.4106771922728
 20
115.2606110178699
 30
0.0
 10
242.9634642947279
 20
114.7998833263347
 30
0.0
 10
243.5194381105069
 20
114.2901168537517
 30
0.0
 10
244.0337908664547
 20
113.8163408630661
 30
0.0
 10
244.4998261582219
 20
113.3379678230924
 30
0.0
 10
244.9608875933822
 20
112.8119771039584
 30
0.0
 10
245.4960616451689
 20
112.198147215874
 30
0.0
 10
245.9603097936532
 20
111.5719688136597
 30
0.0
 10
246.3928199999795
 20
110.881937719811
 30
0.0
 10
247.2842815204815
 20
109.4482504677009
 30
0.0
 10
247.8836635393746
 20
107.9185957744797
 30
0.0
 10
248.2039928239625
 20
106.2609019543647
 30
0.0
 10
248.361670537953
 20
105.4636207316907
 30
0.0
 10
248.4572719376687
 20
104.6924468732409
 30
0.0
 10
248.4996035484437
 20
103.8807070154523
 30
0.0
 10
248.5207693538312
 20
103.5085290438114
 30
0.0
 10
248.5306524715045
 20
103.1532751037418
 30
0.0
 10
248.5306524715045
 20
102.780741856629
 30
0.0
 10
248.5306524715045
 20
100.9847489846279
 30
0.0
 10
248.2956969594105
 20
99.26884381673552
 30
0.0
 10
247.8131036774673
 20
97.53916903282551
 30
0.0
 10
247.1699904777583
 20
95.24682402878704
 30
0.0
 10
246.1483474116075
 20
93.16790269005981
 30
0.0
 10
244.7270086736273
 20
91.25831856035601
 30
0.0
 10
244.0256733602176
 20
90.31393176046188
 30
0.0
 10
243.2813174169357
 20
89.46903285862775
 30
0.0
 10
242.4328980581526
 20
88.65446694594892
 30
0.0
 10
241.6405476283919
 20
87.89176048624646
 30
0.0
 10
240.83374932944
 20
87.21724847096641
 30
0.0
 10
239.9429768280351
 20
86.5723750427829
 30
0.0
 10
238.9629763535622
 20
85.85940714914876
 30
0.0
 10
237.9829543472426
 20
85.24169614568178
 30
0.0
 10
236.9168480174852
 20
84.66525630953574
 30
0.0
 10
235.7131747186325
 20
84.01085503915082
 30
0.0
 10
234.5264469831978
 20
83.45875695579277
 30
0.0
 10
233.2507927205501
 20
82.95957338590346
 30
0.0
 10
231.8936619496763
 20
82.42476537551198
 30
0.0
 10
230.5725108947766
 20
81.98520348936426
 30
0.0
 10
229.1652755164391
 20
81.60067700359343
 30
0.0
 10
227.6511560506718
 20
81.1833359833256
 30
0.0
 10
226.1888852719576
 20
80.85455006591375
 30
0.0
 10
224.6419512716932
 20
80.5829096698635
 30
0.0
 10
222.9080562458138
 20
80.27528955783918
 30
0.0
 10
221.2425894290101
 20
80.05374300332912
 30
0.0
 10
219.4885836582355
 20
79.89781475188969
 30
0.0
 10
217.7268048907723
 20
79.73765549255745
 30
0.0
 10
216.0422823895658
 20
79.64381432131627
 30
0.0
 10
214.2738072177531
 20
79.60783460534219
 30
0.0
 10
213.6659847149212
 20
79.59442564775819
 30
0.0
 10
213.0867134409232
 20
79.58772386044704
 30
0.0
 10
212.4785248966959
 20
79.58772386044704
 30
0.0
 10
209.6555921242354
 20
79.58772386044704
 30
0.0
 10
206.9639174897629
 20
79.72848292582797
 30
0.0
 10
204.1561431374375
 20
80.02305473870192
 30
0.0
 10
199.3604840945826
 20
80.52963988092283
 30
0.0
 10
194.8304634454873
 20
81.44650898062851
 30
0.0
 10
190.2154350652933
 20
82.84421651676453
 30
0.0
 10
185.3174566865265
 20
84.33011849732297
 30
0.0
 10
180.7860364673903
 20
86.21818154616736
 30
0.0
 10
176.282478457991
 20
88.65023593805608
 30
0.0
 10
172.1020596391847
 20
90.90483023172259
 30
0.0
 10
168.307588408037
 20
93.41555122583232
 30
0.0
 10
164.5977696325159
 20
96.38135856762016
 30
0.0
 10
161.9166671348138
 20
98.52306677156606
 30
0.0
 10
159.4902540867822
 20
100.7279278821259
 30
0.0
 10
157.1030074680485
 20
103.1927860425883
 30
0.0
 10
155.1584986828629
 20
105.1722302491789
 30
0.0
 10
152.5020824474973
 20
106.2866540431169
 30
0.0
 10
149.7271333955923
 20
106.2866540431169
 30
0.0
 10
149.0251090630855
 20
106.2866540431169
 30
0.0
 10
148.3551779482085
 20
106.2192701286101
 30
0.0
 10
147.6672677412678
 20
106.0792162312113
 30
0.0
 10
145.1826541113823
 20
105.576512204373
 30
0.0
 10
142.9827237937356
 20
104.1925635183312
 30
0.0
 10
141.4541456928537
 20
102.170443191417
 30
0.0
 10
141.4541456928537
 20
102.170443191417
 30
0.0
 10
141.3867617783469
 20
102.0808384110303
 30
0.0
 10
141.3867617783469
 20
102.0808384110303
 30
0.0
 10
141.3867617783469
 20
102.0808384110303
 30
0.0
 10
127.5197679836637
 20
83.34904143051094
 30
0.0
 10
127.5197679836637
 20
83.34904143051094
 30
0.0
 10
126.1915652489425
 20
81.55410900196391
 30
0.0
 10
125.4852991426195
 20
79.41169024707416
 30
0.0
 10
125.4852991426195
 20
77.17895616085391
 30
0.0
 10
125.4852991426195
 20
74.50666557144767
 30
0.0
 10
126.5111839825866
 20
71.94655590377985
 30
0.0
 10
128.3565601451841
 20
70.01404035725236
 30
0.0
 10
134.32344399379
 20
63.7455330159511
 30
0.0
 10
140.8029149869076
 20
58.50113952021901
 30
0.0
 10
148.1773787233994
 20
53.97146876363387
 30
0.0
 10
151.899890522599
 20
51.68229432403418
 30
0.0
 10
155.5874776663169
 20
49.72437658126466
 30
0.0
 10
159.5685761794546
 20
47.92203719742433
 30
0.0
 10
163.0494360622107
 20
46.34441493253282
 30
0.0
 10
166.4466770179858
 20
45.01373872691252
 30
0.0
 10
170.0732321419977
 20
43.80829712514276
 30
0.0
 10
173.6010099188936
 20
42.63389906347211
 30
0.0
 10
177.0176618345433
 20
41.67399049352844
 30
0.0
 10
180.6413855207034
 20
40.84037697088935
 30
0.0
 10
183.9211594863548
 20
40.08366982199677
 30
0.0
 10
187.0767592916097
 20
39.48747451642751
 30
0.0
 10
190.4066378647247
 20
38.99535070080211
 30
0.0
 10
193.6130312965403
 20
38.51980371571863
 30
0.0
 10
196.6853674502861
 20
38.17584592076746
 30
0.0
 10
199.9175345027007
 20
37.92996030495029
 30
0.0
 10
202.8166469490788
 20
37.70771127393896
 30
0.0
 10
205.5859654230502
 20
37.57753511125178
 30
0.0
 10
208.4928508661168
 20
37.52638351773836
 30
0.0
 10
209.4298307107176
 20
37.50909613625261
 30
0.0
 10
210.3227133331073
 20
37.50098401297718
 30
0.0
 10
211.2596931777081
 20
37.50098401297718
 30
0.0
  0
SPLINE
  5
AE
330
A8
100
AcDbEntity
  8
レイヤー 1
 62
   255
370
    18
100
AcDbSpline
210
0.0
220
0.0
230
1.0
 70
     9
 71
     3
 72
   242
 73
   238
 74
     0
 42
0.0000000001
 43
0.0000000001
 40
0.0
 40
0.0
 40
0.0
 40
0.0
 40
1.0
 40
1.0
 40
1.0
 40
2.0
 40
2.0
 40
2.0
 40
3.0
 40
3.0
 40
3.0
 40
4.0
 40
4.0
 40
4.0
 40
5.0
 40
5.0
 40
5.0
 40
6.0
 40
6.0
 40
6.0
 40
7.0
 40
7.0
 40
7.0
 40
8.0
 40
8.0
 40
8.0
 40
9.0
 40
9.0
 40
9.0
 40
10.0
 40
10.0
 40
10.0
 40
11.0
 40
11.0
 40
11.0
 40
12.0
 40
12.0
 40
12.0
 40
13.0
 40
13.0
 40
13.0
 40
14.0
 40
14.0
 40
14.0
 40
15.0
 40
15.0
 40
15.0
 40
16.0
 40
16.0
 40
16.0
 40
17.0
 40
17.0
 40
17.0
 40
18.0
 40
18.0
 40
18.0
 40
19.0
 40
19.0
 40
19.0
 40
20.0
 40
20.0
 40
20.0
 40
21.0
 40
21.0
 40
21.0
 40
22.0
 40
22.0
 40
22.0
 40
23.0
 40
23.0
 40
23.0
 40
24.0
 40
24.0
 40
24.0
 40
25.0
 40
25.0
 40
25.0
 40
26.0
 40
26.0
 40
26.0
 40
27.0
 40
27.0
 40
27.0
 40
28.0
 40
28.0
 40
28.0
 40
29.0
 40
29.0
 40
29.0
 40
30.0
 40
30.0
 40
30.0
 40
31.0
 40
31.0
 40
31.0
 40
32.0
 40
32.0
 40
32.0
 40
33.0
 40
33.0
 40
33.0
 40
34.0
 40
34.0
 40
34.0
 40
35.0
 40
35.0
 40
35.0
 40
36.0
 40
36.0
 40
36.0
 40
37.0
 40
37.0
 40
37.0
 40
38.0
 40
38.0
 40
38.0
 40
39.0
 40
39.0
 40
39.0
 40
40.0
 40
40.0
 40
40.0
 40
41.0
 40
41.0
 40
41.0
 40
42.0
 40
42.0
 40
42.0
 40
43.0
 40
43.0
 40
43.0
 40
44.0
 40
44.0
 40
44.0
 40
45.0
 40
45.0
 40
45.0
 40
46.0
 40
46.0
 40
46.0
 40
47.0
 40
47.0
 40
47.0
 40
48.0
 40
48.0
 40
48.0
 40
49.0
 40
49.0
 40
49.0
 40
50.0
 40
50.0
 40
50.0
 40
51.0
 40
51.0
 40
51.0
 40
52.0
 40
52.0
 40
52.0
 40
53.0
 40
53.0
 40
53.0
 40
54.0
 40
54.0
 40
54.0
 40
55.0
 40
55.0
 40
55.0
 40
56.0
 40
56.0
 40
56.0
 40
57.0
 40
57.0
 40
57.0
 40
58.0
 40
58.0
 40
58.0
 40
59.0
 40
59.0
 40
59.0
 40
60.0
 40
60.0
 40
60.0
 40
61.0
 40
61.0
 40
61.0
 40
62.0
 40
62.0
 40
62.0
 40
63.0
 40
63.0
 40
63.0
 40
64.0
 40
64.0
 40
64.0
 40
65.0
 40
65.0
 40
65.0
 40
66.0
 40
66.0
 40
66.0
 40
67.0
 40
67.0
 40
67.0
 40
68.0
 40
68.0
 40
68.0
 40
69.0
 40
69.0
 40
69.0
 40
70.0
 40
70.0
 40
70.0
 40
71.0
 40
71.0
 40
71.0
 40
72.0
 40
72.0
 40
72.0
 40
73.0
 40
73.0
 40
73.0
 40
74.0
 40
74.0
 40
74.0
 40
75.0
 40
75.0
 40
75.0
 40
76.0
 40
76.0
 40
76.0
 40
77.0
 40
77.0
 40
77.0
 40
78.0
 40
78.0
 40
78.0
 40
79.0
 40
79.0
 40
79.0
 40
79.0
 10
244.0030864529424
 20
49.64775550448802
 30
0.0
 10
249.1504466811477
 20
51.20808769641293
 30
0.0
 10
253.8998983808067
 20
53.23867542207445
 30
0.0
 10
258.5844315624155
 20
55.88133819030755
 30
0.0
 10
263.5974115348493
 20
58.70849658769918
 30
0.0
 10
267.9852573996378
 20
62.12373816738465
 30
0.0
 10
271.9564835610257
 20
66.28933769264262
 30
0.0
 10
277.6813709836396
 20
72.34970743701783
 30
0.0
 10
281.794405887939
 20
79.45359660387521
 30
0.0
 10
284.1999868742083
 20
87.43554371661225
 30
0.0
 10
285.9568133169114
 20
93.27401163100551
 30
0.0
 10
286.8140607328755
 20
99.10049707266411
 30
0.0
 10
286.8140607328755
 20
105.1975517009955
 30
0.0
 10
286.8140607328755
 20
105.2663459514666
 30
0.0
 10
286.8140607328755
 20
105.3316089790653
 30
0.0
 10
286.813716223327
 20
105.4000479540645
 30
0.0
 10
286.8147712838193
 20
105.5418674628995
 30
0.0
 10
286.8154818347631
 20
105.6766245259897
 30
0.0
 10
286.8154818347631
 20
105.8184440348247
 30
0.0
 10
286.8154818347631
 20
110.0965743743313
 30
0.0
 10
286.3854477908168
 20
114.1799814574576
 30
0.0
 10
285.4950413308072
 20
118.3642760086847
 30
0.0
 10
284.3996516894253
 20
123.5095368818287
 30
0.0
 10
282.5214717582542
 20
128.2533472376307
 30
0.0
 10
279.7976716083817
 20
132.7540845751014
 30
0.0
 10
277.2157017332677
 20
136.9503723649865
 30
0.0
 10
274.1327719109047
 20
140.582934874251
 30
0.0
 10
270.4116596817461
 20
143.8129595079107
 30
0.0
 10
267.0877884938835
 20
146.6969243000771
 30
0.0
 10
263.6390325946806
 20
149.1303782620067
 30
0.0
 10
259.8078710966149
 20
151.2953839241716
 30
0.0
 10
256.1181738319123
 20
153.391584569942
 30
0.0
 10
252.4697531174924
 20
155.161114802247
 30
0.0
 10
248.5394374649919
 20
156.7609633159801
 30
0.0
 10
243.7310746325351
 20
158.7188864417113
 30
0.0
 10
239.0610108519644
 20
160.3744701408417
 30
0.0
 10
234.0928386526856
 20
161.8818932022595
 30
0.0
 10
229.2883730844965
 20
163.3487394984152
 30
0.0
 10
224.6817851882415
 20
164.6568422541645
 30
0.0
 10
219.8233392801679
 20
165.9349511473455
 30
0.0
 10
217.1016492512801
 20
166.6662587914768
 30
0.0
 10
214.502044793651
 20
167.3428863107033
 30
0.0
 10
211.7687060356538
 20
168.0308072835674
 30
0.0
 10
207.3261908118837
 20
169.1455863529773
 30
0.0
 10
203.1157888964324
 20
170.3037520936545
 30
0.0
 10
198.7282875411925
 20
171.6189065292253
 30
0.0
 10
195.0540932061735
 20
172.7121645177757
 30
0.0
 10
191.6049927974221
 20
173.9348935010312
 30
0.0
 10
188.0620566003911
 20
175.3992744007302
 30
0.0
 10
185.3463739567558
 20
176.5189950289768
 30
0.0
 10
182.8437489370364
 20
177.800990420502
 30
0.0
 10
180.348218660832
 20
179.3507343267715
 30
0.0
 10
178.4816659269236
 20
180.5075004974078
 30
0.0
 10
176.8232615558647
 20
181.8103064188486
 30
0.0
 10
175.2576271466695
 20
183.3501779733682
 30
0.0
 10
173.4358821859162
 20
185.1271151609665
 30
0.0
 10
172.0272472375379
 20
187.171111844212
 30
0.0
 10
171.0154765231369
 20
189.5061545004208
 30
0.0
 10
170.0513342538196
 20
191.8242515932115
 30
0.0
 10
169.571561643805
 20
194.2273779489475
 30
0.0
 10
169.571561643805
 20
196.7377329016619
 30
0.0
 10
169.571561643805
 20
196.8481482119642
 30
0.0
 10
169.5722614288254
 20
196.9532882198046
 30
0.0
 10
169.5743823157336
 20
197.0637035301069
 30
0.0
 10
169.5743823157336
 20
197.0637035301069
 30
0.0
 10
169.5743823157336
 20
197.1268564367209
 30
0.0
 10
169.5743823157336
 20
197.1268564367209
 30
0.0
 10
169.5743823157336
 20
201.1273443778866
 30
0.0
 10
170.5127724962987
 20
204.9620370988246
 30
0.0
 10
172.3599142703323
 20
208.5110022129547
 30
0.0
 10
174.0387846617583
 20
211.662704753942
 30
0.0
 10
176.2669324646138
 20
214.3498146368965
 30
0.0
 10
179.0535194797049
 20
216.5829039985887
 30
0.0
 10
181.7847265848707
 20
218.7708195457305
 30
0.0
 10
184.7134883842687
 20
220.4641701041179
 30
0.0
 10
187.9720965445326
 20
221.7394583253703
 30
0.0
 10
191.7062355409949
 20
223.2038392250693
 30
0.0
 10
195.4492241264849
 20
224.1506806554966
 30
0.0
 10
199.4306563832478
 20
224.6371712017075
 30
0.0
 10
202.0517926876598
 20
224.9638523810963
 30
0.0
 10
204.5706311880067
 20
225.120130525046
 30
0.0
 10
207.2118782373138
 20
225.120130525046
 30
0.0
 10
207.8863848696321
 20
225.120130525046
 30
0.0
 10
208.5288090502441
 20
225.1098813659773
 30
0.0
 10
209.2029496411671
 20
225.0883710510413
 30
0.0
 10
216.8307140232121
 20
224.945141206242
 30
0.0
 10
224.098293672274
 20
223.8727045135305
 30
0.0
 10
231.4424190366489
 20
221.8064869644052
 30
0.0
 10
239.1058186251194
 20
219.6506538689697
 30
0.0
 10
246.1066832880827
 20
216.4364874404655
 30
0.0
 10
252.7367910812928
 20
212.0302964422181
 30
0.0
 10
256.4610684919286
 20
209.5358104605826
 30
0.0
 10
259.7955333484084
 20
206.8289558741283
 30
0.0
 10
263.0019267802239
 20
203.6966319952456
 30
0.0
 10
263.4806443297462
 20
203.3011780972325
 30
0.0
 10
264.0764951257669
 20
203.0870438809774
 30
0.0
 10
264.6973659277493
 20
203.0870438809774
 30
0.0
 10
265.5144133857699
 20
203.0870438809774
 30
0.0
 10
266.2922728826457
 20
203.4666288079116
 30
0.0
 10
266.7953429508793
 20
204.1104310267176
 30
0.0
 10
266.7953429508793
 20
204.1104310267176
 30
0.0
 10
280.8489424957057
 20
222.0417869860477
 30
0.0
 10
280.8489424957057
 20
222.0417869860477
 30
0.0
 10
281.2186658368134
 20
222.5155737426567
 30
0.0
 10
281.4172755915381
 20
223.0923473224279
 30
0.0
 10
281.4172755915381
 20
223.6938394623057
 30
0.0
 10
281.4172755915381
 20
224.4939413569082
 30
0.0
 10
281.0574353681037
 20
225.2566424336489
 30
0.0
 10
280.4400742571469
 20
225.7656983552882
 30
0.0
 10
271.8880338201031
 20
233.9818850462137
 30
0.0
 10
262.129499412278
 20
240.2105315561583
 30
0.0
 10
251.0759105478538
 20
244.5073623045958
 30
0.0
 10
244.0708041110743
 20
247.2272867220473
 30
0.0
 10
237.1034430017051
 20
249.0994807998128
 30
0.0
 10
229.678530148201
 20
250.2566022459211
 30
0.0
 10
222.9891667126446
 20
251.3004661779518
 30
0.0
 10
216.5315720758584
 20
251.8010600838054
 30
0.0
 10
209.7610551097776
 20
251.8010600838054
 30
0.0
 10
208.8836969489184
 20
251.8010600838054
 30
0.0
 10
208.0476153383418
 20
251.7929425775683
 30
0.0
 10
207.1702571774826
 20
251.7753079950531
 30
0.0
 10
200.1295155342775
 20
251.6525334046975
 30
0.0
 10
193.4218069652622
 20
250.8009273325906
 30
0.0
 10
186.5736676915293
 20
249.1608680949906
 30
0.0
 10
180.459344522078
 20
247.697542255784
 30
0.0
 10
174.7902030507848
 20
245.592524318756
 30
0.0
 10
169.2025488536412
 20
242.7103143721024
 30
0.0
 10
163.9309929331926
 20
239.9928661170309
 30
0.0
 10
159.2605738771499
 20
236.6852299416425
 30
0.0
 10
154.9475081162381
 20
232.6138160971742
 30
0.0
 10
150.1677288103856
 20
228.1014515624408
 30
0.0
 10
146.400409238031
 20
222.9297172836773
 30
0.0
 10
143.570780061221
 20
216.9963585205122
 30
0.0
 10
140.5196097128627
 20
210.5098250816499
 30
0.0
 10
138.9007055147268
 20
203.6860598584752
 30
0.0
 10
138.7130339381679
 20
196.5204335039298
 30
0.0
 10
138.6925679178008
 20
195.8857823200064
 30
0.0
 10
138.6826955660509
 20
195.2807589572562
 30
0.0
 10
138.6826955660509
 20
194.6457632637843
 30
0.0
 10
138.6826955660509
 20
190.7955460813159
 30
0.0
 10
139.0439353595261
 20
187.1217177876922
 30
0.0
 10
139.7932328616446
 20
183.3448811390596
 30
0.0
 10
140.7489131151763
 20
178.5457016392557
 30
0.0
 10
142.4235524987094
 20
174.1084617179475
 30
0.0
 10
144.8774724810061
 20
169.8744178347286
 30
0.0
 10
147.3021091516781
 20
165.7631485418654
 30
0.0
 10
150.2463954126066
 20
162.2018564454521
 30
0.0
 10
153.8288533144074
 20
159.0476669761615
 30
0.0
 10
156.9996223057208
 20
156.257548738198
 30
0.0
 10
160.3009065863082
 20
153.9069923863822
 30
0.0
 10
163.9750901554038
 20
151.8231402547417
 30
0.0
 10
167.4979263734629
 20
149.8133576760341
 30
0.0
 10
170.9840830905276
 20
148.1193180985496
 30
0.0
 10
174.741164269737
 20
146.591439782688
 30
0.0
 10
179.4221769943968
 20
144.6878522723133
 30
0.0
 10
183.9701875014792
 20
143.0841280261593
 30
0.0
 10
188.8099437665453
 20
141.6310298141745
 30
0.0
 10
193.5212840973987
 20
140.2072256797377
 30
0.0
 10
198.0386009568923
 20
138.9410992592914
 30
0.0
 10
202.8032110766864
 20
137.708497924286
 30
0.0
 10
207.1247388533838
 20
136.5866564091313
 30
0.0
 10
211.2402499200632
 20
135.507512546147
 30
0.0
 10
215.5561363529035
 20
134.3648712670001
 30
0.0
 10
219.4592788147641
 20
133.3414625894131
 30
0.0
 10
223.1535623628314
 20
132.267249519342
 30
0.0
 10
226.9970616091036
 20
131.0385239167575
 30
0.0
 10
230.5823509487563
 20
129.9053997138887
 30
0.0
 10
233.9400917316083
 20
128.6329321645648
 30
0.0
 10
237.3761438412094
 20
127.1050538487033
 30
0.0
 10
240.1278062008187
 20
125.884090476884
 30
0.0
 10
242.650175924038
 20
124.4867382162199
 30
0.0
 10
245.1446619056735
 20
122.801515929993
 30
0.0
 10
247.1562100958173
 20
121.4436746081753
 30
0.0
 10
248.9200989842652
 20
119.9143859563495
 30
0.0
 10
250.5492200436995
 20
118.1152171369479
 30
0.0
 10
253.6540262223938
 20
114.6985652212982
 30
0.0
 10
255.5635995861742
 20
110.4475865405847
 30
0.0
 10
256.0557314762422
 20
105.8568891472554
 30
0.0
 10
256.1756638628224
 20
104.8151461021328
 30
0.0
 10
256.2331754255793
 20
103.815013350918
 30
0.0
 10
256.2331754255793
 20
102.7658525845787
 30
0.0
 10
256.2331754255793
 20
95.77132905049294
 30
0.0
 10
253.5347828549106
 20
89.07031688582703
 30
0.0
 10
248.6872535931559
 20
84.02771447518176
 30
0.0
 10
246.5374278829728
 20
81.79604083241557
 30
0.0
 10
244.1815854627719
 20
79.95454040223902
 30
0.0
 10
241.4965857008021
 20
78.40725650946449
 30
0.0
 10
238.3720348186079
 20
76.61973103621074
 30
0.0
 10
235.1758690140142
 20
75.28411596323464
 30
0.0
 10
231.7087679813524
 20
74.31679774651683
 30
0.0
 10
227.7410730428369
 20
73.20625506796146
 30
0.0
 10
223.8523999820143
 20
72.51480825518673
 30
0.0
 10
219.7453724629673
 20
72.18954817768558
 30
0.0
 10
217.3013355983439
 20
71.98387597721617
 30
0.0
 10
214.9634722702066
 20
71.88580379808215
 30
0.0
 10
212.5106073484023
 20
71.88580379808215
 30
0.0
 10
206.415673606979
 20
71.88580379808215
 30
0.0
 10
200.5983499661265
 20
72.49470289325327
 30
0.0
 10
194.6353633817882
 20
73.75658753988334
 30
0.0
 10
182.7015956845763
 20
76.33398189755604
 30
0.0
 10
171.8113474098466
 20
81.30250398934505
 30
0.0
 10
162.0432851598201
 20
88.62652399178651
 30
0.0
 10
158.2202304020682
 20
91.48331559331298
 30
0.0
 10
154.7915852477604
 20
94.49991656166147
 30
0.0
 10
151.4715897923187
 20
97.92821720642074
 30
0.0
 10
150.9851100120313
 20
98.35260990650994
 30
0.0
 10
150.3663385651102
 20
98.58473398075204
 30
0.0
 10
149.7207599689446
 20
98.58473398075204
 30
0.0
 10
148.8779711880952
 20
98.58473398075204
 30
0.0
 10
148.0775140180207
 20
98.18045202555797
 30
0.0
 10
147.577630663111
 20
97.50205889489533
 30
0.0
 10
147.577630663111
 20
97.50205889489533
 30
0.0
 10
133.5966903352532
 20
78.60305097522228
 30
0.0
 10
133.5966903352532
 20
78.60305097522228
 30
0.0
 10
133.3257658731084
 20
78.17195648782193
 30
0.0
 10
133.1850014247658
 20
77.68371109609828
 30
0.0
 10
133.1850014247658
 20
77.17464979149736
 30
0.0
 10
133.1850014247658
 20
76.42041073054226
 30
0.0
 10
133.5032098224456
 20
75.6996859891046
 30
0.0
 10
134.0602494646403
 20
75.19133523544751
 30
0.0
 10
141.8746303627518
 20
67.02664733906473
 30
0.0
 10
150.7900207142556
 20
60.59232862865075
 30
0.0
 10
161.0008207978303
 20
55.74834135569182
 30
0.0
 10
168.3848123765236
 20
52.24772600351251
 30
0.0
 10
175.8238393555937
 20
49.72748255016307
 30
0.0
 10
183.8153089275705
 20
48.01968412258438
 30
0.0
 10
191.4751772931685
 20
46.38032467000485
 30
0.0
 10
198.9272418054657
 20
45.48779732308714
 30
0.0
 10
206.7575132065029
 20
45.2718974953959
 30
0.0
 10
208.3019710443872
 20
45.21933287443736
 30
0.0
 10
209.7744694503233
 20
45.19464122913916
 30
0.0
 10
211.3196163073046
 20
45.19464122913916
 30
0.0
 10
216.7202987129098
 20
45.19464122913916
 30
0.0
 10
221.8697905939466
 20
45.49979056174517
 30
0.0
 10
227.2327276721415
 20
46.1376123101073
 30
0.0
 10
233.0002912150789
 20
46.82200206009897
 30
0.0
 10
238.4450708428953
 20
47.96147277480705
 30
0.0
 10
244.0030864529424
 20
49.64775550448802
 30
0.0
  0
SPLINE
  5
AF
330
A8
100
AcDbEntity
  8
レイヤー 1
  6
AI-Linetype-8
 62
   112
370
    18
100
AcDbSpline
210
0.0
220
0.0
230
1.0
 70
     9
 71
     3
 72
   461
 73
   457
 74
     0
 42
0.0000000001
 43
0.0000000001
 40
0.0
 40
0.0
 40
0.0
 40
0.0
 40
1.0
 40
1.0
 40
1.0
 40
2.0
 40
2.0
 40
2.0
 40
3.0
 40
3.0
 40
3.0
 40
4.0
 40
4.0
 40
4.0
 40
5.0
 40
5.0
 40
5.0
 40
6.0
 40
6.0
 40
6.0
 40
7.0
 40
7.0
 40
7.0
 40
8.0
 40
8.0
 40
8.0
 40
9.0
 40
9.0
 40
9.0
 40
10.0
 40
10.0
 40
10.0
 40
11.0
 40
11.0
 40
11.0
 40
12.0
 40
12.0
 40
12.0
 40
13.0
 40
13.0
 40
13.0
 40
14.0
 40
14.0
 40
14.0
 40
15.0
 40
15.0
 40
15.0
 40
16.0
 40
16.0
 40
16.0
 40
17.0
 40
17.0
 40
17.0
 40
18.0
 40
18.0
 40
18.0
 40
19.0
 40
19.0
 40
19.0
 40
20.0
 40
20.0
 40
20.0
 40
21.0
 40
21.0
 40
21.0
 40
22.0
 40
22.0
 40
22.0
 40
23.0
 40
23.0
 40
23.0
 40
24.0
 40
24.0
 40
24.0
 40
25.0
 40
25.0
 40
25.0
 40
26.0
 40
26.0
 40
26.0
 40
27.0
 40
27.0
 40
27.0
 40
28.0
 40
28.0
 40
28.0
 40
29.0
 40
29.0
 40
29.0
 40
30.0
 40
30.0
 40
30.0
 40
31.0
 40
31.0
 40
31.0
 40
32.0
 40
32.0
 40
32.0
 40
33.0
 40
33.0
 40
33.0
 40
34.0
 40
34.0
 40
34.0
 40
35.0
 40
35.0
 40
35.0
 40
36.0
 40
36.0
 40
36.0
 40
37.0
 40
37.0
 40
37.0
 40
38.0
 40
38.0
 40
38.0
 40
39.0
 40
39.0
 40
39.0
 40
40.0
 40
40.0
 40
40.0
 40
41.0
 40
41.0
 40
41.0
 40
42.0
 40
42.0
 40
42.0
 40
43.0
 40
43.0
 40
43.0
 40
44.0
 40
44.0
 40
44.0
 40
45.0
 40
45.0
 40
45.0
 40
46.0
 40
46.0
 40
46.0
 40
47.0
 40
47.0
 40
47.0
 40
48.0
 40
48.0
 40
48.0
 40
49.0
 40
49.0
 40
49.0
 40
50.0
 40
50.0
 40
50.0
 40
51.0
 40
51.0
 40
51.0
 40
52.0
 40
52.0
 40
52.0
 40
53.0
 40
53.0
 40
53.0
 40
54.0
 40
54.0
 40
54.0
 40
55.0
 40
55.0
 40
55.0
 40
56.0
 40
56.0
 40
56.0
 40
57.0
 40
57.0
 40
57.0
 40
58.0
 40
58.0
 40
58.0
 40
59.0
 40
59.0
 40
59.0
 40
60.0
 40
60.0
 40
60.0
 40
61.0
 40
61.0
 40
61.0
 40
62.0
 40
62.0
 40
62.0
 40
63.0
 40
63.0
 40
63.0
 40
64.0
 40
64.0
 40
64.0
 40
65.0
 40
65.0
 40
65.0
 40
66.0
 40
66.0
 40
66.0
 40
67.0
 40
67.0
 40
67.0
 40
68.0
 40
68.0
 40
68.0
 40
69.0
 40
69.0
 40
69.0
 40
70.0
 40
70.0
 40
70.0
 40
71.0
 40
71.0
 40
71.0
 40
72.0
 40
72.0
 40
72.0
 40
73.0
 40
73.0
 40
73.0
 40
74.0
 40
74.0
 40
74.0
 40
75.0
 40
75.0
 40
75.0
 40
76.0
 40
76.0
 40
76.0
 40
77.0
 40
77.0
 40
77.0
 40
78.0
 40
78.0
 40
78.0
 40
79.0
 40
79.0
 40
79.0
 40
80.0
 40
80.0
 40
80.0
 40
81.0
 40
81.0
 40
81.0
 40
82.0
 40
82.0
 40
82.0
 40
83.0
 40
83.0
 40
83.0
 40
84.0
 40
84.0
 40
84.0
 40
85.0
 40
85.0
 40
85.0
 40
86.0
 40
86.0
 40
86.0
 40
87.0
 40
87.0
 40
87.0
 40
88.0
 40
88.0
 40
88.0
 40
89.0
 40
89.0
 40
89.0
 40
90.0
 40
90.0
 40
90.0
 40
91.0
 40
91.0
 40
91.0
 40
92.0
 40
92.0
 40
92.0
 40
93.0
 40
93.0
 40
93.0
 40
94.0
 40
94.0
 40
94.0
 40
95.0
 40
95.0
 40
95.0
 40
96.0
 40
96.0
 40
96.0
 40
97.0
 40
97.0
 40
97.0
 40
98.0
 40
98.0
 40
98.0
 40
99.0
 40
99.0
 40
99.0
 40
100.0
 40
100.0
 40
100.0
 40
101.0
 40
101.0
 40
101.0
 40
102.0
 40
102.0
 40
102.0
 40
103.0
 40
103.0
 40
103.0
 40
104.0
 40
104.0
 40
104.0
 40
105.0
 40
105.0
 40
105.0
 40
106.0
 40
106.0
 40
106.0
 40
107.0
 40
107.0
 40
107.0
 40
108.0
 40
108.0
 40
108.0
 40
109.0
 40
109.0
 40
109.0
 40
110.0
 40
110.0
 40
110.0
 40
111.0
 40
111.0
 40
111.0
 40
112.0
 40
112.0
 40
112.0
 40
113.0
 40
113.0
 40
113.0
 40
114.0
 40
114.0
 40
114.0
 40
115.0
 40
115.0
 40
115.0
 40
116.0
 40
116.0
 40
116.0
 40
117.0
 40
117.0
 40
117.0
 40
118.0
 40
118.0
 40
118.0
 40
119.0
 40
119.0
 40
119.0
 40
120.0
 40
120.0
 40
120.0
 40
121.0
 40
121.0
 40
121.0
 40
122.0
 40
122.0
 40
122.0
 40
123.0
 40
123.0
 40
123.0
 40
124.0
 40
124.0
 40
124.0
 40
125.0
 40
125.0
 40
125.0
 40
126.0
 40
126.0
 40
126.0
 40
127.0
 40
127.0
 40
127.0
 40
128.0
 40
128.0
 40
128.0
 40
129.0
 40
129.0
 40
129.0
 40
130.0
 40
130.0
 40
130.0
 40
131.0
 40
131.0
 40
131.0
 40
132.0
 40
132.0
 40
132.0
 40
133.0
 40
133.0
 40
133.0
 40
134.0
 40
134.0
 40
134.0
 40
135.0
 40
135.0
 40
135.0
 40
136.0
 40
136.0
 40
136.0
 40
137.0
 40
137.0
 40
137.0
 40
138.0
 40
138.0
 40
138.0
 40
139.0
 40
139.0
 40
139.0
 40
140.0
 40
140.0
 40
140.0
 40
141.0
 40
141.0
 40
141.0
 40
142.0
 40
142.0
 40
142.0
 40
143.0
 40
143.0
 40
143.0
 40
144.0
 40
144.0
 40
144.0
 40
145.0
 40
145.0
 40
145.0
 40
146.0
 40
146.0
 40
146.0
 40
147.0
 40
147.0
 40
147.0
 40
148.0
 40
148.0
 40
148.0
 40
149.0
 40
149.0
 40
149.0
 40
150.0
 40
150.0
 40
150.0
 40
151.0
 40
151.0
 40
151.0
 40
152.0
 40
152.0
 40
152.0
 40
152.0
 10
208.3492549799223
 20
29.52767655376175
 30
0.0
 10
209.3345522887037
 20
29.50968400429386
 30
0.0
 10
210.2740082956846
 20
29.50086402155545
 30
0.0
 10
211.2596716458613
 20
29.50086402155545
 30
0.0
 10
214.3506974426146
 20
29.50086402155545
 30
0.0
 10
217.2964048054307
 20
29.58588251857738
 30
0.0
 10
220.3821337678754
 20
29.76333185087623
 30
0.0
 10
223.4255526513919
 20
29.94113107568529
 30
0.0
 10
226.3208108971959
 20
30.20465665697928
 30
0.0
 10
229.3465736663504
 20
30.57860024005636
 30
0.0
 10
232.2538251508124
 20
30.94055058447542
 30
0.0
 10
235.0128944657151
 20
31.38293314255168
 30
0.0
 10
237.8876759252286
 20
31.94772963254991
 30
0.0
 10
240.8277419441876
 20
32.52769800008748
 30
0.0
 10
243.6079770644778
 20
33.19444778460233
 30
0.0
 10
246.4912205397769
 20
34.0104213417646
 30
0.0
 10
249.2661803576054
 20
34.79852730622822
 30
0.0
 10
251.8788546462317
 20
35.66530256439368
 30
0.0
 10
254.5744265449719
 20
36.69259235736331
 30
0.0
 10
257.340192264224
 20
37.74881018648565
 30
0.0
 10
259.9267699545496
 20
38.88722314922052
 30
0.0
 10
262.5740028572623
 20
40.21296048748501
 30
0.0
 10
265.4812543417243
 20
41.671344767855
 30
0.0
 10
268.1697853265665
 20
43.22921156332329
 30
0.0
 10
270.8808816868371
 20
45.02626218729758
 30
0.0
 10
273.5937436585439
 20
46.82825167862768
 30
0.0
 10
276.0684634048327
 20
48.7149043915078
 30
0.0
 10
278.5245150399609
 20
50.85344203101494
 30
0.0
 10
281.4395179892647
 20
53.39556184069571
 30
0.0
 10
284.0207773134349
 20
56.04915740413279
 30
0.0
 10
286.4817597414764
 20
59.03294922094597
 30
0.0
 10
290.873847380081
 20
64.3683632159907
 30
0.0
 10
294.3056792477126
 20
70.09782615604597
 30
0.0
 10
296.9370431793464
 20
76.48804226128707
 30
0.0
 10
298.3678989936046
 20
79.95761407336726
 30
0.0
 10
299.476336934137
 20
83.37250037758082
 30
0.0
 10
300.3554607064324
 20
87.02093185792413
 30
0.0
 10
301.151686868614
 20
90.31445929070805
 30
0.0
 10
301.7034189105768
 20
93.50498375144473
 30
0.0
 10
302.0597279111387
 20
96.8743624974828
 30
0.0
 10
302.3676979156733
 20
99.77207537382
 30
0.0
 10
302.5148034928935
 20
102.5502003731254
 30
0.0
 10
302.5148034928935
 20
105.4641482619369
 30
0.0
 10
302.5148034928935
 20
105.6744067457711
 30
0.0
 10
302.5141144737964
 20
105.8747821119319
 30
0.0
 10
302.5123488623602
 20
106.0846853202941
 30
0.0
 10
302.4957693403375
 20
108.8511723564135
 30
0.0
 10
302.345821559342
 20
111.487477846884
 30
0.0
 10
302.0491342425216
 20
114.2377298705291
 30
0.0
 10
301.8007859217286
 20
116.5170265754172
 30
0.0
 10
301.4621115036818
 20
118.6785010147097
 30
0.0
 10
301.0017390876185
 20
120.9246386755522
 30
0.0
 10
300.4725724210841
 20
123.4953258629521
 30
0.0
 10
299.8241839189133
 20
125.917152627619
 30
0.0
 10
298.9979638941633
 20
128.408462661854
 30
0.0
 10
298.0175973782951
 20
131.3573352061472
 30
0.0
 10
296.8724907026916
 20
134.100180274499
 30
0.0
 10
295.4648892829589
 20
136.8708983185112
 30
0.0
 10
293.3252911999977
 20
141.0742485541412
 30
0.0
 10
290.8212881420842
 20
144.8517957537176
 30
0.0
 10
287.7838766438202
 20
148.4596504687987
 30
0.0
 10
285.927207027585
 20
150.6673322512872
 30
0.0
 10
284.019377743394
 20
152.6566488096277
 30
0.0
 10
281.8910623481471
 20
154.6039782667418
 30
0.0
 10
280.0629654925927
 20
156.2793174352954
 30
0.0
 10
278.2391104108547
 20
157.7881508326775
 30
0.0
 10
276.2508596789299
 20
159.2698218053431
 30
0.0
 10
274.4739224913316
 20
160.5969694795719
 30
0.0
 10
272.7290677554397
 20
161.7932358231313
 30
0.0
 10
270.8505433147201
 20
162.9722228596476
 30
0.0
 10
268.7155315151236
 20
164.3145397199348
 30
0.0
 10
266.6295477306517
 20
165.5132822258743
 30
0.0
 10
264.3950587989186
 20
166.6823861447172
 30
0.0
 10
262.2857990880744
 20
167.7883479228695
 30
0.0
 10
260.2421469143774
 20
168.7792973414315
 30
0.0
 10
258.0676241759345
 20
169.7504912905702
 30
0.0
 10
256.0663251448593
 20
170.6461945848884
 30
0.0
 10
254.1387511571684
 20
171.454058710256
 30
0.0
 10
252.0968645949077
 20
172.2523949934223
 30
0.0
 10
250.0556885835907
 20
173.051786337081
 30
0.0
 10
248.0956661027981
 20
173.7753317504472
 30
0.0
 10
246.0244962289127
 20
174.4935910954282
 30
0.0
 10
243.7081647475582
 20
175.2989790584159
 30
0.0
 10
241.4870686245241
 20
176.0278213060907
 30
0.0
 10
239.1439299939249
 20
176.7524217799492
 30
0.0
 10
236.8889642759015
 20
177.4526912669432
 30
0.0
 10
234.7317316104251
 20
178.094038855216
 30
0.0
 10
232.4605524117742
 20
178.7392729418332
 30
0.0
 10
230.3908036397764
 20
179.3291163526015
 30
0.0
 10
228.4145461465096
 20
179.8776832130872
 30
0.0
 10
226.3373904192186
 20
180.4393091386467
 30
0.0
 10
224.2147163678287
 20
181.0139725974331
 30
0.0
 10
222.1908304294784
 20
181.5561875631179
 30
0.0
 10
220.0657017475552
 20
182.1195898660369
 30
0.0
 10
220.0657017475552
 20
182.1195898660369
 30
0.0
 10
219.9193067212789
 20
182.1576797029957
 30
0.0
 10
219.9193067212789
 20
182.1576797029957
 30
0.0
 10
217.6181336600595
 20
182.7365849355984
 30
0.0
 10
215.4273759091423
 20
183.2971450347421
 30
0.0
 10
213.1311551726829
 20
183.894761442199
 30
0.0
 10
211.1390071764904
 20
184.4129899305677
 30
0.0
 10
209.2445922328451
 20
184.924522014587
 30
0.0
 10
207.2623273543259
 20
185.4794407698736
 30
0.0
 10
205.9743353434717
 20
185.8413911142927
 30
0.0
 10
204.7502067901753
 20
186.198755175347
 30
0.0
 10
203.4696217346144
 20
186.586091567123
 30
0.0
 10
202.1629400807527
 20
186.9826220574753
 30
0.0
 10
200.9232655340791
 20
187.3787865064322
 30
0.0
 10
199.6285771188754
 20
187.8137728751385
 30
0.0
 10
198.3963310593419
 20
188.2289930084983
 30
0.0
 10
197.2304030878994
 20
188.6491439347713
 30
0.0
 10
196.0168466713734
 20
189.1158682456355
 30
0.0
 10
194.832573566472
 20
189.5716543783341
 30
0.0
 10
193.7174392215902
 20
190.0411993611268
 30
0.0
 10
192.5641935079028
 20
190.5703660276612
 30
0.0
 10
191.7637471037517
 20
190.9397233273735
 30
0.0
 10
191.0123287147252
 20
191.3168536237745
 30
0.0
 10
190.2379789088749
 20
191.7377151009913
 30
0.0
 10
189.6745981378027
 20
192.044974554582
 30
0.0
 10
189.1482521431969
 20
192.3568418233843
 30
0.0
 10
188.6081472984968
 20
192.703267706273
 30
0.0
 10
188.2239760881979
 20
192.9509270079689
 30
0.0
 10
187.866267517595
 20
193.1999858797056
 30
0.0
 10
187.5007859503036
 20
193.4744307987994
 30
0.0
 10
187.1712840989862
 20
193.7228006514391
 30
0.0
 10
186.8686109287603
 20
193.9746801951044
 30
0.0
 10
186.5648611661951
 20
194.2533668880144
 30
0.0
 10
186.3165128454022
 20
194.4823365467028
 30
0.0
 10
186.0946056324585
 20
194.71727052695
 30
0.0
 10
185.8804714162035
 20
194.9783226373448
 30
0.0
 10
185.753821093427
 20
195.1339117621974
 30
0.0
 10
185.6462264550533
 20
195.2933550876241
 30
0.0
 10
185.5492254852967
 20
195.4693994669204
 30
0.0
 10
185.439154684543
 20
195.6775478297698
 30
0.0
 10
185.3678842716919
 20
195.8945027179534
 30
0.0
 10
185.3329596162101
 20
196.127326577216
 30
0.0
 10
185.293814718759
 20
196.3700335541518
 30
0.0
 10
185.2744145248077
 20
196.604278515302
 30
0.0
 10
185.2740484834124
 20
196.8501722055617
 30
0.0
 10
185.2733379324685
 20
196.8907382049006
 30
0.0
 10
185.2733379324685
 20
196.9295385928032
 30
0.0
 10
185.2733379324685
 20
196.9701261239888
 30
0.0
 10
185.2733379324685
 20
197.6255770719044
 30
0.0
 10
185.3315600461693
 20
198.2510556890983
 30
0.0
 10
185.4529135346372
 20
198.8952239492996
 30
0.0
 10
185.6994962439939
 20
200.1786296767891
 30
0.0
 10
186.2219665061789
 20
201.3533857054125
 30
0.0
 10
187.009020101631
 20
202.3965390864994
 30
0.0
 10
187.3755567294148
 20
202.8854842632435
 30
0.0
 10
187.7650247740223
 20
203.3222362433861
 30
0.0
 10
188.2095066871598
 20
203.7420426601105
 30
0.0
 10
188.6437825049224
 20
204.1547866310902
 30
0.0
 10
189.0844102174858
 20
204.5209787493255
 30
0.0
 10
189.5701686809061
 20
204.8723354251274
 30
0.0
 10
190.1335709838251
 20
205.2829692751224
 30
0.0
 10
190.6951861434612
 20
205.6410438871206
 30
0.0
 10
191.3051402991247
 20
205.9786417128283
 30
0.0
 10
192.0071646316315
 20
206.3698753688719
 30
0.0
 10
192.697906276424
 20
206.7046740544979
 30
0.0
 10
193.4398075891726
 20
207.0133546099762
 30
0.0
 10
194.2829301136471
 20
207.3661323876659
 30
0.0
 10
195.1045638550325
 20
207.6603435421062
 30
0.0
 10
195.9797903630601
 20
207.9224507129934
 30
0.0
 10
196.9619224903645
 20
208.2184274788699
 30
0.0
 10
197.9119506341158
 20
208.4551486024001
 30
0.0
 10
198.9184352801315
 20
208.6541243985201
 30
0.0
 10
200.0335696250133
 20
208.8767206305608
 30
0.0
 10
201.1063723591201
 20
209.0404057298037
 30
0.0
 10
202.2373756750809
 20
209.1603596482308
 30
0.0
 10
203.6033345031357
 20
209.3074652254509
 30
0.0
 10
204.912126277982
 20
209.3868316126924
 30
0.0
 10
206.2862026122739
 20
209.4058872970951
 30
0.0
 10
206.6065318968618
 20
209.4104735804599
 30
0.0
 10
206.9116812294678
 20
209.4125837014446
 30
0.0
 10
207.2323550236042
 20
209.4125837014446
 30
0.0
 10
207.6592023542267
 20
209.4125837014446
 30
0.0
 10
208.0659604718008
 20
209.4087079690237
 30
0.0
 10
208.49282933427
 20
209.4005904627866
 30
0.0
 10
211.6170141750688
 20
209.3469761642974
 30
0.0
 10
214.5927154004534
 20
209.1173174865119
 30
0.0
 10
217.6883274805714
 20
208.6911591749865
 30
0.0
 10
220.5913371912172
 20
208.289697891721
 30
0.0
 10
223.3355925955333
 20
207.7351236459829
 30
0.0
 10
226.1669873837794
 20
206.9780639130992
 30
0.0
 10
228.615266022219
 20
206.3208473537475
 30
0.0
 10
230.9132739019613
 20
205.5577802356114
 30
0.0
 10
233.2684057712185
 20
204.6194008209697
 30
0.0
 10
236.0288961880089
 20
203.5173147752383
 30
0.0
 10
238.5837144043298
 20
202.2702548051182
 30
0.0
 10
241.1505258593087
 20
200.771293759486
 30
0.0
 10
245.1295034855384
 20
198.4419139789811
 30
0.0
 10
248.6562262019418
 20
195.751983424098
 30
0.0
 10
251.9546898106007
 20
192.5300439989052
 30
0.0
 10
255.3784041719953
 20
189.2262835559377
 30
0.0
 10
259.9362870308276
 20
187.3855044426284
 30
0.0
 10
264.6942007462722
 20
187.3855044426284
 30
0.0
 10
266.4401105426565
 20
187.3855044426284
 30
0.0
 10
268.1083980313887
 20
187.6218595247634
 30
0.0
 10
269.7858580868504
 20
188.1062184181427
 30
0.0
 10
273.5147002490041
 20
189.1821863337266
 30
0.0
 10
276.7592050496253
 20
191.3711784732075
 30
0.0
 10
279.1528143290833
 20
194.4262245539867
 30
0.0
 10
279.1528143290833
 20
194.4262245539867
 30
0.0
 10
293.205703322966
 20
212.356869962373
 30
0.0
 10
293.205703322966
 20
212.356869962373
 30
0.0
 10
295.7513489725574
 20
215.6041954349228
 30
0.0
 10
297.1176523101607
 20
219.5630623162573
 30
0.0
 10
297.1176523101607
 20
223.6891670515539
 30
0.0
 10
297.1176523101607
 20
228.6841464000772
 30
0.0
 10
295.0839047859838
 20
233.4639149400064
 30
0.0
 10
291.4845120866884
 20
236.9271402402474
 30
0.0
 10
285.5218484800519
 20
242.6841316464145
 30
0.0
 10
279.1803320292718
 20
247.5087079594987
 30
0.0
 10
272.0408022730271
 20
251.7187653654015
 30
0.0
 10
268.4354237203261
 20
253.8442385568732
 30
0.0
 10
264.8787071413541
 20
255.6684596800065
 30
0.0
 10
261.0489452133294
 20
257.3565134040854
 30
0.0
 10
257.5642095981524
 20
258.8949638567172
 30
0.0
 10
254.1669578764539
 20
260.1914178833571
 30
0.0
 10
250.5432341902939
 20
261.3661739119805
 30
0.0
 10
247.1389200228507
 20
262.4717911805843
 30
0.0
 10
243.8457532485004
 20
263.3791216721653
 30
0.0
 10
240.3553547576195
 20
264.1732377133621
 30
0.0
 10
236.7760728032192
 20
264.989553088592
 30
0.0
 10
233.3308481268886
 20
265.6217281101354
 30
0.0
 10
229.6951312020706
 20
266.1290399521852
 30
0.0
 10
226.2061538130774
 20
266.617619087534
 30
0.0
 10
222.8628824312635
 20
266.9584036265655
 30
0.0
 10
219.3467318516304
 20
267.1834760209862
 30
0.0
 10
216.0433374500582
 20
267.3976102372413
 30
0.0
 10
212.8877376448032
 20
267.4995635317579
 30
0.0
 10
209.576914756091
 20
267.4995635317579
 30
0.0
 10
209.1945091572283
 20
267.4995635317579
 30
0.0
 10
208.8297381408807
 20
267.4981639617171
 30
0.0
 10
208.4469665006226
 20
267.4953432897885
 30
0.0
 10
206.1726005886479
 20
267.4780532168219
 30
0.0
 10
204.0051402959497
 20
267.4004309091699
 30
0.0
 10
201.7350161577911
 20
267.2554569847812
 30
0.0
 10
199.0165128422272
 20
267.0811782169211
 30
0.0
 10
196.430990212394
 20
266.8250568994396
 30
0.0
 10
193.7311980716844
 20
266.4623960040767
 30
0.0
 10
190.2069515176609
 20
265.986499126483
 30
0.0
 10
186.8693214797041
 20
265.36737240409
 30
0.0
 10
183.4085723418431
 20
264.5482363569315
 30
0.0
 10
180.0575279633406
 20
263.7523547042984
 30
0.0
 10
176.9019389240091
 20
262.8284446906948
 30
0.0
 10
173.6507377190385
 20
261.6914339894817
 30
0.0
 10
170.5039552050411
 20
260.5879483737094
 30
0.0
 10
167.5610792800769
 20
259.3733368966909
 30
0.0
 10
164.5518852670217
 20
257.9364736971804
 30
0.0
 10
161.6016131526877
 20
256.5246520354782
 30
0.0
 10
158.8661750396291
 20
255.0172289740604
 30
0.0
 10
156.0968673315812
 20
253.27698205338
 30
0.0
 10
153.057334946409
 20
251.3645664858243
 30
0.0
 10
150.2830856795245
 20
249.3431567098539
 30
0.0
 10
147.5310680444432
 20
247.0359977952289
 30
0.0
 10
144.9621464684795
 20
244.8780545788087
 30
0.0
 10
142.6525006255511
 20
242.6537932742975
 30
0.0
 10
140.399666560359
 20
240.1681138179962
 30
0.0
 10
137.9520984728633
 20
237.4630033111312
 30
0.0
 10
135.8191967942516
 20
234.7007688147515
 30
0.0
 10
133.8217734955973
 20
231.6481773645055
 30
0.0
 10
131.1819367822544
 20
227.6092335449857
 30
0.0
 10
129.0786736907392
 20
223.4820737491967
 30
0.0
 10
127.3617026964311
 20
218.9728743959404
 30
0.0
 10
125.5971140229627
 20
214.3320723951475
 30
0.0
 10
124.4036683513318
 20
209.7149123621221
 30
0.0
 10
123.6977575204807
 20
204.8003759931793
 30
0.0
 10
123.2546644114606
 20
201.7294394094743
 30
0.0
 10
123.0264160696394
 20
198.7731599098879
 30
0.0
 10
122.9925572405734
 20
195.6708298935736
 30
0.0
 10
122.9886707422292
 20
195.3487565293963
 30
0.0
 10
122.986905130793
 20
195.0421860949026
 30
0.0
 10
122.986905130793
 20
194.7204572402739
 30
0.0
 10
122.986905130793
 20
192.0530920608192
 30
0.0
 10
123.1174311859904
 20
189.5099225736078
 30
0.0
 10
123.391187085987
 20
186.8566822856426
 30
0.0
 10
123.5781588775256
 20
185.0497512354758
 30
0.0
 10
123.8233420168415
 20
183.3345458526038
 30
0.0
 10
124.1496679207584
 20
181.5477255473322
 30
0.0
 10
124.520435556435
 20
179.5245501599257
 30
0.0
 10
124.9642284504755
 20
177.6121453582933
 30
0.0
 10
125.523022938183
 20
175.6323566421542
 30
0.0
 10
126.2610377525873
 20
173.0246239123645
 30
0.0
 10
127.1302784072094
 20
170.584462780162
 30
0.0
 10
128.2080227001529
 20
168.0973729878964
 30
0.0
 10
130.4710843925667
 20
162.8903803100261
 30
0.0
 10
133.3568147961692
 20
158.2294783302614
 30
0.0
 10
137.0091220089335
 20
153.8821984648118
 30
0.0
 10
138.6971649670889
 20
151.8695952141756
 30
0.0
 10
140.4268289850756
 20
150.0513814762946
 30
0.0
 10
142.3529926368021
 20
148.2652717219669
 30
0.0
 10
144.2474183463708
 20
146.5063136264322
 30
0.0
 10
146.1464195733809
 20
144.9293965295229
 30
0.0
 10
148.2239198102205
 20
143.3909353109676
 30
0.0
 10
150.0876518722003
 20
142.0073419003977
 30
0.0
 10
151.922445132104
 20
140.7666230591551
 30
0.0
 10
153.900468236807
 20
139.5523668576086
 30
0.0
 10
156.0023209923579
 20
138.2594332879177
 30
0.0
 10
158.0547796913891
 20
137.1065536156257
 30
0.0
 10
160.2529443975995
 20
135.9850781418663
 30
0.0
 10
162.1417179973877
 20
135.018459710169
 30
0.0
 10
163.9683937510543
 20
134.1495743310188
 30
0.0
 10
165.9097265888394
 20
133.293737251019
 30
0.0
 10
167.6069421137243
 20
132.5437291979567
 30
0.0
 10
169.2399496715029
 20
131.8635704558579
 30
0.0
 10
170.9678588439768
 20
131.1865876611595
 30
0.0
 10
172.7183441578024
 20
130.4993772392393
 30
0.0
 10
174.3986248851927
 20
129.8749644484611
 30
0.0
 10
176.1730966763343
 20
129.2523065031958
 30
0.0
 10
178.4365136442201
 20
128.4560911069376
 30
0.0
 10
180.6082157107344
 20
127.7374872524081
 30
0.0
 10
182.8994948883572
 20
127.0255798022279
 30
0.0
 10
185.4313816878544
 20
126.2374711462835
 30
0.0
 10
187.8549632980341
 20
125.5202776277182
 30
0.0
 10
190.4083819443141
 20
124.8041391696453
 30
0.0
 10
191.8702866816331
 20
124.3924394932345
 30
0.0
 10
193.265873330861
 20
124.0079130074637
 30
0.0
 10
194.7327303929401
 20
123.613158894471
 30
0.0
 10
196.8356382089833
 20
123.0455363495826
 30
0.0
 10
198.8418895648186
 20
122.5124939506273
 30
0.0
 10
200.9493836642266
 20
121.9618062032335
 30
0.0
 10
202.7930049813113
 20
121.4774365439307
 30
0.0
 10
204.5508864845068
 20
121.0191850147756
 30
0.0
 10
206.3966179225762
 20
120.542577586238
 30
0.0
 10
208.6417005229264
 20
119.9619067421992
 30
0.0
 10
210.7777673830152
 20
119.3960498087469
 30
0.0
 10
213.0157875376206
 20
118.7892716004839
 30
0.0
 10
214.7810975279562
 20
118.3091437149974
 30
0.0
 10
216.459246602515
 20
117.8346571733679
 30
0.0
 10
218.2146734751773
 20
117.3192493569278
 30
0.0
 10
219.859318996142
 20
116.835234973097
 30
0.0
 10
221.4193012955566
 20
116.3487551928095
 30
0.0
 10
223.0473888263453
 20
115.8121815709818
 30
0.0
 10
224.3833537918317
 20
115.370498797926
 30
0.0
 10
225.6484143858622
 20
114.923885231957
 30
0.0
 10
226.9653236669458
 20
114.4285881604119
 30
0.0
 10
228.1552381157043
 20
113.9798537075348
 30
0.0
 10
229.2777794158793
 20
113.5215914124562
 30
0.0
 10
230.4415972663371
 20
113.0093595434165
 30
0.0
 10
231.4621852719956
 20
112.5595700300469
 30
0.0
 10
232.4199864124354
 20
112.0963661761317
 30
0.0
 10
233.4067048231045
 20
111.5756722913064
 30
0.0
 10
234.1235430661979
 20
111.1953768134283
 30
0.0
 10
234.7934634151515
 20
110.8073191047851
 30
0.0
 10
235.4803293275232
 20
110.3744643889103
 30
0.0
 10
236.0049097106928
 20
110.0421418656644
 30
0.0
 10
236.492455317396
 20
109.7048885495052
 30
0.0
 10
236.988441408038
 20
109.3309449664281
 30
0.0
 10
237.3810961659694
 20
109.0339023741358
 30
0.0
 10
237.7419914498961
 20
108.7333393248945
 30
0.0
 10
238.1049968548075
 20
108.4006722921001
 30
0.0
 10
238.4013181302325
 20
108.1272716675754
 30
0.0
 10
238.670143237316
 20
107.8517501561425
 30
0.0
 10
238.9361476724708
 20
107.5487109445212
 30
0.0
 10
239.1858955633046
 20
107.2611961944303
 30
0.0
 10
239.4032164928836
 20
106.9687506514262
 30
0.0
 10
239.6060680214244
 20
106.6463112458536
 30
0.0
 10
239.9743702606444
 20
106.0508157253048
 30
0.0
 10
240.2212974795497
 20
105.4161753073048
 30
0.0
 10
240.3521895761424
 20
104.7282543344407
 30
0.0
 10
240.4379078581848
 20
104.2992753509868
 30
0.0
 10
240.4894120356893
 20
103.8840552176271
 30
0.0
 10
240.5112883920206
 20
103.4469694938594
 30
0.0
 10
240.5247027325663
 20
103.2215418239667
 30
0.0
 10
240.5306885859719
 20
103.0063417812959
 30
0.0
 10
240.5306885859719
 20
102.7805696018547
 30
0.0
 10
240.5306885859719
 20
101.7232913292783
 30
0.0
 10
240.3927555754813
 20
100.7132862263136
 30
0.0
 10
240.1091165578113
 20
99.69446383209136
 30
0.0
 10
239.7330628537495
 20
98.35744380611268
 30
0.0
 10
239.1365230386317
 20
97.144942450079
 30
0.0
 10
238.3067717910093
 20
96.03122920708486
 30
0.0
 10
237.8735725655859
 20
95.44737164972215
 30
0.0
 10
237.4135446590711
 20
94.92526742893252
 30
0.0
 10
236.8889642759015
 20
94.42220812662233
 30
0.0
 10
236.3658049946195
 20
93.91808299789635
 30
0.0
 10
235.8331071052127
 20
93.47287976789155
 30
0.0
 10
235.2446632644853
 20
93.04707673183806
 30
0.0
 10
234.5514669891595
 20
92.54260709356357
 30
0.0
 10
233.8582491819868
 20
92.10551060387251
 30
0.0
 10
233.1036656114832
 20
91.69805270127795
 30
0.0
 10
232.1920933460861
 20
91.20204507878913
 30
0.0
 10
231.2932033384441
 20
90.78365976395231
 30
0.0
 10
230.3265956726701
 20
90.40582968253092
 30
0.0
 10
229.2375794579359
 20
89.97650080656674
 30
0.0
 10
228.1771144720356
 20
89.62372302887716
 30
0.0
 10
227.0482212770596
 20
89.31539774887069
 30
0.0
 10
225.777519339172
 20
88.96508536763773
 30
0.0
 10
224.5502040725517
 20
88.68886407118445
 30
0.0
 10
223.2516399249271
 20
88.46132089734538
 30
0.0
 10
221.7445613730578
 20
88.19356161667775
 30
0.0
 10
220.296415485833
 20
88.0009484812821
 30
0.0
 10
218.7717023514486
 20
87.86548086724804
 30
0.0
 10
217.194451510914
 20
87.72190112993856
 30
0.0
 10
215.6859733890039
 20
87.6382929688809
 30
0.0
 10
214.1023491218216
 20
87.60618898532774
 30
0.0
 10
213.5527272008436
 20
87.59384047119779
 30
0.0
 10
213.0284913272225
 20
87.58784385186878
 30
0.0
 10
212.4788694062444
 20
87.58784385186878
 30
0.0
 10
209.9395756514539
 20
87.58784385186878
 30
0.0
 10
207.5188147132028
 20
87.71448879168358
 30
0.0
 10
204.993624318055
 20
87.97942740042268
 30
0.0
 10
200.7084207668802
 20
88.43204296868247
 30
0.0
 10
196.6603043806309
 20
89.25118978176435
 30
0.0
 10
192.5359867886173
 20
90.50037602175425
 30
0.0
 10
188.1580025096553
 20
91.82857875647536
 30
0.0
 10
184.1074099610261
 20
93.5162664391589
 30
0.0
 10
180.0818697161286
 20
95.6904446680533
 30
0.0
 10
176.3286750352635
 20
97.71433060640367
 30
0.0
 10
172.9222507468356
 20
99.96821973208803
 30
0.0
 10
169.5920276641721
 20
102.6309878622546
 30
0.0
 10
167.1737321223776
 20
104.5624483482897
 30
0.0
 10
164.9854505338404
 20
106.5517649066303
 30
0.0
 10
162.8331594272008
 20
108.775326426121
 30
0.0
 10
159.3822826410898
 20
112.3009833161088
 30
0.0
 10
154.6603594075426
 20
114.286413376105
 30
0.0
 10
149.7271118637455
 20
114.286413376105
 30
0.0
 10
148.4832170751025
 20
114.286413376105
 30
0.0
 10
147.2961232982725
 20
114.1671807745452
 30
0.0
 10
146.0772700474379
 20
113.9195214728493
 30
0.0
 10
141.6714343246624
 20
113.0273494014035
 30
0.0
 10
137.7714678102023
 20
110.5709640226502
 30
0.0
 10
135.0635473973322
 20
106.9828540110689
 30
0.0
 10
135.0635473973322
 20
106.9828540110689
 30
0.0
 10
134.9732428319251
 20
106.8625555830934
 30
0.0
 10
134.9732428319251
 20
106.8625555830934
 30
0.0
 10
134.9732428319251
 20
106.8625555830934
 30
0.0
 10
121.0893142397472
 20
88.10854311965581
 30
0.0
 10
121.0893142397472
 20
88.10854311965581
 30
0.0
 10
118.7366370010233
 20
84.92895683708482
 30
0.0
 10
117.4853460230104
 20
81.13377505499325
 30
0.0
 10
117.4853460230104
 20
77.17878390607966
 30
0.0
 10
117.4853460230104
 20
72.44873778333367
 30
0.0
 10
119.3007283230394
 20
67.91660163029191
 30
0.0
 10
122.5660436535761
 20
64.49430298782336
 30
0.0
 10
129.0155315500486
 20
57.71956039681143
 30
0.0
 10
136.01851709992
 20
52.05147936897226
 30
0.0
 10
143.9888316324327
 20
47.15562726007524
 30
0.0
 10
148.0016788536517
 20
44.68830101167542
 30
0.0
 10
151.9764254719885
 20
42.57763096486693
 30
0.0
 10
156.2676148765689
 20
40.63488509963675
 30
0.0
 10
160.0056403713755
 20
38.9404929381612
 30
0.0
 10
163.6537165762469
 20
37.51209444591712
 30
0.0
 10
167.5476757054546
 20
36.21740064775175
 30
0.0
 10
171.3192262857021
 20
34.96186520444177
 30
0.0
 10
174.9715334984663
 20
33.93598574743641
 30
0.0
 10
178.8450373732304
 20
33.04451615249191
 30
0.0
 10
182.3350590567925
 20
32.23947808201446
 30
0.0
 10
185.6920892887007
 20
31.60518486504386
 30
0.0
 10
189.2353915271269
 20
31.08166223384742
 30
0.0
 10
192.6312221469377
 20
30.57824765606529
 30
0.0
 10
195.8852440238368
 20
30.21347394823683
 30
0.0
 10
199.3086138756828
 20
29.95312431434332
 30
0.0
 10
202.3650810583497
 20
29.71888204467396
 30
0.0
 10
205.2843042496229
 20
29.58165151068456
 30
0.0
 10
208.3492549799223
 20
29.52767655376175
 30
0.0
  0
LWPOLYLINE
  5
B1
330
A8
100
AcDbEntity
  8
レイヤー 1
100
AcDbPolyline
 90
        4
 70
     1
 43
0.0
 10
0.0
 20
297.0000884267266
 10
419.9999449633593
 20
297.0000884267266
 10
419.9999449633593
 20
0.0
 10
0.0
 20
0.0
  0
ENDBLK
  5
AB
330
A8
100
AcDbEntity
  8
0
100
AcDbBlockEnd
  0
BLOCK
  5
BE
330
BC
100
AcDbEntity
  8
0
100
AcDbBlockBegin
  2
Block_5
 70
     0
 10
0.0
 20
0.0
 30
0.0
  3
Block_5
  1

  0
SPLINE
  5
C0
330
BC
100
AcDbEntity
  8
レイヤー 1
 62
   252
370
    18
100
AcDbSpline
210
0.0
220
0.0
230
1.0
 70
     9
 71
     3
 72
    17
 73
    13
 74
     0
 42
0.0000000001
 43
0.0000000001
 40
0.0
 40
0.0
 40
0.0
 40
0.0
 40
1.0
 40
1.0
 40
1.0
 40
2.0
 40
2.0
 40
2.0
 40
3.0
 40
3.0
 40
3.0
 40
4.0
 40
4.0
 40
4.0
 40
4.0
 10
178.1617780451948
 20
163.500291401996
 30
0.0
 10
178.1617780451948
 20
165.7093835204487
 30
0.0
 10
176.370715966107
 20
167.5004348336132
 30
0.0
 10
174.1616238476542
 20
167.5004348336132
 30
0.0
 10
171.9525317292015
 20
167.5004348336132
 30
0.0
 10
170.161835691509
 20
165.7093835204487
 30
0.0
 10
170.161835691509
 20
163.500291401996
 30
0.0
 10
170.161835691509
 20
161.2911885176199
 30
0.0
 10
171.9525317292015
 20
159.5001372044555
 30
0.0
 10
174.1616238476542
 20
159.5001372044555
 30
0.0
 10
176.370715966107
 20
159.5001372044555
 30
0.0
 10
178.1617780451948
 20
161.2911885176199
 30
0.0
 10
178.1617780451948
 20
163.500291401996
 30
0.0
  0
LWPOLYLINE
  5
C1
330
BC
100
AcDbEntity
  8
レイヤー 1
100
AcDbPolyline
 90
        4
 70
     1
 43
0.0
 10
0.0
 20
297.0000884267266
 10
419.9999449633593
 20
297.0000884267266
 10
419.9999449633593
 20
0.0
 10
0.0
 20
0.0
  0
ENDBLK
  5
BF
330
BC
100
AcDbEntity
  8
0
100
AcDbBlockEnd
  0
BLOCK
  5
CF
330
CD
100
AcDbEntity
  8
0
100
AcDbBlockBegin
  2
Block_6
 70
     0
 10
0.0
 20
0.0
 30
0.0
  3
Block_6
  1

  0
SPLINE
  5
D1
330
CD
100
AcDbEntity
  8
レイヤー 1
 62
   112
370
    18
100
AcDbSpline
210
0.0
220
0.0
230
1.0
 70
     9
 71
     3
 72
    65
 73
    61
 74
     0
 42
0.0000000001
 43
0.0000000001
 40
0.0
 40
0.0
 40
0.0
 40
0.0
 40
1.0
 40
1.0
 40
1.0
 40
2.0
 40
2.0
 40
2.0
 40
3.0
 40
3.0
 40
3.0
 40
4.0
 40
4.0
 40
4.0
 40
5.0
 40
5.0
 40
5.0
 40
6.0
 40
6.0
 40
6.0
 40
7.0
 40
7.0
 40
7.0
 40
8.0
 40
8.0
 40
8.0
 40
9.0
 40
9.0
 40
9.0
 40
10.0
 40
10.0
 40
10.0
 40
11.0
 40
11.0
 40
11.0
 40
12.0
 40
12.0
 40
12.0
 40
13.0
 40
13.0
 40
13.0
 40
14.0
 40
14.0
 40
14.0
 40
15.0
 40
15.0
 40
15.0
 40
16.0
 40
16.0
 40
16.0
 40
17.0
 40
17.0
 40
17.0
 40
18.0
 40
18.0
 40
18.0
 40
19.0
 40
19.0
 40
19.0
 40
20.0
 40
20.0
 40
20.0
 40
20.0
 10
364.0530153847897
 20
256.6246244000908
 30
0.0
 10
366.6529858838142
 20
257.321351898289
 30
0.0
 10
368.5001168919245
 20
259.2284706315362
 30
0.0
 10
368.5001168919245
 20
261.9201667978555
 30
0.0
 10
368.5001168919245
 20
261.9201667978555
 30
0.0
 10
368.5001168919245
 20
267.6238668832351
 30
0.0
 10
368.5001168919245
 20
267.6238668832351
 30
0.0
 10
368.5001168919245
 20
267.6238668832351
 30
0.0
 10
366.5001958990434
 20
267.6238668832351
 30
0.0
 10
366.5001958990434
 20
267.6238668832351
 30
0.0
 10
366.5001958990434
 20
267.6238668832351
 30
0.0
 10
366.5001958990434
 20
261.9201667978555
 30
0.0
 10
366.5001958990434
 20
261.9201667978555
 30
0.0
 10
366.5001958990434
 20
260.5743187146958
 30
0.0
 10
365.576651926835
 20
259.3706454158431
 30
0.0
 10
364.276645145476
 20
259.0224539215183
 30
0.0
 10
364.276645145476
 20
259.0224539215183
 30
0.0
 10
339.9473377649481
 20
253.1098949223454
 30
0.0
 10
339.9473377649481
 20
253.1098949223454
 30
0.0
 10
337.3473672659236
 20
252.4131458923004
 30
0.0
 10
335.5002362578133
 20
250.0057992945949
 30
0.0
 10
335.5002362578133
 20
247.3141031282757
 30
0.0
 10
335.5002362578133
 20
247.3141031282757
 30
0.0
 10
335.5002362578133
 20
49.63155278978395
 30
0.0
 10
335.5002362578133
 20
49.63155278978395
 30
0.0
 10
335.5002362578133
 20
46.93985662346469
 30
0.0
 10
337.3473672659236
 20
44.53251002575924
 30
0.0
 10
339.9473377649481
 20
43.83576099571423
 30
0.0
 10
339.9473377649481
 20
43.83576099571423
 30
0.0
 10
364.276645145476
 20
37.92322352838812
 30
0.0
 10
364.276645145476
 20
37.92322352838812
 30
0.0
 10
365.5763074172865
 20
37.57503203406328
 30
0.0
 10
366.5001958990434
 20
36.37133720336377
 30
0.0
 10
366.5001958990434
 20
35.02548912020414
 30
0.0
 10
366.5001958990434
 20
35.02548912020414
 30
0.0
 10
366.5001958990434
 20
29.32532025769689
 30
0.0
 10
366.5001958990434
 20
29.32532025769689
 30
0.0
 10
366.5001958990434
 20
29.32532025769689
 30
0.0
 10
368.5001168919245
 20
29.32532025769689
 30
0.0
 10
368.5001168919245
 20
29.32532025769689
 30
0.0
 10
368.5001168919245
 20
29.32532025769689
 30
0.0
 10
368.5001168919245
 20
35.02548912020414
 30
0.0
 10
368.5001168919245
 20
35.02548912020414
 30
0.0
 10
368.5001168919245
 20
37.7171852865234
 30
0.0
 10
366.6529858838142
 20
39.62430401977058
 30
0.0
 10
364.0530153847897
 20
40.32105304981557
 30
0.0
 10
364.0530153847897
 20
40.32105304981557
 30
0.0
 10
339.723686472415
 20
46.23361204898848
 30
0.0
 10
339.723686472415
 20
46.23361204898848
 30
0.0
 10
338.4240457324513
 20
46.58214805286184
 30
0.0
 10
337.5001357188476
 20
48.28570470662432
 30
0.0
 10
337.5001357188476
 20
49.63155278978395
 30
0.0
 10
337.5001357188476
 20
49.63155278978395
 30
0.0
 10
337.5001357188476
 20
247.3141031282757
 30
0.0
 10
337.5001357188476
 20
247.3141031282757
 30
0.0
 10
337.5001357188476
 20
248.6599512114353
 30
0.0
 10
338.4240457324513
 20
250.3638739065931
 30
0.0
 10
339.723686472415
 20
250.7120654009179
 30
0.0
 10
339.723686472415
 20
250.7120654009179
 30
0.0
 10
364.0530153847897
 20
256.6246244000908
 30
0.0
 10
364.0530153847897
 20
256.6246244000908
 30
0.0
  0
LWPOLYLINE
  5
D2
330
CD
100
AcDbEntity
  8
レイヤー 1
100
AcDbPolyline
 90
        4
 70
     1
 43
0.0
 10
0.0
 20
297.0000884267266
 10
419.9999449633593
 20
297.0000884267266
 10
419.9999449633593
 20
0.0
 10
0.0
 20
0.0
  0
ENDBLK
  5
D0
330
CD
100
AcDbEntity
  8
0
100
AcDbBlockEnd
  0
BLOCK
  5
DB
330
D9
100
AcDbEntity
  8
0
100
AcDbBlockBegin
  2
Block_7
 70
     0
 10
0.0
 20
0.0
 30
0.0
  3
Block_7
  1

  0
LINE
  5
DD
330
D9
100
AcDbEntity
  8
レイヤー 1
 62
    29
370
    18
100
AcDbLine
 10
57.44643968629485
 20
44.89435809390608
 30
0.0
 11
420.0000310907465
 21
44.89435809390608
 31
0.0
  0
LINE
  5
DE
330
D9
100
AcDbEntity
  8
レイヤー 1
 62
    29
370
    18
100
AcDbLine
 10
57.44643968629485
 20
251.9292606995502
 30
0.0
 11
420.0000310907465
 21
251.9292606995502
 31
0.0
  0
LWPOLYLINE
  5
DF
330
D9
100
AcDbEntity
  8
レイヤー 1
100
AcDbPolyline
 90
        4
 70
     1
 43
0.0
 10
0.0
 20
297.0000884267266
 10
419.9999449633593
 20
297.0000884267266
 10
419.9999449633593
 20
0.0
 10
0.0
 20
0.0
  0
ENDBLK
  5
DC
330
D9
100
AcDbEntity
  8
0
100
AcDbBlockEnd
  0
BLOCK
  5
F4
330
F2
100
AcDbEntity
  8
0
100
AcDbBlockBegin
  2
Block_8
 70
     0
 10
0.0
 20
0.0
 30
0.0
  3
Block_8
  1

  0
CIRCLE
  5
F6
330
F2
100
AcDbEntity
  8
レイヤー 1
 62
   252
370
    18
100
AcDbCircle
 10
15.14019914619443
 20
21.27267534465911
 30
0.0
 40
2.296229988425062
  0
SPLINE
  5
F7
330
F2
100
AcDbEntity
  8
レイヤー 1
100
AcDbSpline
210
0.0
220
0.0
230
1.0
 70
     9
 71
     3
 72
    17
 73
    13
 74
     0
 42
0.0000000001
 43
0.0000000001
 40
0.0
 40
0.0
 40
0.0
 40
0.0
 40
1.0
 40
1.0
 40
1.0
 40
2.0
 40
2.0
 40
2.0
 40
3.0
 40
3.0
 40
3.0
 40
4.0
 40
4.0
 40
4.0
 40
4.0
 10
15.1402701340018
 20
16.34818116944947
 30
0.0
 10
15.93296103608973
 20
16.34818116944947
 30
0.0
 10
16.57536906781661
 20
15.70577179198217
 30
0.0
 10
16.57536906781661
 20
14.91308088989423
 30
0.0
 10
16.57536906781661
 20
14.12038864206588
 30
0.0
 10
15.93296103608973
 20
13.477980610339
 30
0.0
 10
15.1402701340018
 20
13.477980610339
 30
0.0
 10
14.34757788617344
 20
13.477980610339
 30
0.0
 10
13.70516985444656
 20
14.12038864206588
 30
0.0
 10
13.70516985444656
 20
14.91308088989423
 30
0.0
 10
13.70516985444656
 20
15.70577179198217
 30
0.0
 10
14.34757788617344
 20
16.34818116944947
 30
0.0
 10
15.1402701340018
 20
16.34818116944947
 30
0.0
  0
CIRCLE
  5
F8
330
F2
100
AcDbEntity
  8
レイヤー 1
 62
    29
370
    18
100
AcDbCircle
 10
15.14026979756669
 20
14.91308088989423
 30
0.0
 40
1.435099774902663
  0
LWPOLYLINE
  5
F9
330
F2
100
AcDbEntity
  8
レイヤー 1
100
AcDbPolyline
 90
        4
 70
     1
 43
0.0
 10
0.0
 20
297.0000884267266
 10
419.9999449633593
 20
297.0000884267266
 10
419.9999449633593
 20
0.0
 10
0.0
 20
0.0
  0
ENDBLK
  5
F5
330
F2
100
AcDbEntity
  8
0
100
AcDbBlockEnd
  0
BLOCK
  5
FF
330
FD
100
AcDbEntity
  8
0
100
AcDbBlockBegin
  2
Block_9
 70
     0
 10
0.0
 20
0.0
 30
0.0
  3
Block_9
  1

  0
LWPOLYLINE
  5
101
330
FD
100
AcDbEntity
  8
レイヤー 1
100
AcDbPolyline
 90
        4
 70
     1
 43
0.0
 10
224.9480480055577
 20
291.8615131920086
 10
194.853287203077
 20
291.8615131920086
 10
194.853287203077
 20
278.7082032248651
 10
224.9480480055577
 20
278.7082032248651
  0
LWPOLYLINE
  5
102
330
FD
100
AcDbEntity
  8
レイヤー 1
100
AcDbPolyline
 90
        4
 70
     1
 43
0.0
 10
0.0
 20
297.0000884267266
 10
419.9999449633593
 20
297.0000884267266
 10
419.9999449633593
 20
0.0
 10
0.0
 20
0.0
  0
ENDBLK
  5
100
330
FD
100
AcDbEntity
  8
0
100
AcDbBlockEnd
  0
ENDSEC
  0
SECTION
  2
ENTITIES
  0
INSERT
  5
7A
330
70
100
AcDbEntity
  8
レイヤー 1
100
AcDbBlockReference
  2
Block_0
 10
0.0
 20
0.0
 30
0.0
  0
LINE
  5
83
330
70
100
AcDbEntity
  8
レイヤー 1
  6
AI-Linetype-0
 62
    29
370
    25
100
AcDbLine
 10
3.347578760475802
 20
148.5000011496697
 30
0.0
 11
4.399914801345326
 21
148.5000011496697
 31
0.0
  0
LINE
  5
85
330
70
100
AcDbEntity
  8
レイヤー 1
  6
AI-Linetype-1
 62
    29
370
    25
100
AcDbLine
 10
4.750928986209355
 20
148.5000011496697
 30
0.0
 11
417.0031425281276
 21
148.5000011496697
 31
0.0
  0
INSERT
  5
88
330
70
100
AcDbEntity
  8
レイヤー 1
100
AcDbBlockReference
  2
Block_1
 10
0.0
 20
0.0
 30
0.0
  0
LINE
  5
90
330
70
100
AcDbEntity
  8
レイヤー 1
  6
AI-Linetype-3
 62
    29
370
    25
100
AcDbLine
 10
1.057451368438419
 20
248.4999911216858
 30
0.0
 11
2.11437352445513
 21
248.4999911216858
 31
0.0
  0
LINE
  5
92
330
70
100
AcDbEntity
  8
レイヤー 1
  6
AI-Linetype-4
 62
    29
370
    25
100
AcDbLine
 10
2.46683387562222
 20
248.4999911216858
 30
0.0
 11
419.2949492359965
 21
248.4999911216858
 31
0.0
  0
INSERT
  5
95
330
70
100
AcDbEntity
  8
レイヤー 1
100
AcDbBlockReference
  2
Block_2
 10
0.0
 20
0.0
 30
0.0
  0
LINE
  5
9B
330
70
100
AcDbEntity
  8
レイヤー 1
  6
AI-Linetype-5
 62
    29
370
    25
100
AcDbLine
 10
1.057451368438419
 20
48.49999502876856
 30
0.0
 11
2.11437352445513
 21
48.49999502876856
 31
0.0
  0
LINE
  5
9D
330
70
100
AcDbEntity
  8
レイヤー 1
  6
AI-Linetype-6
 62
    29
370
    25
100
AcDbLine
 10
2.46683387562222
 20
48.49999502876856
 30
0.0
 11
419.2949492359965
 21
48.49999502876856
 31
0.0
  0
INSERT
  5
A0
330
70
100
AcDbEntity
  8
レイヤー 1
100
AcDbBlockReference
  2
Block_3
 10
0.0
 20
0.0
 30
0.0
  0
LWPOLYLINE
  5
A6
330
70
100
AcDbEntity
  8
レイヤー 1
100
AcDbPolyline
 90
        4
 70
     1
 43
0.0
 10
0.0
 20
25.93728147494065
 10
420.0002894729079
 20
25.93728147494065
 10
420.0002894729079
 20
26.11367036378544
 10
0.0
 20
26.11367036378544
  0
HATCH
  5
A7
330
70
100
AcDbEntity
  8
レイヤー 1
 62
    29
440
 33554687
100
AcDbHatch
 10
0.0
 20
0.0
 30
0.0
210
0.0
220
0.0
230
1.0
  2
SOLID
 70
     1
 71
     1
 91
        1
 92
        1
 93
        4
 72
     1
 10
0.0
 20
25.93728147494065
 11
420.0002894729079
 21
25.93728147494065
 72
     1
 10
420.0002894729079
 20
25.93728147494065
 11
420.0002894729079
 21
26.11367036378544
 72
     1
 10
420.0002894729079
 20
26.11367036378544
 11
0.0
 21
26.11367036378544
 72
     1
 10
0.0
 20
26.11367036378544
 11
0.0
 21
25.93728147494065
 97
        1
330
A6
 75
     2
 76
     1
 98
        1
 10
0.0
 20
0.0
450
        0
451
        0
460
0.0
461
0.0
452
        0
462
0.0
453
        0
470

  0
INSERT
  5
A9
330
70
100
AcDbEntity
  8
レイヤー 1
100
AcDbBlockReference
  2
Block_4
 10
0.0
 20
0.0
 30
0.0
  0
LINE
  5
B2
330
70
100
AcDbEntity
  8
レイヤー 1
 62
   252
370
    18
100
AcDbLine
 10
260.2141555135598
 20
223.7915725148529
 30
0.0
 11
270.2139757964331
 21
223.7915725148529
 31
0.0
  0
LINE
  5
B3
330
70
100
AcDbEntity
  8
レイヤー 1
 62
   252
370
    18
100
AcDbLine
 10
265.2141733142303
 20
218.7915331823355
 30
0.0
 11
265.2141733142303
 21
228.7913534652088
 31
0.0
  0
LINE
  5
B4
330
70
100
AcDbEntity
  8
レイヤー 1
 62
   252
370
    18
100
AcDbLine
 10
151.5807454895842
 20
75.19670204825811
 30
0.0
 11
161.5805765383809
 21
75.19670204825811
 31
0.0
  0
LINE
  5
B5
330
70
100
AcDbEntity
  8
レイヤー 1
 62
   252
370
    18
100
AcDbLine
 10
156.5807740561782
 20
70.19667348166416
 30
0.0
 11
156.5807740561782
 21
80.19650991342256
 31
0.0
  0
LINE
  5
B6
330
70
100
AcDbEntity
  8
レイヤー 1
 62
   252
370
    18
100
AcDbLine
 10
257.4464303962504
 20
75.19670204825811
 30
0.0
 11
267.4462506791237
 21
75.19670204825811
 31
0.0
  0
LINE
  5
B7
330
70
100
AcDbEntity
  8
レイヤー 1
 62
   252
370
    18
100
AcDbLine
 10
262.4464266650742
 20
70.19667348166416
 30
0.0
 11
262.4464266650742
 21
80.19650991342256
 31
0.0
  0
LINE
  5
B8
330
70
100
AcDbEntity
  8
レイヤー 1
 62
   252
370
    18
100
AcDbLine
 10
153.2029978898948
 20
223.7915725148529
 30
0.0
 11
163.2028289386915
 21
223.7915725148529
 31
0.0
  0
LINE
  5
B9
330
70
100
AcDbEntity
  8
レイヤー 1
 62
   252
370
    18
100
AcDbLine
 10
158.2029833927951
 20
218.7915331823355
 30
0.0
 11
158.2029833927951
 21
228.7913534652088
 31
0.0
  0
LINE
  5
BA
330
70
100
AcDbEntity
  8
レイヤー 1
 62
   252
370
    18
100
AcDbLine
 10
169.1617460039878
 20
163.500291401996
 30
0.0
 11
179.1615770527845
 21
163.500291401996
 31
0.0
  0
LINE
  5
BB
330
70
100
AcDbEntity
  8
レイヤー 1
 62
   252
370
    18
100
AcDbLine
 10
174.1617638046584
 20
158.5002736013254
 30
0.0
 11
174.1617638046584
 21
168.5001046501221
 31
0.0
  0
INSERT
  5
BD
330
70
100
AcDbEntity
  8
レイヤー 1
100
AcDbBlockReference
  2
Block_5
 10
0.0
 20
0.0
 30
0.0
  0
LWPOLYLINE
  5
C2
330
70
100
AcDbEntity
  8
レイヤー 1
 62
   140
370
    18
100
AcDbPolyline
 90
        4
 70
     1
 43
0.0
 10
365.999881907198
 20
270.923816189322
 10
364.9997706878299
 20
270.923816189322
 10
364.9997706878299
 20
264.8239301231387
 10
365.999881907198
 20
264.8239301231387
  0
LWPOLYLINE
  5
C3
330
70
100
AcDbEntity
  8
レイヤー 1
 62
   140
370
    18
100
AcDbPolyline
 90
        4
 70
     1
 43
0.0
 10
415.0000348219228
 20
270.923816189322
 10
365.9999249708915
 20
270.923816189322
 10
365.9999249708915
 20
270.4239328344122
 10
415.0000348219228
 20
270.4239328344122
  0
LWPOLYLINE
  5
C4
330
70
100
AcDbEntity
  8
レイヤー 1
 62
     1
370
    18
100
AcDbPolyline
 90
        4
 70
     1
 43
0.0
 10
370.0000253388151
 20
269.6238309398097
 10
368.9999141194471
 20
269.6238309398097
 10
368.9999141194471
 20
263.8238189037707
 10
370.0000253388151
 20
263.8238189037707
  0
LWPOLYLINE
  5
C5
330
70
100
AcDbEntity
  8
レイヤー 1
 62
     1
370
    18
100
AcDbPolyline
 90
        4
 70
     1
 43
0.0
 10
413.9998805388611
 20
269.6238309398097
 10
370.0000253388151
 20
269.6238309398097
 10
370.0000253388151
 20
269.1239475849
 10
413.9998805388611
 20
269.1239475849
  0
LWPOLYLINE
  5
C6
330
70
100
AcDbEntity
  8
レイヤー 1
 62
     1
370
    18
100
AcDbPolyline
 90
        7
 70
     0
 43
0.0
 10
414.9999917582292
 20
269.6238955353501
 10
413.9998374751675
 20
269.6238955353501
 10
413.9998374751675
 20
185.3858418319087
 10
413.9998374751675
 20
27.32518394634796
 10
414.9999917582292
 20
27.32518394634796
 10
414.9999917582292
 20
185.3858418319087
 10
414.9999917582292
 20
269.6238955353501
  0
LINE
  5
C7
330
70
100
AcDbEntity
  8
レイヤー 1
 62
   133
370
    18
100
AcDbLine
 10
390.4999798964071
 20
277.7948007524914
 30
0.0
 11
390.4999798964071
 21
265.9439306653934
 31
0.0
  0
LWPOLYLINE
  5
C8
330
70
100
AcDbEntity
  8
レイヤー 1
 62
   140
370
    18
100
AcDbPolyline
 90
        4
 70
     1
 43
0.0
 10
365.999881907198
 20
26.02547591936304
 10
364.9997706878299
 20
26.02547591936304
 10
364.9997706878299
 20
32.12535660258471
 10
365.999881907198
 20
32.12535660258471
  0
LWPOLYLINE
  5
C9
330
70
100
AcDbEntity
  8
レイヤー 1
 62
   140
370
    18
100
AcDbPolyline
 90
        4
 70
     1
 43
0.0
 10
415.0000348219228
 20
26.02547591936304
 10
365.9999249708915
 20
26.02547591936304
 10
365.9999249708915
 20
26.52536196575364
 10
415.0000348219228
 20
26.52536196575364
  0
LWPOLYLINE
  5
CA
330
70
100
AcDbEntity
  8
レイヤー 1
 62
     1
370
    18
100
AcDbPolyline
 90
        4
 70
     1
 43
0.0
 10
370.0000253388151
 20
27.32546116887529
 10
368.9999141194471
 20
27.32546116887529
 10
368.9999141194471
 20
33.12548127935698
 10
370.0000253388151
 20
33.12548127935698
  0
LWPOLYLINE
  5
CB
330
70
100
AcDbEntity
  8
レイヤー 1
 62
     1
370
    18
100
AcDbPolyline
 90
        4
 70
     1
 43
0.0
 10
413.9998805388611
 20
27.32546116887529
 10
370.0000253388151
 20
27.32546116887529
 10
370.0000253388151
 20
27.82534721526589
 10
413.9998805388611
 20
27.82534721526589
  0
LINE
  5
CC
330
70
100
AcDbEntity
  8
レイヤー 1
 62
   133
370
    18
100
AcDbLine
 10
390.4999798964071
 20
19.15442272343202
 30
0.0
 11
390.4999798964071
 21
31.00528608182794
 31
0.0
  0
INSERT
  5
CE
330
70
100
AcDbEntity
  8
レイヤー 1
100
AcDbBlockReference
  2
Block_6
 10
0.0
 20
0.0
 30
0.0
  0
LINE
  5
D3
330
70
100
AcDbEntity
  8
レイヤー 1
 62
    29
370
    35
100
AcDbLine
 10
65.41262010422518
 20
44.89435809390608
 30
0.0
 11
65.41262010422518
 21
251.929389890631
 31
0.0
  0
LINE
  5
D4
330
70
100
AcDbEntity
  8
レイヤー 1
 62
    29
370
    35
100
AcDbLine
 10
65.41262010422518
 20
251.9292606995502
 30
0.0
 11
62.84051719789935
 21
244.117334431972
 31
0.0
  0
LINE
  5
D5
330
70
100
AcDbEntity
  8
レイヤー 1
 62
    29
370
    35
100
AcDbLine
 10
65.41262010422518
 20
251.9292606995502
 30
0.0
 11
67.98471762758933
 21
244.117334431972
 31
0.0
  0
LINE
  5
D6
330
70
100
AcDbEntity
  8
レイヤー 1
 62
    29
370
    35
100
AcDbLine
 10
65.41262010422518
 20
44.89435809390608
 30
0.0
 11
67.98471762758933
 21
52.70626821259926
 31
0.0
  0
LINE
  5
D7
330
70
100
AcDbEntity
  8
レイヤー 1
 62
    29
370
    35
100
AcDbLine
 10
65.41262010422518
 20
44.89435809390608
 30
0.0
 11
62.84051719789935
 21
52.70626821259926
 31
0.0
  0
MTEXT
  5
D8
330
70
100
AcDbEntity
  8
レイヤー 1
100
AcDbMText
 10
62.3185906148457
 20
107.9357028267487
 30
0.0
 40
0.2
 41
0.0
 46
0.0
 71
     7
 72
     1
  1
\C29;\FMS UI Gothic|b0|i0|c128;\H5.696928;\W1.035170;TOP面 H207(参考寸)
 11
-0.0000000000000002
 21
1.0
 31
0.0
 73
     1
 44
1.0
  0
INSERT
  5
DA
330
70
100
AcDbEntity
  8
レイヤー 1
100
AcDbBlockReference
  2
Block_7
 10
0.0
 20
0.0
 30
0.0
  0
LINE
  5
E0
330
70
100
AcDbEntity
  8
レイヤー 1
 62
    29
370
    35
100
AcDbLine
 10
95.69047696582348
 20
48.49999502876856
 30
0.0
 11
95.69047696582348
 21
248.4999480579922
 31
0.0
  0
LINE
  5
E1
330
70
100
AcDbEntity
  8
レイヤー 1
 62
    29
370
    35
100
AcDbLine
 10
95.69047696582348
 20
248.4999911216858
 30
0.0
 11
93.11836867653594
 21
240.9537032478671
 31
0.0
  0
LINE
  5
E2
330
70
100
AcDbEntity
  8
レイヤー 1
 62
    29
370
    35
100
AcDbLine
 10
95.69047696582348
 20
248.4999911216858
 30
0.0
 11
98.26257448918761
 21
240.9537032478671
 31
0.0
  0
LINE
  5
E3
330
70
100
AcDbEntity
  8
レイヤー 1
 62
    29
370
    35
100
AcDbLine
 10
95.69047696582348
 20
48.49999502876856
 30
0.0
 11
98.26257448918761
 21
56.04626137074049
 31
0.0
  0
LINE
  5
E4
330
70
100
AcDbEntity
  8
レイヤー 1
 62
    29
370
    35
100
AcDbLine
 10
95.69047696582348
 20
48.49999502876856
 30
0.0
 11
93.11836867653594
 21
56.04626137074049
 31
0.0
  0
MTEXT
  5
E5
330
70
100
AcDbEntity
  8
レイヤー 1
100
AcDbMText
 10
92.59622139205276
 20
109.3990071341086
 30
0.0
 40
0.2
 41
0.0
 46
0.0
 71
     7
 72
     1
  1
\C29;\FMS UI Gothic|b0|i0|c128;\H5.696928;\W1.000000;TOP面 H200(基準寸)
 11
-0.0000000000000002
 21
1.0
 31
0.0
 73
     1
 44
1.0
  0
MTEXT
  5
E6
330
70
100
AcDbEntity
  8
レイヤー 1
100
AcDbMText
 10
332.2202039100005
 20
16.17954643692669
 30
0.0
 40
0.2
 41
0.0
 46
0.0
 71
     7
 72
     1
  1
\C29;\FKozuka Gothic Pr6N R|b0|i0|c128;\H3.102177;\W1.000000;※成型文字の断面は
 73
     1
 44
1.0
  0
MTEXT
  5
E7
330
70
100
AcDbEntity
  8
レイヤー 1
100
AcDbMText
 10
332.2202039100005
 20
8.511452905857606
 30
0.0
 40
0.2
 41
0.0
 46
0.0
 71
     7
 72
     1
  1
\C29;\FKozuka Gothic Pr6N R|b0|i0|c128;\H3.102177;\W1.000000;　実際のものと異なる場合があります
 73
     1
 44
1.0
  0
MTEXT
  5
E8
330
70
100
AcDbEntity
  8
レイヤー 1
100
AcDbMText
 10
20.53173556344313
 20
40.79992132226466
 30
0.0
 40
0.2
 41
0.0
 46
0.0
 71
     7
 72
     1
  1
\C29;\FKozuka Gothic Pr6N R|b0|i0|c128;\H2.497667;\W1.000000;材質：アクリル
 73
     1
 44
1.0
  0
MTEXT
  5
E9
330
70
100
AcDbEntity
  8
レイヤー 1
100
AcDbMText
 10
20.53173556344313
 20
34.62631021269695
 30
0.0
 40
0.2
 41
0.0
 46
0.0
 71
     7
 72
     1
  1
\C29;\FKozuka Gothic Pr6N R|b0|i0|c128;\H2.497667;\W1.000000;色：乳白色
 73
     1
 44
1.0
  0
SPLINE
  5
EA
330
70
100
AcDbEntity
  8
レイヤー 1
100
AcDbSpline
210
0.0
220
0.0
230
1.0
 70
    11
 71
     3
 72
    17
 73
    13
 74
     0
 42
0.0000000001
 43
0.0000000001
 40
0.0
 40
0.0
 40
0.0
 40
0.0
 40
1.0
 40
1.0
 40
1.0
 40
2.0
 40
2.0
 40
2.0
 40
3.0
 40
3.0
 40
3.0
 40
4.0
 40
4.0
 40
4.0
 40
4.0
 10
10.3843669547505
 20
26.11331777979437
 30
0.0
 10
10.3843669547505
 20
26.11331777979437
 30
0.0
 10
61.45600868384119
 20
26.11331777979437
 30
0.0
 10
61.45600868384119
 20
26.11331777979437
 30
0.0
 10
61.45600868384119
 20
26.11331777979437
 30
0.0
 10
61.45600868384119
 20
32.50812016840021
 30
0.0
 10
61.45600868384119
 20
32.50812016840021
 30
0.0
 10
61.45600868384119
 20
32.50812016840021
 30
0.0
 10
10.3843669547505
 20
32.50812016840021
 30
0.0
 10
10.3843669547505
 20
32.50812016840021
 30
0.0
 10
10.3843669547505
 20
32.50812016840021
 30
0.0
 10
10.3843669547505
 20
26.11331777979437
 30
0.0
 10
10.3843669547505
 20
26.11331777979437
 30
0.0
  0
SPLINE
  5
EB
330
70
100
AcDbEntity
  8
レイヤー 1
100
AcDbSpline
210
0.0
220
0.0
230
1.0
 70
    11
 71
     3
 72
    17
 73
    13
 74
     0
 42
0.0000000001
 43
0.0000000001
 40
0.0
 40
0.0
 40
0.0
 40
0.0
 40
1.0
 40
1.0
 40
1.0
 40
2.0
 40
2.0
 40
2.0
 40
3.0
 40
3.0
 40
3.0
 40
4.0
 40
4.0
 40
4.0
 40
4.0
 10
10.3843669547505
 20
10.50783863864569
 30
0.0
 10
10.3843669547505
 20
10.50783863864569
 30
0.0
 10
61.45600868384119
 20
10.50783863864569
 30
0.0
 10
61.45600868384119
 20
10.50783863864569
 30
0.0
 10
61.45600868384119
 20
10.50783863864569
 30
0.0
 10
61.45600868384119
 20
25.93692889094958
 30
0.0
 10
61.45600868384119
 20
25.93692889094958
 30
0.0
 10
61.45600868384119
 20
25.93692889094958
 30
0.0
 10
10.3843669547505
 20
25.93692889094958
 30
0.0
 10
10.3843669547505
 20
25.93692889094958
 30
0.0
 10
10.3843669547505
 20
25.93692889094958
 30
0.0
 10
10.3843669547505
 20
10.50783863864569
 30
0.0
 10
10.3843669547505
 20
10.50783863864569
 30
0.0
  0
LWPOLYLINE
  5
EC
330
70
100
AcDbEntity
  8
レイヤー 1
100
AcDbPolyline
 90
        4
 70
     1
 43
0.0
 10
10.3843669547505
 20
25.93728147494065
 10
61.45600868384119
 20
25.93728147494065
 10
61.45600868384119
 20
26.11367036378544
 10
10.3843669547505
 20
26.11367036378544
  0
HATCH
  5
ED
330
70
100
AcDbEntity
  8
レイヤー 1
 62
   255
440
 33554687
100
AcDbHatch
 10
0.0
 20
0.0
 30
0.0
210
0.0
220
0.0
230
1.0
  2
SOLID
 70
     1
 71
     1
 91
        1
 92
        1
 93
        4
 72
     1
 10
10.3843669547505
 20
25.93728147494065
 11
61.45600868384119
 21
25.93728147494065
 72
     1
 10
61.45600868384119
 20
25.93728147494065
 11
61.45600868384119
 21
26.11367036378544
 72
     1
 10
61.45600868384119
 20
26.11367036378544
 11
10.3843669547505
 21
26.11367036378544
 72
     1
 10
10.3843669547505
 20
26.11367036378544
 11
10.3843669547505
 21
25.93728147494065
 97
        1
330
EC
 75
     2
 76
     1
 98
        1
 10
0.0
 20
0.0
450
        0
451
        0
460
0.0
461
0.0
452
        0
462
0.0
453
        0
470

  0
LINE
  5
EE
330
70
100
AcDbEntity
  8
レイヤー 1
 62
   252
370
    18
100
AcDbLine
 10
12.26999959638929
 20
27.94384504255424
 30
0.0
 11
18.0103993688698
 21
27.94384504255424
 31
0.0
  0
LINE
  5
EF
330
70
100
AcDbEntity
  8
レイヤー 1
 62
   252
370
    18
100
AcDbLine
 10
15.14023379901035
 20
25.07357450494173
 30
0.0
 11
15.14023379901035
 21
30.81397293168182
 31
0.0
  0
LINE
  5
F0
330
70
100
AcDbEntity
  8
レイヤー 1
 62
   252
370
    18
100
AcDbLine
 10
12.26999959638929
 20
21.27267601752933
 30
0.0
 11
18.0103993688698
 21
21.27267601752933
 31
0.0
  0
LINE
  5
F1
330
70
100
AcDbEntity
  8
レイヤー 1
 62
   252
370
    18
100
AcDbLine
 10
15.14023379901035
 20
18.40240547991681
 30
0.0
 11
15.14023379901035
 21
24.1428039066569
 31
0.0
  0
INSERT
  5
F3
330
70
100
AcDbEntity
  8
レイヤー 1
100
AcDbBlockReference
  2
Block_8
 10
0.0
 20
0.0
 30
0.0
  0
MTEXT
  5
FA
330
70
100
AcDbEntity
  8
レイヤー 1
100
AcDbMText
 10
20.84093288324431
 20
26.58407931192973
 30
0.0
 40
0.2
 41
0.0
 46
0.0
 71
     7
 72
     1
  1
\C29;\FKozuka Gothic Pr6N R|b0|i0|c128;\H2.437423;\W1.000000;ベース仮固定穴位置
 73
     1
 44
1.0
  0
MTEXT
  5
FB
330
70
100
AcDbEntity
  8
レイヤー 1
100
AcDbMText
 10
20.84093288324431
 20
19.95709363650314
 30
0.0
 40
0.2
 41
0.0
 46
0.0
 71
     7
 72
     1
  1
\C29;\FKozuka Gothic Pr6N R|b0|i0|c128;\H2.437423;\W1.000000;ベース電源穴位置 
 73
     1
 44
1.0
  0
MTEXT
  5
FC
330
70
100
AcDbEntity
  8
レイヤー 1
100
AcDbMText
 10
20.84093288324431
 20
13.65704752262676
 30
0.0
 40
0.2
 41
0.0
 46
0.0
 71
     7
 72
     1
  1
\C29;\FKozuka Gothic Pr6N R|b0|i0|c128;\H2.437423;\W1.000000;本体/ベース仮固定穴位置
 73
     1
 44
1.0
  0
INSERT
  5
FE
330
70
100
AcDbEntity
  8
レイヤー 1
100
AcDbBlockReference
  2
Block_9
 10
0.0
 20
0.0
 30
0.0
  0
MTEXT
  5
103
330
70
100
AcDbEntity
  8
レイヤー 1
100
AcDbMText
 10
197.823067170596
 20
282.325230506675
 30
0.0
 40
0.2
 41
0.0
 46
0.0
 71
     7
 72
     1
  1
\C29;\FA-OTF Shin Go Pro B|b0|i0|c128;\H5.696928;\W1.000000;↑上↑
 73
     1
 44
1.0
  0
ENDSEC
  0
SECTION
  2
OBJECTS
  0
DICTIONARY
  5
C
330
0
100
AcDbDictionary
281
     1
  3
ACAD_COLOR
350
63
  3
ACAD_DETAILVIEWSTYLE
350
6A
  3
ACAD_GROUP
350
D
  3
ACAD_LAYOUT
350
62
  3
ACAD_MATERIAL
350
10
  3
ACAD_MLEADERSTYLE
350
66
  3
ACAD_MLINESTYLE
350
5F
  3
ACAD_PLOTSETTINGS
350
61
  3
ACAD_PLOTSTYLENAME
350
E
  3
ACAD_SCALELIST
350
42
  3
ACAD_SECTIONVIEWSTYLE
350
68
  3
ACAD_TABLESTYLE
350
64
  3
ACAD_VISUALSTYLE
350
29
  3
ACDB_RECOMPOSE_DATA
350
10F
  3
AcDbVariableDictionary
350
104
  0
DICTIONARY
  5
63
102
{ACAD_REACTORS
330
C
102
}
330
C
100
AcDbDictionary
281
     1
  0
DICTIONARY
  5
6A
102
{ACAD_REACTORS
330
C
102
}
330
C
100
AcDbDictionary
281
     1
  3
Imperial24
350
6B
  0
DICTIONARY
  5
D
102
{ACAD_REACTORS
330
C
102
}
330
C
100
AcDbDictionary
281
     1
  0
DICTIONARY
  5
62
102
{ACAD_REACTORS
330
C
102
}
330
C
100
AcDbDictionary
281
     1
  3
Layout1
350
6F
  3
Layout2
350
77
  3
Model
350
73
  0
DICTIONARY
  5
10
102
{ACAD_REACTORS
330
C
102
}
330
C
100
AcDbDictionary
281
     1
  3
ByBlock
350
19
  3
ByLayer
350
11
  3
Global
350
21
  0
DICTIONARY
  5
66
102
{ACAD_REACTORS
330
C
102
}
330
C
100
AcDbDictionary
281
     1
  3
Standard
350
67
  0
DICTIONARY
  5
5F
102
{ACAD_REACTORS
330
C
102
}
330
C
100
AcDbDictionary
281
     1
  3
Standard
350
60
  0
DICTIONARY
  5
61
102
{ACAD_REACTORS
330
C
102
}
330
C
100
AcDbDictionary
281
     1
  0
ACDBDICTIONARYWDFLT
  5
E
102
{ACAD_REACTORS
330
C
102
}
330
C
100
AcDbDictionary
281
     1
  3
Normal
350
F
100
AcDbDictionaryWithDefault
340
F
  0
DICTIONARY
  5
42
102
{ACAD_REACTORS
330
C
102
}
330
C
100
AcDbDictionary
281
     1
  3
A0
350
43
  3
A1
350
44
  3
A2
350
45
  3
A3
350
46
  3
A4
350
47
  3
A5
350
48
  3
A6
350
49
  3
A7
350
4A
  3
A8
350
4B
  3
A9
350
4C
  3
B0
350
4D
  3
B1
350
4E
  3
B2
350
4F
  3
B3
350
50
  3
B4
350
51
  3
B5
350
52
  3
B6
350
53
  0
DICTIONARY
  5
68
102
{ACAD_REACTORS
330
C
102
}
330
C
100
AcDbDictionary
281
     1
  3
Imperial24
350
69
  0
DICTIONARY
  5
64
102
{ACAD_REACTORS
330
C
102
}
330
C
100
AcDbDictionary
281
     1
  3
Standard
350
65
  0
DICTIONARY
  5
29
102
{ACAD_REACTORS
330
C
102
}
330
C
100
AcDbDictionary
281
     1
  3
2dWireframe
350
2F
  3
Basic
350
2E
  3
Brighten
350
35
  3
ColorChange
350
39
  3
Conceptual
350
32
  3
Dim
350
34
  3
EdgeColorOff
350
41
  3
Facepattern
350
38
  3
Flat
350
2A
  3
FlatWithEdges
350
2B
  3
Gouraud
350
2C
  3
GouraudWithEdges
350
2D
  3
Hidden
350
31
  3
JitterOff
350
3F
  3
Linepattern
350
37
  3
OverhangOff
350
40
  3
Realistic
350
33
  3
Shaded
350
3E
  3
Shaded with edges
350
3D
  3
Shades of Gray
350
3A
  3
Sketchy
350
3B
  3
Thicken
350
36
  3
Wireframe
350
30
  3
X-Ray
350
3C
  0
XRECORD
  5
10F
102
{ACAD_REACTORS
330
C
102
}
330
C
100
AcDbXrecord
280
     1
 90
        1
330
65
  0
DICTIONARY
  5
104
102
{ACAD_REACTORS
330
C
102
}
330
C
100
AcDbDictionary
281
     1
  3
CANNOSCALE
350
109
  3
CMLEADERSTYLE
350
106
  3
CTABLESTYLE
350
105
  3
CVIEWDETAILSTYLE
350
107
  3
CVIEWSECTIONSTYLE
350
108
  0
ACDBDETAILVIEWSTYLE
  5
6B
102
{ACAD_XDICTIONARY
360
144
102
}
102
{ACAD_REACTORS
330
6A
102
}
330
6A
100
AcDbModelDocViewStyle
 70
     0
  3
Imperial24
290
     0
100
AcDbDetailViewStyle
 70
     0
 71
     0
 90
        3
 71
     1
340
55
 62
   256
 40
0.24
340
0
 62
   256
 40
0.24
300

 40
0.36
280
     3
 71
     2
340
5D
 90
       25
 62
   256
 71
     3
340
55
 62
   256
 40
0.24
 90
        1
 40
0.75
 90
        1
300
%<\AcVar ViewType \f "%tc1">% %<\AcVar ViewDetailId>%\PSCALE %<\AcVar ViewScale \f "%sn">%
 71
     4
340
5D
 90
       25
 62
   256
340
5D
 90
       25
 62
   256
280
     0
  0
LAYOUT
  5
6F
102
{ACAD_REACTORS
330
62
102
}
330
62
100
AcDbPlotSettings
  1

  2

  4

  6

 40
0.0
 41
0.0
 42
0.0
 43
0.0
 44
0.0
 45
0.0
 46
0.0
 47
0.0
 48
0.0
 49
0.0
140
0.0
141
0.0
142
1.0
143
1.0
 70
   688
 72
     0
 73
     0
 74
     5
  7

 75
    16
147
1.0
 76
     0
 77
     2
 78
   300
148
0.0
149
0.0
100
AcDbLayout
  1
Layout1
 70
     1
 71
     1
 10
0.0
 20
0.0
 11
12.0
 21
9.0
 12
0.0
 22
0.0
 32
0.0
 14
0.0
 24
0.0
 34
0.0
 15
0.0
 25
0.0
 35
0.0
146
0.0
 13
0.0
 23
0.0
 33
0.0
 16
1.0
 26
0.0
 36
0.0
 17
0.0
 27
1.0
 37
0.0
 76
     0
330
6C
  0
LAYOUT
  5
77
102
{ACAD_REACTORS
330
62
102
}
330
62
100
AcDbPlotSettings
  1

  2

  4

  6

 40
0.0
 41
0.0
 42
0.0
 43
0.0
 44
0.0
 45
0.0
 46
0.0
 47
0.0
 48
0.0
 49
0.0
140
0.0
141
0.0
142
1.0
143
1.0
 70
   688
 72
     0
 73
     0
 74
     5
  7

 75
    16
147
1.0
 76
     0
 77
     2
 78
   300
148
0.0
149
0.0
100
AcDbLayout
  1
Layout2
 70
     1
 71
     2
 10
0.0
 20
0.0
 11
12.0
 21
9.0
 12
0.0
 22
0.0
 32
0.0
 14
0.0
 24
0.0
 34
0.0
 15
0.0
 25
0.0
 35
0.0
146
0.0
 13
0.0
 23
0.0
 33
0.0
 16
1.0
 26
0.0
 36
0.0
 17
0.0
 27
1.0
 37
0.0
 76
     0
330
74
  0
LAYOUT
  5
73
102
{ACAD_REACTORS
330
62
102
}
330
62
100
AcDbPlotSettings
  1

  2

  4

  6

 40
0.0
 41
0.0
 42
0.0
 43
0.0
 44
0.0
 45
0.0
 46
0.0
 47
0.0
 48
0.0
 49
0.0
140
0.0
141
0.0
142
1.0
143
1.0
 70
  1712
 72
     0
 73
     0
 74
     0
  7

 75
     0
147
1.0
 76
     0
 77
     2
 78
   300
148
0.0
149
0.0
100
AcDbLayout
  1
Model
 70
     1
 71
     0
 10
0.0
 20
0.0
 11
12.0
 21
9.0
 12
0.0
 22
0.0
 32
0.0
 14
0.0
 24
0.0
 34
0.0
 15
0.0
 25
0.0
 35
0.0
146
0.0
 13
0.0
 23
0.0
 33
0.0
 16
1.0
 26
0.0
 36
0.0
 17
0.0
 27
1.0
 37
0.0
 76
     0
330
70
  0
MATERIAL
  5
19
102
{ACAD_XDICTIONARY
360
1A
102
}
102
{ACAD_REACTORS
330
10
102
}
330
10
100
AcDbMaterial
  1
ByBlock
 72
     0
 43
0.0208333333333333
 43
0.0
 43
0.0
 43
0.0
 43
0.0
 43
0.0208333333333333
 43
0.0
 43
0.0
 43
0.0
 43
0.0
 43
1.0
 43
0.0
 43
0.0
 43
0.0
 43
0.0
 43
1.0
 77
     0
 47
0.0208333333333333
 47
0.0
 47
0.0
 47
0.0
 47
0.0
 47
0.0208333333333333
 47
0.0
 47
0.0
 47
0.0
 47
0.0
 47
1.0
 47
0.0
 47
0.0
 47
0.0
 47
0.0
 47
1.0
171
     0
 49
0.0208333333333333
 49
0.0
 49
0.0
 49
0.0
 49
0.0
 49
0.0208333333333333
 49
0.0
 49
0.0
 49
0.0
 49
0.0
 49
1.0
 49
0.0
 49
0.0
 49
0.0
 49
0.0
 49
1.0
175
     0
142
0.0208333333333333
142
0.0
142
0.0
142
0.0
142
0.0
142
0.0208333333333333
142
0.0
142
0.0
142
0.0
142
0.0
142
1.0
142
0.0
142
0.0
142
0.0
142
0.0
142
1.0
179
     0
144
0.0208333333333333
144
0.0
144
0.0
144
0.0
144
0.0
144
0.0208333333333333
144
0.0
144
0.0
144
0.0
144
0.0
144
1.0
144
0.0
144
0.0
144
0.0
144
0.0
144
1.0
147
0.0208333333333333
147
0.0
147
0.0
147
0.0
147
0.0
147
0.0208333333333333
147
0.0
147
0.0
147
0.0
147
0.0
147
1.0
147
0.0
147
0.0
147
0.0
147
0.0
147
1.0
  0
MATERIAL
  5
11
102
{ACAD_XDICTIONARY
360
12
102
}
102
{ACAD_REACTORS
330
10
102
}
330
10
100
AcDbMaterial
  1
ByLayer
 72
     0
 43
0.0208333333333333
 43
0.0
 43
0.0
 43
0.0
 43
0.0
 43
0.0208333333333333
 43
0.0
 43
0.0
 43
0.0
 43
0.0
 43
1.0
 43
0.0
 43
0.0
 43
0.0
 43
0.0
 43
1.0
 77
     0
 47
0.0208333333333333
 47
0.0
 47
0.0
 47
0.0
 47
0.0
 47
0.0208333333333333
 47
0.0
 47
0.0
 47
0.0
 47
0.0
 47
1.0
 47
0.0
 47
0.0
 47
0.0
 47
0.0
 47
1.0
171
     0
 49
0.0208333333333333
 49
0.0
 49
0.0
 49
0.0
 49
0.0
 49
0.0208333333333333
 49
0.0
 49
0.0
 49
0.0
 49
0.0
 49
1.0
 49
0.0
 49
0.0
 49
0.0
 49
0.0
 49
1.0
175
     0
142
0.0208333333333333
142
0.0
142
0.0
142
0.0
142
0.0
142
0.0208333333333333
142
0.0
142
0.0
142
0.0
142
0.0
142
1.0
142
0.0
142
0.0
142
0.0
142
0.0
142
1.0
179
     0
144
0.0208333333333333
144
0.0
144
0.0
144
0.0
144
0.0
144
0.0208333333333333
144
0.0
144
0.0
144
0.0
144
0.0
144
1.0
144
0.0
144
0.0
144
0.0
144
0.0
144
1.0
147
0.0208333333333333
147
0.0
147
0.0
147
0.0
147
0.0
147
0.0208333333333333
147
0.0
147
0.0
147
0.0
147
0.0
147
1.0
147
0.0
147
0.0
147
0.0
147
0.0
147
1.0
  0
MATERIAL
  5
21
102
{ACAD_XDICTIONARY
360
22
102
}
102
{ACAD_REACTORS
330
10
102
}
330
10
100
AcDbMaterial
  1
Global
 72
     0
 43
0.0208333333333333
 43
0.0
 43
0.0
 43
0.0
 43
0.0
 43
0.0208333333333333
 43
0.0
 43
0.0
 43
0.0
 43
0.0
 43
1.0
 43
0.0
 43
0.0
 43
0.0
 43
0.0
 43
1.0
 77
     0
 47
0.0208333333333333
 47
0.0
 47
0.0
 47
0.0
 47
0.0
 47
0.0208333333333333
 47
0.0
 47
0.0
 47
0.0
 47
0.0
 47
1.0
 47
0.0
 47
0.0
 47
0.0
 47
0.0
 47
1.0
171
     0
 49
0.0208333333333333
 49
0.0
 49
0.0
 49
0.0
 49
0.0
 49
0.0208333333333333
 49
0.0
 49
0.0
 49
0.0
 49
0.0
 49
1.0
 49
0.0
 49
0.0
 49
0.0
 49
0.0
 49
1.0
175
     0
142
0.0208333333333333
142
0.0
142
0.0
142
0.0
142
0.0
142
0.0208333333333333
142
0.0
142
0.0
142
0.0
142
0.0
142
1.0
142
0.0
142
0.0
142
0.0
142
0.0
142
1.0
179
     0
144
0.0208333333333333
144
0.0
144
0.0
144
0.0
144
0.0
144
0.0208333333333333
144
0.0
144
0.0
144
0.0
144
0.0
144
1.0
144
0.0
144
0.0
144
0.0
144
0.0
144
1.0
147
0.0208333333333333
147
0.0
147
0.0
147
0.0
147
0.0
147
0.0208333333333333
147
0.0
147
0.0
147
0.0
147
0.0
147
1.0
147
0.0
147
0.0
147
0.0
147
0.0
147
1.0
  0
MLEADERSTYLE
  5
67
102
{ACAD_XDICTIONARY
360
140
102
}
102
{ACAD_REACTORS
330
66
102
}
330
66
100
AcDbMLeaderStyle
179
     2
170
     2
171
     1
172
     0
 90
        2
 40
0.0
 41
0.0
173
     1
 91
-1056964608
340
5B
 92
       -2
290
     1
 42
0.09
291
     1
 43
0.36
  3
Standard
 44
0.18
300

342
55
174
     1
178
     6
175
     1
176
     0
 93
-1056964608
 45
0.18
292
     0
297
     0
 46
0.18
 94
-1056964608
 47
1.0
 49
1.0
140
1.0
293
     1
141
0.0
294
     1
177
     0
142
1.0
295
     0
296
     0
143
0.125
271
     0
272
     9
273
     9
  0
MLINESTYLE
  5
60
102
{ACAD_REACTORS
330
5F
102
}
330
5F
100
AcDbMlineStyle
  2
STANDARD
 70
     0
  3

 62
   256
 51
90.0
 52
90.0
 71
     2
 49
0.5
 62
   256
  6
BYLAYER
 49
-0.5
 62
   256
  6
BYLAYER
  0
ACDBPLACEHOLDER
  5
F
102
{ACAD_REACTORS
330
E
102
}
330
E
  0
SCALE
  5
43
102
{ACAD_REACTORS
330
42
102
}
330
42
100
AcDbScale
 70
     0
300
1:1
140
1.0
141
1.0
290
     1
  0
SCALE
  5
44
102
{ACAD_REACTORS
330
42
102
}
330
42
100
AcDbScale
 70
     0
300
1/128" = 1'-0"
140
0.0078125
141
12.0
290
     0
  0
SCALE
  5
45
102
{ACAD_REACTORS
330
42
102
}
330
42
100
AcDbScale
 70
     0
300
1/64" = 1'-0"
140
0.015625
141
12.0
290
     0
  0
SCALE
  5
46
102
{ACAD_REACTORS
330
42
102
}
330
42
100
AcDbScale
 70
     0
300
1/32" = 1'-0"
140
0.03125
141
12.0
290
     0
  0
SCALE
  5
47
102
{ACAD_REACTORS
330
42
102
}
330
42
100
AcDbScale
 70
     0
300
1/16" = 1'-0"
140
0.0625
141
12.0
290
     0
  0
SCALE
  5
48
102
{ACAD_REACTORS
330
42
102
}
330
42
100
AcDbScale
 70
     0
300
3/32" = 1'-0"
140
0.09375
141
12.0
290
     0
  0
SCALE
  5
49
102
{ACAD_REACTORS
330
42
102
}
330
42
100
AcDbScale
 70
     0
300
1/8" = 1'-0"
140
0.125
141
12.0
290
     0
  0
SCALE
  5
4A
102
{ACAD_REACTORS
330
42
102
}
330
42
100
AcDbScale
 70
     0
300
3/16" = 1'-0"
140
0.1875
141
12.0
290
     0
  0
SCALE
  5
4B
102
{ACAD_REACTORS
330
42
102
}
330
42
100
AcDbScale
 70
     0
300
1/4" = 1'-0"
140
0.25
141
12.0
290
     0
  0
SCALE
  5
4C
102
{ACAD_REACTORS
330
42
102
}
330
42
100
AcDbScale
 70
     0
300
3/8" = 1'-0"
140
0.375
141
12.0
290
     0
  0
SCALE
  5
4D
102
{ACAD_REACTORS
330
42
102
}
330
42
100
AcDbScale
 70
     0
300
1/2" = 1'-0"
140
0.5
141
12.0
290
     0
  0
SCALE
  5
4E
102
{ACAD_REACTORS
330
42
102
}
330
42
100
AcDbScale
 70
     0
300
3/4" = 1'-0"
140
0.75
141
12.0
290
     0
  0
SCALE
  5
4F
102
{ACAD_REACTORS
330
42
102
}
330
42
100
AcDbScale
 70
     0
300
1" = 1'-0"
140
1.0
141
12.0
290
     0
  0
SCALE
  5
50
102
{ACAD_REACTORS
330
42
102
}
330
42
100
AcDbScale
 70
     0
300
1-1/2" = 1'-0"
140
1.5
141
12.0
290
     0
  0
SCALE
  5
51
102
{ACAD_REACTORS
330
42
102
}
330
42
100
AcDbScale
 70
     0
300
3" = 1'-0"
140
3.0
141
12.0
290
     0
  0
SCALE
  5
52
102
{ACAD_REACTORS
330
42
102
}
330
42
100
AcDbScale
 70
     0
300
6" = 1'-0"
140
6.0
141
12.0
290
     0
  0
SCALE
  5
53
102
{ACAD_REACTORS
330
42
102
}
330
42
100
AcDbScale
 70
     0
300
1'-0" = 1'-0"
140
12.0
141
12.0
290
     0
  0
ACDBSECTIONVIEWSTYLE
  5
69
102
{ACAD_XDICTIONARY
360
142
102
}
102
{ACAD_REACTORS
330
68
102
}
330
68
100
AcDbModelDocViewStyle
 70
     0
  3
Imperial24
290
     0
100
AcDbSectionViewStyle
 70
     0
 71
     0
 90
       78
 71
     1
340
55
 62
   256
 40
0.24
340
0
340
0
 62
   256
 40
0.24
300
I, O, Q, S, X, Z
 40
0.48
 90
        3
 40
0.18
 90
        1
 71
     2
340
5D
 90
       25
 62
   256
340
5D
 90
       50
 62
   256
 40
0.24
 40
0.0
 40
0.24
 71
     3
340
55
 62
   256
 40
0.24
 90
        1
 40
0.75
 90
        1
300
%<\AcVar ViewType \f "%tc1">% %<\AcVar ViewSectionStartId>%-%<\AcVar ViewSectionEndId>%\PSCALE %<\AcVar ViewScale \f "%sn">%
 71
     4
 62
   256
 62
   257
300
ANSI31
 40
1.0
 90
        0
290
     0
290
     0
 90
        6
 40
0.0
 40
1.570796326794896
 40
0.2617993877991494
 40
1.308996938995747
 40
-0.2617993877991494
 40
1.832595714594046
  0
TABLESTYLE
  5
65
102
{ACAD_XDICTIONARY
360
10A
102
}
102
{ACAD_REACTORS
330
64
102
}
330
64
100
AcDbTableStyle
280
     0
  3
Standard
 70
     0
 71
     0
 40
0.06
 41
0.06
280
     0
281
     0
  7
Standard
140
0.18
170
     2
 62
     0
 63
     7
283
     0
 90
      512
 91
        0
  1

274
    -2
284
     1
 64
     0
275
    -2
285
     1
 65
     0
276
    -2
286
     1
 66
     0
277
    -2
287
     1
 67
     0
278
    -2
288
     1
 68
     0
279
    -2
289
     1
 69
     0
  7
Standard
140
0.25
170
     5
 62
     0
 63
     7
283
     0
 90
      512
 91
        0
  1

274
    -2
284
     1
 64
     0
275
    -2
285
     1
 65
     0
276
    -2
286
     1
 66
     0
277
    -2
287
     1
 67
     0
278
    -2
288
     1
 68
     0
279
    -2
289
     1
 69
     0
  7
Standard
140
0.18
170
     5
 62
     0
 63
     7
283
     0
 90
      512
 91
        0
  1

274
    -2
284
     1
 64
     0
275
    -2
285
     1
 65
     0
276
    -2
286
     1
 66
     0
277
    -2
287
     1
 67
     0
278
    -2
288
     1
 68
     0
279
    -2
289
     1
 69
     0
  0
VISUALSTYLE
  5
2F
102
{ACAD_XDICTIONARY
360
11A
102
}
102
{ACAD_REACTORS
330
29
102
}
330
29
100
AcDbVisualStyle
  2
2dWireframe
 70
     4
177
     2
291
     0
 71
     0
176
     1
 72
     2
176
     1
 73
     0
176
     1
 90
        0
176
     1
 40
0.6
176
     1
 41
30.0
176
     1
 63
     7
421
 16777215
176
     1
 74
     1
176
     1
 91
        4
176
     1
 64
     7
176
     1
 65
   257
176
     1
 75
     1
176
     1
175
     1
176
     1
 42
1.0
176
     1
 92
        0
176
     1
 66
   257
176
     1
 43
1.0
176
     1
 76
     1
176
     1
 77
     6
176
     1
 78
     2
176
     1
 67
     7
176
     1
 79
     5
176
     1
170
     0
176
     1
171
     0
176
     1
290
     0
176
     1
 93
        1
176
     1
 44
0.0
176
     1
173
     0
176
     1
1001
ACAD
1000
AcDbSavedByObjectVersion
1070
     0
  0
VISUALSTYLE
  5
2E
102
{ACAD_XDICTIONARY
360
118
102
}
102
{ACAD_REACTORS
330
29
102
}
330
29
100
AcDbVisualStyle
  2
Basic
 70
     7
177
     2
291
     1
 71
     1
176
     1
 72
     0
176
     1
 73
     1
176
     1
 90
        0
176
     1
 40
0.6
176
     1
 41
30.0
176
     1
 63
     7
421
 16777215
176
     1
 74
     0
176
     1
 91
        4
176
     1
 64
     7
176
     1
 65
   257
176
     1
 75
     1
176
     1
175
     1
176
     1
 42
1.0
176
     1
 92
        8
176
     1
 66
     7
176
     1
 43
1.0
176
     1
 76
     1
176
     1
 77
     6
176
     1
 78
     2
176
     1
 67
     7
176
     1
 79
     5
176
     1
170
     0
176
     1
171
     0
176
     1
290
     0
176
     1
 93
        1
176
     1
 44
0.0
176
     1
173
     0
176
     1
1001
ACAD
1000
AcDbSavedByObjectVersion
1070
     0
  0
VISUALSTYLE
  5
35
102
{ACAD_XDICTIONARY
360
126
102
}
102
{ACAD_REACTORS
330
29
102
}
330
29
100
AcDbVisualStyle
  2
Brighten
 70
    12
177
     2
291
     1
 71
     2
176
     1
 72
     2
176
     1
 73
     0
176
     1
 90
        0
176
     1
 40
0.6
176
     1
 41
30.0
176
     1
 63
     7
421
 16777215
176
     1
 74
     1
176
     1
 91
        4
176
     1
 64
     7
176
     1
 65
   257
176
     1
 75
     1
176
     1
175
     1
176
     1
 42
1.0
176
     1
 92
        8
176
     1
 66
     7
176
     1
 43
1.0
176
     1
 76
     1
176
     1
 77
     6
176
     1
 78
     2
176
     1
 67
     7
176
     1
 79
     5
176
     1
170
     0
176
     1
171
     0
176
     1
290
     0
176
     1
 93
        1
176
     1
 44
50.0
176
     1
173
     0
176
     1
1001
ACAD
1000
AcDbSavedByObjectVersion
1070
     0
  0
VISUALSTYLE
  5
39
102
{ACAD_XDICTIONARY
360
12E
102
}
102
{ACAD_REACTORS
330
29
102
}
330
29
100
AcDbVisualStyle
  2
ColorChange
 70
    16
177
     2
291
     1
 71
     2
176
     1
 72
     2
176
     1
 73
     3
176
     1
 90
        0
176
     1
 40
0.6
176
     1
 41
30.0
176
     1
 63
     8
421
  8421504
176
     1
 74
     1
176
     1
 91
        4
176
     1
 64
     7
176
     1
 65
   257
176
     1
 75
     1
176
     1
175
     1
176
     1
 42
1.0
176
     1
 92
        8
176
     1
 66
     8
424
  8421504
176
     1
 43
1.0
176
     1
 76
     1
176
     1
 77
     6
176
     1
 78
     2
176
     1
 67
     7
176
     1
 79
     5
176
     1
170
     0
176
     1
171
     0
176
     1
290
     0
176
     1
 93
        1
176
     1
 44
0.0
176
     1
173
     0
176
     1
1001
ACAD
1000
AcDbSavedByObjectVersion
1070
     0
  0
VISUALSTYLE
  5
32
102
{ACAD_XDICTIONARY
360
120
102
}
102
{ACAD_REACTORS
330
29
102
}
330
29
100
AcDbVisualStyle
  2
Conceptual
 70
     9
177
     2
291
     0
 71
     3
176
     1
 72
     2
176
     1
 73
     0
176
     1
 90
        0
176
     1
 40
0.6
176
     1
 41
30.0
176
     1
 63
     7
421
 16777215
176
     1
 74
     2
176
     1
 91
        2
176
     1
 64
     7
176
     1
 65
   257
176
     1
 75
     1
176
     1
175
     1
176
     1
 42
179.0
176
     1
 92
        8
176
     1
 66
     7
176
     1
 43
1.0
176
     1
 76
     1
176
     1
 77
     6
176
     1
 78
     2
176
     1
 67
     7
176
     1
 79
     3
176
     1
170
     0
176
     1
171
     0
176
     1
290
     0
176
     1
 93
        1
176
     1
 44
0.0
176
     1
173
     0
176
     1
1001
ACAD
1000
AcDbSavedByObjectVersion
1070
     0
  0
VISUALSTYLE
  5
34
102
{ACAD_XDICTIONARY
360
124
102
}
102
{ACAD_REACTORS
330
29
102
}
330
29
100
AcDbVisualStyle
  2
Dim
 70
    11
177
     2
291
     1
 71
     2
176
     1
 72
     2
176
     1
 73
     0
176
     1
 90
        0
176
     1
 40
0.6
176
     1
 41
30.0
176
     1
 63
     7
421
 16777215
176
     1
 74
     1
176
     1
 91
        4
176
     1
 64
     7
176
     1
 65
   257
176
     1
 75
     1
176
     1
175
     1
176
     1
 42
1.0
176
     1
 92
        8
176
     1
 66
     7
176
     1
 43
1.0
176
     1
 76
     1
176
     1
 77
     6
176
     1
 78
     2
176
     1
 67
     7
176
     1
 79
     5
176
     1
170
     0
176
     1
171
     0
176
     1
290
     0
176
     1
 93
        1
176
     1
 44
-50.0
176
     1
173
     0
176
     1
1001
ACAD
1000
AcDbSavedByObjectVersion
1070
     0
  0
VISUALSTYLE
  5
41
102
{ACAD_XDICTIONARY
360
13E
102
}
102
{ACAD_REACTORS
330
29
102
}
330
29
100
AcDbVisualStyle
  2
EdgeColorOff
 70
    22
177
     2
291
     1
 71
     2
176
     0
 72
     2
176
     0
 73
     0
176
     0
 90
        0
176
     0
 40
0.6
176
     0
 41
30.0
176
     0
 63
     7
421
 16777215
176
     0
 74
     1
176
     0
 91
        4
176
     0
 64
     7
176
     0
 65
   257
176
     0
 75
     1
176
     0
175
     1
176
     0
 42
1.0
176
     0
 92
        8
176
     2
 66
     7
176
     0
 43
1.0
176
     0
 76
     1
176
     0
 77
     6
176
     0
 78
     2
176
     0
 67
     7
176
     0
 79
     5
176
     0
170
     0
176
     0
171
     0
176
     0
290
     0
176
     0
 93
        1
176
     0
 44
0.0
176
     0
173
     0
176
     0
1001
ACAD
1000
AcDbSavedByObjectVersion
1070
     0
  0
VISUALSTYLE
  5
38
102
{ACAD_XDICTIONARY
360
12C
102
}
102
{ACAD_REACTORS
330
29
102
}
330
29
100
AcDbVisualStyle
  2
Facepattern
 70
    15
177
     2
291
     1
 71
     2
176
     1
 72
     2
176
     1
 73
     0
176
     1
 90
        0
176
     1
 40
0.6
176
     1
 41
30.0
176
     1
 63
     7
421
 16777215
176
     1
 74
     1
176
     1
 91
        4
176
     1
 64
     7
176
     1
 65
   257
176
     1
 75
     1
176
     1
175
     1
176
     1
 42
1.0
176
     1
 92
        8
176
     1
 66
     7
176
     1
 43
1.0
176
     1
 76
     1
176
     1
 77
     6
176
     1
 78
     2
176
     1
 67
     7
176
     1
 79
     5
176
     1
170
     0
176
     1
171
     0
176
     1
290
     0
176
     1
 93
        1
176
     1
 44
0.0
176
     1
173
     0
176
     1
1001
ACAD
1000
AcDbSavedByObjectVersion
1070
     0
  0
VISUALSTYLE
  5
2A
102
{ACAD_XDICTIONARY
360
110
102
}
102
{ACAD_REACTORS
330
29
102
}
330
29
100
AcDbVisualStyle
  2
Flat
 70
     0
177
     2
291
     1
 71
     2
176
     1
 72
     1
176
     1
 73
     1
176
     1
 90
        2
176
     1
 40
0.6
176
     1
 41
30.0
176
     1
 63
     7
421
 16777215
176
     1
 74
     0
176
     1
 91
        0
176
     1
 64
     7
176
     1
 65
   257
176
     1
 75
     1
176
     1
175
     1
176
     1
 42
1.0
176
     1
 92
        8
176
     1
 66
     7
176
     1
 43
1.0
176
     1
 76
     1
176
     1
 77
     6
176
     1
 78
     2
176
     1
 67
     7
176
     1
 79
     5
176
     1
170
     0
176
     1
171
     0
176
     1
290
     0
176
     1
 93
       13
176
     1
 44
0.0
176
     1
173
     0
176
     1
1001
ACAD
1000
AcDbSavedByObjectVersion
1070
     0
  0
VISUALSTYLE
  5
2B
102
{ACAD_XDICTIONARY
360
112
102
}
102
{ACAD_REACTORS
330
29
102
}
330
29
100
AcDbVisualStyle
  2
FlatWithEdges
 70
     1
177
     2
291
     1
 71
     2
176
     1
 72
     1
176
     1
 73
     1
176
     1
 90
        2
176
     1
 40
0.6
176
     1
 41
30.0
176
     1
 63
     7
421
 16777215
176
     1
 74
     1
176
     1
 91
        0
176
     1
 64
     7
176
     1
 65
   257
176
     1
 75
     1
176
     1
175
     1
176
     1
 42
1.0
176
     1
 92
        0
176
     1
 66
   257
176
     1
 43
1.0
176
     1
 76
     1
176
     1
 77
     6
176
     1
 78
     2
176
     1
 67
     7
176
     1
 79
     5
176
     1
170
     0
176
     1
171
     0
176
     1
290
     0
176
     1
 93
       13
176
     1
 44
0.0
176
     1
173
     0
176
     1
1001
ACAD
1000
AcDbSavedByObjectVersion
1070
     0
  0
VISUALSTYLE
  5
2C
102
{ACAD_XDICTIONARY
360
114
102
}
102
{ACAD_REACTORS
330
29
102
}
330
29
100
AcDbVisualStyle
  2
Gouraud
 70
     2
177
     2
291
     1
 71
     2
176
     1
 72
     2
176
     1
 73
     1
176
     1
 90
        2
176
     1
 40
0.6
176
     1
 41
30.0
176
     1
 63
     7
421
 16777215
176
     1
 74
     0
176
     1
 91
        0
176
     1
 64
     7
176
     1
 65
   257
176
     1
 75
     1
176
     1
175
     1
176
     1
 42
1.0
176
     1
 92
        0
176
     1
 66
     7
176
     1
 43
1.0
176
     1
 76
     1
176
     1
 77
     6
176
     1
 78
     2
176
     1
 67
     7
176
     1
 79
     5
176
     1
170
     0
176
     1
171
     0
176
     1
290
     0
176
     1
 93
       13
176
     1
 44
0.0
176
     1
173
     0
176
     1
1001
ACAD
1000
AcDbSavedByObjectVersion
1070
     0
  0
VISUALSTYLE
  5
2D
102
{ACAD_XDICTIONARY
360
116
102
}
102
{ACAD_REACTORS
330
29
102
}
330
29
100
AcDbVisualStyle
  2
GouraudWithEdges
 70
     3
177
     2
291
     1
 71
     2
176
     1
 72
     2
176
     1
 73
     1
176
     1
 90
        2
176
     1
 40
0.6
176
     1
 41
30.0
176
     1
 63
     7
421
 16777215
176
     1
 74
     1
176
     1
 91
        0
176
     1
 64
     7
176
     1
 65
   257
176
     1
 75
     1
176
     1
175
     1
176
     1
 42
1.0
176
     1
 92
        0
176
     1
 66
   257
176
     1
 43
1.0
176
     1
 76
     1
176
     1
 77
     6
176
     1
 78
     2
176
     1
 67
     7
176
     1
 79
     5
176
     1
170
     0
176
     1
171
     0
176
     1
290
     0
176
     1
 93
       13
176
     1
 44
0.0
176
     1
173
     0
176
     1
1001
ACAD
1000
AcDbSavedByObjectVersion
1070
     0
  0
VISUALSTYLE
  5
31
102
{ACAD_XDICTIONARY
360
11E
102
}
102
{ACAD_REACTORS
330
29
102
}
330
29
100
AcDbVisualStyle
  2
Hidden
 70
     6
177
     2
291
     0
 71
     1
176
     1
 72
     2
176
     1
 73
     2
176
     1
 90
        0
176
     1
 40
0.6
176
     1
 41
30.0
176
     1
 63
     7
421
 16777215
176
     1
 74
     2
176
     1
 91
        2
176
     1
 64
     7
176
     1
 65
   257
176
     1
 75
     2
176
     1
175
     1
176
     1
 42
40.0
176
     1
 92
        0
176
     1
 66
   257
176
     1
 43
1.0
176
     1
 76
     1
176
     1
 77
     6
176
     1
 78
     2
176
     1
 67
     7
176
     1
 79
     3
176
     1
170
     0
176
     1
171
     0
176
     1
290
     0
176
     1
 93
        1
176
     1
 44
0.0
176
     1
173
     0
176
     1
1001
ACAD
1000
AcDbSavedByObjectVersion
1070
     0
  0
VISUALSTYLE
  5
3F
102
{ACAD_XDICTIONARY
360
13A
102
}
102
{ACAD_REACTORS
330
29
102
}
330
29
100
AcDbVisualStyle
  2
JitterOff
 70
    20
177
     2
291
     1
 71
     2
176
     0
 72
     2
176
     0
 73
     0
176
     0
 90
        0
176
     0
 40
0.6
176
     0
 41
30.0
176
     0
 63
     7
421
 16777215
176
     0
 74
     1
176
     0
 91
        4
176
     0
 64
     7
176
     0
 65
   257
176
     0
 75
     1
176
     0
175
     1
176
     0
 42
1.0
176
     0
 92
       10
176
     2
 66
     7
176
     0
 43
1.0
176
     0
 76
     1
176
     0
 77
     6
176
     0
 78
     2
176
     0
 67
     7
176
     0
 79
     5
176
     0
170
     0
176
     0
171
     0
176
     0
290
     0
176
     0
 93
        1
176
     0
 44
0.0
176
     0
173
     0
176
     0
1001
ACAD
1000
AcDbSavedByObjectVersion
1070
     0
  0
VISUALSTYLE
  5
37
102
{ACAD_XDICTIONARY
360
12A
102
}
102
{ACAD_REACTORS
330
29
102
}
330
29
100
AcDbVisualStyle
  2
Linepattern
 70
    14
177
     2
291
     1
 71
     2
176
     1
 72
     2
176
     1
 73
     0
176
     1
 90
        0
176
     1
 40
0.6
176
     1
 41
30.0
176
     1
 63
     7
421
 16777215
176
     1
 74
     1
176
     1
 91
        4
176
     1
 64
     7
176
     1
 65
   257
176
     1
 75
     7
176
     1
175
     7
176
     1
 42
1.0
176
     1
 92
        8
176
     1
 66
     7
176
     1
 43
1.0
176
     1
 76
     1
176
     1
 77
     6
176
     1
 78
     2
176
     1
 67
     7
176
     1
 79
     5
176
     1
170
     0
176
     1
171
     0
176
     1
290
     0
176
     1
 93
        1
176
     1
 44
0.0
176
     1
173
     0
176
     1
1001
ACAD
1000
AcDbSavedByObjectVersion
1070
     0
  0
VISUALSTYLE
  5
40
102
{ACAD_XDICTIONARY
360
13C
102
}
102
{ACAD_REACTORS
330
29
102
}
330
29
100
AcDbVisualStyle
  2
OverhangOff
 70
    21
177
     2
291
     1
 71
     2
176
     0
 72
     2
176
     0
 73
     0
176
     0
 90
        0
176
     0
 40
0.6
176
     0
 41
30.0
176
     0
 63
     7
421
 16777215
176
     0
 74
     1
176
     0
 91
        4
176
     0
 64
     7
176
     0
 65
   257
176
     0
 75
     1
176
     0
175
     1
176
     0
 42
1.0
176
     0
 92
        9
176
     2
 66
     7
176
     0
 43
1.0
176
     0
 76
     1
176
     0
 77
     6
176
     0
 78
     2
176
     0
 67
     7
176
     0
 79
     5
176
     0
170
     0
176
     0
171
     0
176
     0
290
     0
176
     0
 93
        1
176
     0
 44
0.0
176
     0
173
     0
176
     0
1001
ACAD
1000
AcDbSavedByObjectVersion
1070
     0
  0
VISUALSTYLE
  5
33
102
{ACAD_XDICTIONARY
360
122
102
}
102
{ACAD_REACTORS
330
29
102
}
330
29
100
AcDbVisualStyle
  2
Realistic
 70
     8
177
     2
291
     0
 71
     2
176
     1
 72
     3
176
     1
 73
     0
176
     1
 90
        2
176
     1
 40
0.6
176
     1
 41
30.0
176
     1
 63
     7
421
 16777215
176
     1
 74
     0
176
     1
 91
        0
176
     1
 64
     7
176
     1
 65
   257
176
     1
 75
     1
176
     1
175
     1
176
     1
 42
1.0
176
     1
 92
        8
176
     1
 66
   257
176
     1
 43
1.0
176
     1
 76
     1
176
     1
 77
     6
176
     1
 78
     2
176
     1
 67
     7
176
     1
 79
     3
176
     1
170
     0
176
     1
171
     0
176
     1
290
     0
176
     1
 93
       13
176
     1
 44
0.0
176
     1
173
     0
176
     1
1001
ACAD
1000
AcDbSavedByObjectVersion
1070
     0
  0
VISUALSTYLE
  5
3E
102
{ACAD_XDICTIONARY
360
138
102
}
102
{ACAD_REACTORS
330
29
102
}
330
29
100
AcDbVisualStyle
  2
Shaded
 70
    27
177
     2
291
     0
 71
     2
176
     1
 72
     2
176
     1
 73
     1
176
     1
 90
        2
176
     1
 40
0.6
176
     1
 41
30.0
176
     1
 63
     7
421
 16777215
176
     1
 74
     0
176
     1
 91
        4
176
     1
 64
     7
176
     1
 65
   257
176
     1
 75
     1
176
     1
175
     1
176
     1
 42
1.0
176
     1
 92
        8
176
     1
 66
   257
176
     1
 43
1.0
176
     1
 76
     1
176
     1
 77
     6
176
     1
 78
     2
176
     1
 67
     8
425
  7895160
176
     1
 79
     3
176
     1
170
     0
176
     1
171
     0
176
     1
290
     0
176
     1
 93
        5
176
     1
 44
0.0
176
     1
173
     0
176
     1
1001
ACAD
1000
AcDbSavedByObjectVersion
1070
     0
  0
VISUALSTYLE
  5
3D
102
{ACAD_XDICTIONARY
360
136
102
}
102
{ACAD_REACTORS
330
29
102
}
330
29
100
AcDbVisualStyle
  2
Shaded with edges
 70
    26
177
     2
291
     0
 71
     2
176
     1
 72
     2
176
     1
 73
     1
176
     1
 90
        2
176
     1
 40
0.6
176
     1
 41
30.0
176
     1
 63
     7
421
 16777215
176
     1
 74
     1
176
     1
 91
        2
176
     1
 64
     7
176
     1
 65
   257
176
     1
 75
     2
176
     1
175
     1
176
     1
 42
1.0
176
     1
 92
        8
176
     1
 66
   257
176
     1
 43
1.0
176
     1
 76
     1
176
     1
 77
     6
176
     1
 78
     2
176
     1
 67
     7
176
     1
 79
     3
176
     1
170
     0
176
     1
171
     0
176
     1
290
     0
176
     1
 93
        5
176
     1
 44
0.0
176
     1
173
     0
176
     1
1001
ACAD
1000
AcDbSavedByObjectVersion
1070
     0
  0
VISUALSTYLE
  5
3A
102
{ACAD_XDICTIONARY
360
130
102
}
102
{ACAD_REACTORS
330
29
102
}
330
29
100
AcDbVisualStyle
  2
Shades of Gray
 70
    23
177
     2
291
     0
 71
     2
176
     1
 72
     2
176
     1
 73
     3
176
     1
 90
        0
176
     1
 40
0.6
176
     1
 41
30.0
176
     1
 63
     7
421
 16777215
176
     1
 74
     2
176
     1
 91
        2
176
     1
 64
     7
176
     1
 65
     7
176
     1
 75
     1
176
     1
175
     1
176
     1
 42
40.0
176
     1
 92
        8
176
     1
 66
     7
176
     1
 43
1.0
176
     1
 76
     1
176
     1
 77
     6
176
     1
 78
     2
176
     1
 67
     7
176
     1
 79
     3
176
     1
170
     0
176
     1
171
     0
176
     1
290
     0
176
     1
 93
        1
176
     1
 44
0.0
176
     1
173
     0
176
     1
1001
ACAD
1000
AcDbSavedByObjectVersion
1070
     0
  0
VISUALSTYLE
  5
3B
102
{ACAD_XDICTIONARY
360
132
102
}
102
{ACAD_REACTORS
330
29
102
}
330
29
100
AcDbVisualStyle
  2
Sketchy
 70
    24
177
     2
291
     0
 71
     1
176
     1
 72
     2
176
     1
 73
     2
176
     1
 90
        0
176
     1
 40
0.6
176
     1
 41
30.0
176
     1
 63
     7
421
 16777215
176
     1
 74
     2
176
     1
 91
        2
176
     1
 64
     7
176
     1
 65
     7
176
     1
 75
     1
176
     1
175
     1
176
     1
 42
40.0
176
     1
 92
       11
176
     1
 66
     7
176
     1
 43
1.0
176
     1
 76
     1
176
     1
 77
     6
176
     1
 78
     2
176
     1
 67
     7
176
     1
 79
     6
176
     1
170
     0
176
     1
171
     0
176
     1
290
     0
176
     1
 93
        1
176
     1
 44
0.0
176
     1
173
     0
176
     1
1001
ACAD
1000
AcDbSavedByObjectVersion
1070
     0
  0
VISUALSTYLE
  5
36
102
{ACAD_XDICTIONARY
360
128
102
}
102
{ACAD_REACTORS
330
29
102
}
330
29
100
AcDbVisualStyle
  2
Thicken
 70
    13
177
     2
291
     1
 71
     2
176
     1
 72
     2
176
     1
 73
     0
176
     1
 90
        0
176
     1
 40
0.6
176
     1
 41
30.0
176
     1
 63
     7
421
 16777215
176
     1
 74
     1
176
     1
 91
        4
176
     1
 64
     7
176
     1
 65
   257
176
     1
 75
     1
176
     1
175
     1
176
     1
 42
1.0
176
     1
 92
       12
176
     1
 66
     7
176
     1
 43
1.0
176
     1
 76
     1
176
     1
 77
     6
176
     1
 78
     2
176
     1
 67
     7
176
     1
 79
     5
176
     1
170
     0
176
     1
171
     0
176
     1
290
     0
176
     1
 93
        1
176
     1
 44
0.0
176
     1
173
     0
176
     1
1001
ACAD
1000
AcDbSavedByObjectVersion
1070
     0
  0
VISUALSTYLE
  5
30
102
{ACAD_XDICTIONARY
360
11C
102
}
102
{ACAD_REACTORS
330
29
102
}
330
29
100
AcDbVisualStyle
  2
Wireframe
 70
     5
177
     2
291
     0
 71
     0
176
     1
 72
     2
176
     1
 73
     0
176
     1
 90
        0
176
     1
 40
0.6
176
     1
 41
30.0
176
     1
 63
     7
421
 16777215
176
     1
 74
     1
176
     1
 91
        4
176
     1
 64
     7
176
     1
 65
   257
176
     1
 75
     1
176
     1
175
     1
176
     1
 42
1.0
176
     1
 92
        0
176
     1
 66
   257
176
     1
 43
1.0
176
     1
 76
     1
176
     1
 77
     6
176
     1
 78
     2
176
     1
 67
     7
176
     1
 79
     3
176
     1
170
     0
176
     1
171
     0
176
     1
290
     0
176
     1
 93
        1
176
     1
 44
0.0
176
     1
173
     0
176
     1
1001
ACAD
1000
AcDbSavedByObjectVersion
1070
     0
  0
VISUALSTYLE
  5
3C
102
{ACAD_XDICTIONARY
360
134
102
}
102
{ACAD_REACTORS
330
29
102
}
330
29
100
AcDbVisualStyle
  2
X-Ray
 70
    25
177
     2
291
     0
 71
     2
176
     1
 72
     2
176
     1
 73
     1
176
     1
 90
        1
176
     1
 40
0.5
176
     1
 41
30.0
176
     1
 63
     7
421
 16777215
176
     1
 74
     1
176
     1
 91
        0
176
     1
 64
     7
176
     1
 65
   257
176
     1
 75
     1
176
     1
175
     1
176
     1
 42
1.0
176
     1
 92
        8
176
     1
 66
     7
176
     1
 43
1.0
176
     1
 76
     1
176
     1
 77
     6
176
     1
 78
     2
176
     1
 67
     7
176
     1
 79
     3
176
     1
170
     0
176
     1
171
     0
176
     1
290
     0
176
     1
 93
       13
176
     1
 44
0.0
176
     1
173
     0
176
     1
1001
ACAD
1000
AcDbSavedByObjectVersion
1070
     0
  0
DICTIONARYVAR
  5
109
102
{ACAD_REACTORS
330
104
102
}
330
104
100
DictionaryVariables
280
     0
  1
1:1
  0
DICTIONARYVAR
  5
106
102
{ACAD_REACTORS
330
104
102
}
330
104
100
DictionaryVariables
280
     0
  1
STANDARD
  0
DICTIONARYVAR
  5
105
102
{ACAD_REACTORS
330
104
102
}
330
104
100
DictionaryVariables
280
     0
  1
STANDARD
  0
DICTIONARYVAR
  5
107
102
{ACAD_REACTORS
330
104
102
}
330
104
100
DictionaryVariables
280
     0
  1
Imperial24
  0
DICTIONARYVAR
  5
108
102
{ACAD_REACTORS
330
104
102
}
330
104
100
DictionaryVariables
280
     0
  1
Imperial24
  0
DICTIONARY
  5
144
330
6B
100
AcDbDictionary
280
     1
281
     1
  3
ACAD_XREC_ROUNDTRIP
360
145
  0
DICTIONARY
  5
1A
330
19
100
AcDbDictionary
280
     1
281
     1
  3
BUMPTILE
360
1C
  3
DIFFUSETILE
360
1B
  3
OPACITYTILE
360
1F
  3
REFLECTIONTILE
360
1E
  3
REFRACTIONTILE
360
20
  3
SPECULARTILE
360
1D
  0
DICTIONARY
  5
12
330
11
100
AcDbDictionary
280
     1
281
     1
  3
BUMPTILE
360
14
  3
DIFFUSETILE
360
13
  3
OPACITYTILE
360
17
  3
REFLECTIONTILE
360
16
  3
REFRACTIONTILE
360
18
  3
SPECULARTILE
360
15
  0
DICTIONARY
  5
22
330
21
100
AcDbDictionary
280
     1
281
     1
  3
BUMPTILE
360
24
  3
DIFFUSETILE
360
23
  3
OPACITYTILE
360
27
  3
REFLECTIONTILE
360
26
  3
REFRACTIONTILE
360
28
  3
SPECULARTILE
360
25
  0
DICTIONARY
  5
140
330
67
100
AcDbDictionary
280
     1
281
     1
  3
ACAD_XREC_ROUNDTRIP
360
141
  0
DICTIONARY
  5
142
330
69
100
AcDbDictionary
280
     1
281
     1
  3
ACAD_XREC_ROUNDTRIP
360
143
  0
DICTIONARY
  5
10A
330
65
100
AcDbDictionary
280
     1
281
     1
  3
ACAD_ROUNDTRIP_2008_TABLESTYLE_CELLSTYLEMAP
360
10B
  0
DICTIONARY
  5
11A
330
2F
100
AcDbDictionary
280
     1
281
     1
  3
ACAD_XREC_ROUNDTRIP
360
11B
  0
DICTIONARY
  5
118
330
2E
100
AcDbDictionary
280
     1
281
     1
  3
ACAD_XREC_ROUNDTRIP
360
119
  0
DICTIONARY
  5
126
330
35
100
AcDbDictionary
280
     1
281
     1
  3
ACAD_XREC_ROUNDTRIP
360
127
  0
DICTIONARY
  5
12E
330
39
100
AcDbDictionary
280
     1
281
     1
  3
ACAD_XREC_ROUNDTRIP
360
12F
  0
DICTIONARY
  5
120
330
32
100
AcDbDictionary
280
     1
281
     1
  3
ACAD_XREC_ROUNDTRIP
360
121
  0
DICTIONARY
  5
124
330
34
100
AcDbDictionary
280
     1
281
     1
  3
ACAD_XREC_ROUNDTRIP
360
125
  0
DICTIONARY
  5
13E
330
41
100
AcDbDictionary
280
     1
281
     1
  3
ACAD_XREC_ROUNDTRIP
360
13F
  0
DICTIONARY
  5
12C
330
38
100
AcDbDictionary
280
     1
281
     1
  3
ACAD_XREC_ROUNDTRIP
360
12D
  0
DICTIONARY
  5
110
330
2A
100
AcDbDictionary
280
     1
281
     1
  3
ACAD_XREC_ROUNDTRIP
360
111
  0
DICTIONARY
  5
112
330
2B
100
AcDbDictionary
280
     1
281
     1
  3
ACAD_XREC_ROUNDTRIP
360
113
  0
DICTIONARY
  5
114
330
2C
100
AcDbDictionary
280
     1
281
     1
  3
ACAD_XREC_ROUNDTRIP
360
115
  0
DICTIONARY
  5
116
330
2D
100
AcDbDictionary
280
     1
281
     1
  3
ACAD_XREC_ROUNDTRIP
360
117
  0
DICTIONARY
  5
11E
330
31
100
AcDbDictionary
280
     1
281
     1
  3
ACAD_XREC_ROUNDTRIP
360
11F
  0
DICTIONARY
  5
13A
330
3F
100
AcDbDictionary
280
     1
281
     1
  3
ACAD_XREC_ROUNDTRIP
360
13B
  0
DICTIONARY
  5
12A
330
37
100
AcDbDictionary
280
     1
281
     1
  3
ACAD_XREC_ROUNDTRIP
360
12B
  0
DICTIONARY
  5
13C
330
40
100
AcDbDictionary
280
     1
281
     1
  3
ACAD_XREC_ROUNDTRIP
360
13D
  0
DICTIONARY
  5
122
330
33
100
AcDbDictionary
280
     1
281
     1
  3
ACAD_XREC_ROUNDTRIP
360
123
  0
DICTIONARY
  5
138
330
3E
100
AcDbDictionary
280
     1
281
     1
  3
ACAD_XREC_ROUNDTRIP
360
139
  0
DICTIONARY
  5
136
330
3D
100
AcDbDictionary
280
     1
281
     1
  3
ACAD_XREC_ROUNDTRIP
360
137
  0
DICTIONARY
  5
130
330
3A
100
AcDbDictionary
280
     1
281
     1
  3
ACAD_XREC_ROUNDTRIP
360
131
  0
DICTIONARY
  5
132
330
3B
100
AcDbDictionary
280
     1
281
     1
  3
ACAD_XREC_ROUNDTRIP
360
133
  0
DICTIONARY
  5
128
330
36
100
AcDbDictionary
280
     1
281
     1
  3
ACAD_XREC_ROUNDTRIP
360
129
  0
DICTIONARY
  5
11C
330
30
100
AcDbDictionary
280
     1
281
     1
  3
ACAD_XREC_ROUNDTRIP
360
11D
  0
DICTIONARY
  5
134
330
3C
100
AcDbDictionary
280
     1
281
     1
  3
ACAD_XREC_ROUNDTRIP
360
135
  0
XRECORD
  5
145
102
{ACAD_REACTORS
330
144
102
}
330
144
100
AcDbXrecord
280
     1
102
DISPLAYNAME
  1
Imperial24
102
FLAGS
 90
        0
  0
XRECORD
  5
1C
102
{ACAD_REACTORS
330
1A
102
}
330
1A
100
AcDbXrecord
280
     1
270
     1
271
     1
  0
XRECORD
  5
1B
102
{ACAD_REACTORS
330
1A
102
}
330
1A
100
AcDbXrecord
280
     1
270
     1
271
     1
  0
XRECORD
  5
1F
102
{ACAD_REACTORS
330
1A
102
}
330
1A
100
AcDbXrecord
280
     1
270
     1
271
     1
  0
XRECORD
  5
1E
102
{ACAD_REACTORS
330
1A
102
}
330
1A
100
AcDbXrecord
280
     1
270
     1
271
     1
  0
XRECORD
  5
20
102
{ACAD_REACTORS
330
1A
102
}
330
1A
100
AcDbXrecord
280
     1
270
     1
271
     1
  0
XRECORD
  5
1D
102
{ACAD_REACTORS
330
1A
102
}
330
1A
100
AcDbXrecord
280
     1
270
     1
271
     1
  0
XRECORD
  5
14
102
{ACAD_REACTORS
330
12
102
}
330
12
100
AcDbXrecord
280
     1
270
     1
271
     1
  0
XRECORD
  5
13
102
{ACAD_REACTORS
330
12
102
}
330
12
100
AcDbXrecord
280
     1
270
     1
271
     1
  0
XRECORD
  5
17
102
{ACAD_REACTORS
330
12
102
}
330
12
100
AcDbXrecord
280
     1
270
     1
271
     1
  0
XRECORD
  5
16
102
{ACAD_REACTORS
330
12
102
}
330
12
100
AcDbXrecord
280
     1
270
     1
271
     1
  0
XRECORD
  5
18
102
{ACAD_REACTORS
330
12
102
}
330
12
100
AcDbXrecord
280
     1
270
     1
271
     1
  0
XRECORD
  5
15
102
{ACAD_REACTORS
330
12
102
}
330
12
100
AcDbXrecord
280
     1
270
     1
271
     1
  0
XRECORD
  5
24
102
{ACAD_REACTORS
330
22
102
}
330
22
100
AcDbXrecord
280
     1
270
     1
271
     1
  0
XRECORD
  5
23
102
{ACAD_REACTORS
330
22
102
}
330
22
100
AcDbXrecord
280
     1
270
     1
271
     1
  0
XRECORD
  5
27
102
{ACAD_REACTORS
330
22
102
}
330
22
100
AcDbXrecord
280
     1
270
     1
271
     1
  0
XRECORD
  5
26
102
{ACAD_REACTORS
330
22
102
}
330
22
100
AcDbXrecord
280
     1
270
     1
271
     1
  0
XRECORD
  5
28
102
{ACAD_REACTORS
330
22
102
}
330
22
100
AcDbXrecord
280
     1
270
     1
271
     1
  0
XRECORD
  5
25
102
{ACAD_REACTORS
330
22
102
}
330
22
100
AcDbXrecord
280
     1
270
     1
271
     1
  0
XRECORD
  5
141
102
{ACAD_REACTORS
330
140
102
}
330
140
100
AcDbXrecord
280
     1
102
ACAD_ROUNDTRIP_2012_MLEADER_STYLE
298
     1
  0
XRECORD
  5
143
102
{ACAD_REACTORS
330
142
102
}
330
142
100
AcDbXrecord
280
     1
102
DISPLAYNAME
  1
Imperial24
102
FLAGS
 90
        0
  0
CELLSTYLEMAP
  5
10B
102
{ACAD_REACTORS
330
10A
102
}
330
10A
100
AcDbCellStyleMap
 90
        3
300
CELLSTYLE
  1
TABLEFORMAT_BEGIN
 90
        5
170
     1
 91
        0
 92
    32768
 62
   257
 93
        1
300
CONTENTFORMAT
  1
CONTENTFORMAT_BEGIN
 90
        0
 91
        0
 92
      512
 93
        0
300

 40
0.0
140
1.0
 94
        5
 62
     0
340
55
144
0.25
309
CONTENTFORMAT_END
171
     0
 94
        0
309
TABLEFORMAT_END
  1
CELLSTYLE_BEGIN
 90
        1
 91
        1
300
_TITLE
309
CELLSTYLE_END
300
CELLSTYLE
  1
TABLEFORMAT_BEGIN
 90
        5
170
     1
 91
        0
 92
        0
 62
   257
 93
        1
300
CONTENTFORMAT
  1
CONTENTFORMAT_BEGIN
 90
        0
 91
        0
 92
      512
 93
        0
300

 40
0.0
140
1.0
 94
        5
 62
     0
340
55
144
0.18
309
CONTENTFORMAT_END
171
     0
 94
        0
309
TABLEFORMAT_END
  1
CELLSTYLE_BEGIN
 90
        2
 91
        1
300
_HEADER
309
CELLSTYLE_END
300
CELLSTYLE
  1
TABLEFORMAT_BEGIN
 90
        5
170
     1
 91
        0
 92
        0
 62
   257
 93
        1
300
CONTENTFORMAT
  1
CONTENTFORMAT_BEGIN
 90
        0
 91
        0
 92
      512
 93
        0
300

 40
0.0
140
1.0
 94
        2
 62
     0
340
55
144
0.18
309
CONTENTFORMAT_END
171
     0
 94
        0
309
TABLEFORMAT_END
  1
CELLSTYLE_BEGIN
 90
        3
 91
        2
300
_DATA
309
CELLSTYLE_END
  0
XRECORD
  5
11B
102
{ACAD_REACTORS
330
11A
102
}
330
11A
100
AcDbXrecord
280
     1
102
RTVSPost2010Prop28
280
     1
102
RTVSPost2010PropOp28
 70
     1
102
RTVSPost2010Prop29
280
     1
102
RTVSPost2010PropOp29
 70
     1
102
RTVSPost2010Prop30
280
     0
102
RTVSPost2010PropOp30
 70
     1
102
RTVSPost2010Prop31
280
     0
102
RTVSPost2010PropOp31
 70
     1
102
RTVSPost2010Prop32
280
     0
102
RTVSPost2010PropOp32
 70
     1
102
RTVSPost2010Prop33
280
     0
102
RTVSPost2010PropOp33
 70
     1
102
RTVSPost2010Prop34
280
     0
102
RTVSPost2010PropOp34
 70
     1
102
RTVSPost2010Prop35
280
     0
102
RTVSPost2010PropOp35
 70
     1
102
RTVSPost2010Prop36
280
     0
102
RTVSPost2010PropOp36
 70
     1
102
RTVSPost2010Prop37
 90
       50
102
RTVSPost2010PropOp37
 70
     1
102
RTVSPost2010Prop38
140
0.0
102
RTVSPost2010PropOp38
 70
     1
102
RTVSPost2010Prop39
140
1.0
102
RTVSPost2010PropOp39
 70
     1
102
RTVSPost2010Prop40
 90
        0
102
RTVSPost2010PropOp40
 70
     1
102
RTVSPost2010Prop41ColorIndex
 90
       18
102
RTVSPost2010Prop41ColorRGB
 90
        0
102
RTVSPost2010PropOp41
 70
     1
102
RTVSPost2010Prop42
 90
       50
102
RTVSPost2010PropOp42
 70
     1
102
RTVSPost2010Prop43
 90
        3
102
RTVSPost2010PropOp43
 70
     1
102
RTVSPost2010Prop44ColorIndex
 90
        5
102
RTVSPost2010Prop44ColorRGB
 90
      255
102
RTVSPost2010PropOp44
 70
     1
102
RTVSPost2010Prop45
280
     0
102
RTVSPost2010PropOp45
 70
     1
102
RTVSPost2010Prop46
 90
       50
102
RTVSPost2010PropOp46
 70
     1
102
RTVSPost2010Prop47
 90
       50
102
RTVSPost2010PropOp47
 70
     1
102
RTVSPost2010Prop48
 90
       50
102
RTVSPost2010PropOp48
 70
     1
102
RTVSPost2010Prop49
280
     0
102
RTVSPost2010PropOp49
 70
     1
102
RTVSPost2010Prop50
 90
       50
102
RTVSPost2010PropOp50
 70
     1
102
RTVSPost2010Prop51ColorIndex
 90
      256
102
RTVSPost2010Prop51ColorRGB
 90
-16777216
102
RTVSPost2010PropOp51
 70
     0
102
RTVSPost2010Prop52
140
1.0
102
RTVSPost2010PropOp52
 70
     0
102
RTVSPost2010Prop53
 90
        2
102
RTVSPost2010PropOp53
 70
     1
102
RTVSPost2010Prop54
  1
strokes_ogs.tif
102
RTVSPost2010PropOp54
 70
     1
102
RTVSPost2010Prop55
280
     0
102
RTVSPost2010PropOp55
 70
     1
102
RTVSPost2010Prop56
140
1.0
102
RTVSPost2010PropOp56
 70
     1
102
RTVSPost2010Prop57
140
1.0
102
RTVSPost2010PropOp57
 70
     1
  0
XRECORD
  5
119
102
{ACAD_REACTORS
330
118
102
}
330
118
100
AcDbXrecord
280
     1
102
RTVSPost2010Prop28
280
     0
102
RTVSPost2010PropOp28
 70
     1
102
RTVSPost2010Prop29
280
     1
102
RTVSPost2010PropOp29
 70
     1
102
RTVSPost2010Prop30
280
     1
102
RTVSPost2010PropOp30
 70
     1
102
RTVSPost2010Prop31
280
     0
102
RTVSPost2010PropOp31
 70
     1
102
RTVSPost2010Prop32
280
     0
102
RTVSPost2010PropOp32
 70
     1
102
RTVSPost2010Prop33
280
     0
102
RTVSPost2010PropOp33
 70
     1
102
RTVSPost2010Prop34
280
     0
102
RTVSPost2010PropOp34
 70
     1
102
RTVSPost2010Prop35
280
     0
102
RTVSPost2010PropOp35
 70
     1
102
RTVSPost2010Prop36
280
     0
102
RTVSPost2010PropOp36
 70
     1
102
RTVSPost2010Prop37
 90
       50
102
RTVSPost2010PropOp37
 70
     1
102
RTVSPost2010Prop38
140
0.0
102
RTVSPost2010PropOp38
 70
     1
102
RTVSPost2010Prop39
140
1.0
102
RTVSPost2010PropOp39
 70
     1
102
RTVSPost2010Prop40
 90
        0
102
RTVSPost2010PropOp40
 70
     1
102
RTVSPost2010Prop41ColorIndex
 90
       18
102
RTVSPost2010Prop41ColorRGB
 90
        0
102
RTVSPost2010PropOp41
 70
     1
102
RTVSPost2010Prop42
 90
       50
102
RTVSPost2010PropOp42
 70
     1
102
RTVSPost2010Prop43
 90
        3
102
RTVSPost2010PropOp43
 70
     1
102
RTVSPost2010Prop44ColorIndex
 90
        5
102
RTVSPost2010Prop44ColorRGB
 90
      255
102
RTVSPost2010PropOp44
 70
     1
102
RTVSPost2010Prop45
280
     0
102
RTVSPost2010PropOp45
 70
     1
102
RTVSPost2010Prop46
 90
       50
102
RTVSPost2010PropOp46
 70
     1
102
RTVSPost2010Prop47
 90
       50
102
RTVSPost2010PropOp47
 70
     1
102
RTVSPost2010Prop48
 90
       50
102
RTVSPost2010PropOp48
 70
     1
102
RTVSPost2010Prop49
280
     0
102
RTVSPost2010PropOp49
 70
     1
102
RTVSPost2010Prop50
 90
       50
102
RTVSPost2010PropOp50
 70
     1
102
RTVSPost2010Prop51ColorIndex
 90
      256
102
RTVSPost2010Prop51ColorRGB
 90
-16777216
102
RTVSPost2010PropOp51
 70
     0
102
RTVSPost2010Prop52
140
1.0
102
RTVSPost2010PropOp52
 70
     0
102
RTVSPost2010Prop53
 90
        2
102
RTVSPost2010PropOp53
 70
     1
102
RTVSPost2010Prop54
  1
strokes_ogs.tif
102
RTVSPost2010PropOp54
 70
     1
102
RTVSPost2010Prop55
280
     0
102
RTVSPost2010PropOp55
 70
     1
102
RTVSPost2010Prop56
140
1.0
102
RTVSPost2010PropOp56
 70
     1
102
RTVSPost2010Prop57
140
1.0
102
RTVSPost2010PropOp57
 70
     1
  0
XRECORD
  5
127
102
{ACAD_REACTORS
330
126
102
}
330
126
100
AcDbXrecord
280
     1
102
RTVSPost2010Prop28
280
     0
102
RTVSPost2010PropOp28
 70
     1
102
RTVSPost2010Prop29
280
     1
102
RTVSPost2010PropOp29
 70
     1
102
RTVSPost2010Prop30
280
     1
102
RTVSPost2010PropOp30
 70
     1
102
RTVSPost2010Prop31
280
     0
102
RTVSPost2010PropOp31
 70
     1
102
RTVSPost2010Prop32
280
     0
102
RTVSPost2010PropOp32
 70
     1
102
RTVSPost2010Prop33
280
     0
102
RTVSPost2010PropOp33
 70
     1
102
RTVSPost2010Prop34
280
     0
102
RTVSPost2010PropOp34
 70
     1
102
RTVSPost2010Prop35
280
     0
102
RTVSPost2010PropOp35
 70
     1
102
RTVSPost2010Prop36
280
     0
102
RTVSPost2010PropOp36
 70
     1
102
RTVSPost2010Prop37
 90
       50
102
RTVSPost2010PropOp37
 70
     1
102
RTVSPost2010Prop38
140
0.0
102
RTVSPost2010PropOp38
 70
     1
102
RTVSPost2010Prop39
140
1.0
102
RTVSPost2010PropOp39
 70
     1
102
RTVSPost2010Prop40
 90
        0
102
RTVSPost2010PropOp40
 70
     1
102
RTVSPost2010Prop41ColorIndex
 90
       18
102
RTVSPost2010Prop41ColorRGB
 90
        0
102
RTVSPost2010PropOp41
 70
     1
102
RTVSPost2010Prop42
 90
       50
102
RTVSPost2010PropOp42
 70
     1
102
RTVSPost2010Prop43
 90
        3
102
RTVSPost2010PropOp43
 70
     1
102
RTVSPost2010Prop44ColorIndex
 90
        5
102
RTVSPost2010Prop44ColorRGB
 90
      255
102
RTVSPost2010PropOp44
 70
     1
102
RTVSPost2010Prop45
280
     0
102
RTVSPost2010PropOp45
 70
     1
102
RTVSPost2010Prop46
 90
       50
102
RTVSPost2010PropOp46
 70
     1
102
RTVSPost2010Prop47
 90
       50
102
RTVSPost2010PropOp47
 70
     1
102
RTVSPost2010Prop48
 90
       50
102
RTVSPost2010PropOp48
 70
     1
102
RTVSPost2010Prop49
280
     0
102
RTVSPost2010PropOp49
 70
     1
102
RTVSPost2010Prop50
 90
       50
102
RTVSPost2010PropOp50
 70
     1
102
RTVSPost2010Prop51ColorIndex
 90
      256
102
RTVSPost2010Prop51ColorRGB
 90
-16777216
102
RTVSPost2010PropOp51
 70
     0
102
RTVSPost2010Prop52
140
1.0
102
RTVSPost2010PropOp52
 70
     0
102
RTVSPost2010Prop53
 90
        2
102
RTVSPost2010PropOp53
 70
     1
102
RTVSPost2010Prop54
  1
strokes_ogs.tif
102
RTVSPost2010PropOp54
 70
     1
102
RTVSPost2010Prop55
280
     0
102
RTVSPost2010PropOp55
 70
     1
102
RTVSPost2010Prop56
140
1.0
102
RTVSPost2010PropOp56
 70
     1
102
RTVSPost2010Prop57
140
1.0
102
RTVSPost2010PropOp57
 70
     1
  0
XRECORD
  5
12F
102
{ACAD_REACTORS
330
12E
102
}
330
12E
100
AcDbXrecord
280
     1
102
RTVSPost2010Prop28
280
     0
102
RTVSPost2010PropOp28
 70
     1
102
RTVSPost2010Prop29
280
     1
102
RTVSPost2010PropOp29
 70
     1
102
RTVSPost2010Prop30
280
     1
102
RTVSPost2010PropOp30
 70
     1
102
RTVSPost2010Prop31
280
     0
102
RTVSPost2010PropOp31
 70
     1
102
RTVSPost2010Prop32
280
     0
102
RTVSPost2010PropOp32
 70
     1
102
RTVSPost2010Prop33
280
     0
102
RTVSPost2010PropOp33
 70
     1
102
RTVSPost2010Prop34
280
     0
102
RTVSPost2010PropOp34
 70
     1
102
RTVSPost2010Prop35
280
     0
102
RTVSPost2010PropOp35
 70
     1
102
RTVSPost2010Prop36
280
     0
102
RTVSPost2010PropOp36
 70
     1
102
RTVSPost2010Prop37
 90
       50
102
RTVSPost2010PropOp37
 70
     1
102
RTVSPost2010Prop38
140
0.0
102
RTVSPost2010PropOp38
 70
     1
102
RTVSPost2010Prop39
140
1.0
102
RTVSPost2010PropOp39
 70
     1
102
RTVSPost2010Prop40
 90
        0
102
RTVSPost2010PropOp40
 70
     1
102
RTVSPost2010Prop41ColorIndex
 90
       18
102
RTVSPost2010Prop41ColorRGB
 90
        0
102
RTVSPost2010PropOp41
 70
     1
102
RTVSPost2010Prop42
 90
       50
102
RTVSPost2010PropOp42
 70
     1
102
RTVSPost2010Prop43
 90
        3
102
RTVSPost2010PropOp43
 70
     1
102
RTVSPost2010Prop44ColorIndex
 90
        5
102
RTVSPost2010Prop44ColorRGB
 90
      255
102
RTVSPost2010PropOp44
 70
     1
102
RTVSPost2010Prop45
280
     0
102
RTVSPost2010PropOp45
 70
     1
102
RTVSPost2010Prop46
 90
       50
102
RTVSPost2010PropOp46
 70
     1
102
RTVSPost2010Prop47
 90
       50
102
RTVSPost2010PropOp47
 70
     1
102
RTVSPost2010Prop48
 90
       50
102
RTVSPost2010PropOp48
 70
     1
102
RTVSPost2010Prop49
280
     0
102
RTVSPost2010PropOp49
 70
     1
102
RTVSPost2010Prop50
 90
       50
102
RTVSPost2010PropOp50
 70
     1
102
RTVSPost2010Prop51ColorIndex
 90
      256
102
RTVSPost2010Prop51ColorRGB
 90
-16777216
102
RTVSPost2010PropOp51
 70
     0
102
RTVSPost2010Prop52
140
1.0
102
RTVSPost2010PropOp52
 70
     0
102
RTVSPost2010Prop53
 90
        2
102
RTVSPost2010PropOp53
 70
     1
102
RTVSPost2010Prop54
  1
strokes_ogs.tif
102
RTVSPost2010PropOp54
 70
     1
102
RTVSPost2010Prop55
280
     0
102
RTVSPost2010PropOp55
 70
     1
102
RTVSPost2010Prop56
140
1.0
102
RTVSPost2010PropOp56
 70
     1
102
RTVSPost2010Prop57
140
1.0
102
RTVSPost2010PropOp57
 70
     1
  0
XRECORD
  5
121
102
{ACAD_REACTORS
330
120
102
}
330
120
100
AcDbXrecord
280
     1
102
RTVSPost2010Prop28
280
     0
102
RTVSPost2010PropOp28
 70
     1
102
RTVSPost2010Prop29
280
     1
102
RTVSPost2010PropOp29
 70
     1
102
RTVSPost2010Prop30
280
     1
102
RTVSPost2010PropOp30
 70
     1
102
RTVSPost2010Prop31
280
     0
102
RTVSPost2010PropOp31
 70
     1
102
RTVSPost2010Prop32
280
     0
102
RTVSPost2010PropOp32
 70
     1
102
RTVSPost2010Prop33
280
     0
102
RTVSPost2010PropOp33
 70
     1
102
RTVSPost2010Prop34
280
     0
102
RTVSPost2010PropOp34
 70
     1
102
RTVSPost2010Prop35
280
     0
102
RTVSPost2010PropOp35
 70
     1
102
RTVSPost2010Prop36
280
     0
102
RTVSPost2010PropOp36
 70
     1
102
RTVSPost2010Prop37
 90
       50
102
RTVSPost2010PropOp37
 70
     1
102
RTVSPost2010Prop38
140
0.0
102
RTVSPost2010PropOp38
 70
     1
102
RTVSPost2010Prop39
140
1.0
102
RTVSPost2010PropOp39
 70
     1
102
RTVSPost2010Prop40
 90
        0
102
RTVSPost2010PropOp40
 70
     1
102
RTVSPost2010Prop41ColorIndex
 90
       18
102
RTVSPost2010Prop41ColorRGB
 90
        0
102
RTVSPost2010PropOp41
 70
     1
102
RTVSPost2010Prop42
 90
       50
102
RTVSPost2010PropOp42
 70
     1
102
RTVSPost2010Prop43
 90
        3
102
RTVSPost2010PropOp43
 70
     1
102
RTVSPost2010Prop44ColorIndex
 90
        5
102
RTVSPost2010Prop44ColorRGB
 90
      255
102
RTVSPost2010PropOp44
 70
     1
102
RTVSPost2010Prop45
280
     0
102
RTVSPost2010PropOp45
 70
     1
102
RTVSPost2010Prop46
 90
       50
102
RTVSPost2010PropOp46
 70
     1
102
RTVSPost2010Prop47
 90
       50
102
RTVSPost2010PropOp47
 70
     1
102
RTVSPost2010Prop48
 90
       50
102
RTVSPost2010PropOp48
 70
     1
102
RTVSPost2010Prop49
280
     0
102
RTVSPost2010PropOp49
 70
     1
102
RTVSPost2010Prop50
 90
       50
102
RTVSPost2010PropOp50
 70
     1
102
RTVSPost2010Prop51ColorIndex
 90
      256
102
RTVSPost2010Prop51ColorRGB
 90
-16777216
102
RTVSPost2010PropOp51
 70
     0
102
RTVSPost2010Prop52
140
1.0
102
RTVSPost2010PropOp52
 70
     0
102
RTVSPost2010Prop53
 90
        2
102
RTVSPost2010PropOp53
 70
     1
102
RTVSPost2010Prop54
  1
strokes_ogs.tif
102
RTVSPost2010PropOp54
 70
     1
102
RTVSPost2010Prop55
280
     0
102
RTVSPost2010PropOp55
 70
     1
102
RTVSPost2010Prop56
140
1.0
102
RTVSPost2010PropOp56
 70
     1
102
RTVSPost2010Prop57
140
1.0
102
RTVSPost2010PropOp57
 70
     1
  0
XRECORD
  5
125
102
{ACAD_REACTORS
330
124
102
}
330
124
100
AcDbXrecord
280
     1
102
RTVSPost2010Prop28
280
     0
102
RTVSPost2010PropOp28
 70
     1
102
RTVSPost2010Prop29
280
     1
102
RTVSPost2010PropOp29
 70
     1
102
RTVSPost2010Prop30
280
     1
102
RTVSPost2010PropOp30
 70
     1
102
RTVSPost2010Prop31
280
     0
102
RTVSPost2010PropOp31
 70
     1
102
RTVSPost2010Prop32
280
     0
102
RTVSPost2010PropOp32
 70
     1
102
RTVSPost2010Prop33
280
     0
102
RTVSPost2010PropOp33
 70
     1
102
RTVSPost2010Prop34
280
     0
102
RTVSPost2010PropOp34
 70
     1
102
RTVSPost2010Prop35
280
     0
102
RTVSPost2010PropOp35
 70
     1
102
RTVSPost2010Prop36
280
     0
102
RTVSPost2010PropOp36
 70
     1
102
RTVSPost2010Prop37
 90
       50
102
RTVSPost2010PropOp37
 70
     1
102
RTVSPost2010Prop38
140
0.0
102
RTVSPost2010PropOp38
 70
     1
102
RTVSPost2010Prop39
140
1.0
102
RTVSPost2010PropOp39
 70
     1
102
RTVSPost2010Prop40
 90
        0
102
RTVSPost2010PropOp40
 70
     1
102
RTVSPost2010Prop41ColorIndex
 90
       18
102
RTVSPost2010Prop41ColorRGB
 90
        0
102
RTVSPost2010PropOp41
 70
     1
102
RTVSPost2010Prop42
 90
       50
102
RTVSPost2010PropOp42
 70
     1
102
RTVSPost2010Prop43
 90
        3
102
RTVSPost2010PropOp43
 70
     1
102
RTVSPost2010Prop44ColorIndex
 90
        5
102
RTVSPost2010Prop44ColorRGB
 90
      255
102
RTVSPost2010PropOp44
 70
     1
102
RTVSPost2010Prop45
280
     0
102
RTVSPost2010PropOp45
 70
     1
102
RTVSPost2010Prop46
 90
       50
102
RTVSPost2010PropOp46
 70
     1
102
RTVSPost2010Prop47
 90
       50
102
RTVSPost2010PropOp47
 70
     1
102
RTVSPost2010Prop48
 90
       50
102
RTVSPost2010PropOp48
 70
     1
102
RTVSPost2010Prop49
280
     0
102
RTVSPost2010PropOp49
 70
     1
102
RTVSPost2010Prop50
 90
       50
102
RTVSPost2010PropOp50
 70
     1
102
RTVSPost2010Prop51ColorIndex
 90
      256
102
RTVSPost2010Prop51ColorRGB
 90
-16777216
102
RTVSPost2010PropOp51
 70
     0
102
RTVSPost2010Prop52
140
1.0
102
RTVSPost2010PropOp52
 70
     0
102
RTVSPost2010Prop53
 90
        2
102
RTVSPost2010PropOp53
 70
     1
102
RTVSPost2010Prop54
  1
strokes_ogs.tif
102
RTVSPost2010PropOp54
 70
     1
102
RTVSPost2010Prop55
280
     0
102
RTVSPost2010PropOp55
 70
     1
102
RTVSPost2010Prop56
140
1.0
102
RTVSPost2010PropOp56
 70
     1
102
RTVSPost2010Prop57
140
1.0
102
RTVSPost2010PropOp57
 70
     1
  0
XRECORD
  5
13F
102
{ACAD_REACTORS
330
13E
102
}
330
13E
100
AcDbXrecord
280
     1
102
RTVSPost2010Prop28
280
     0
102
RTVSPost2010PropOp28
 70
     0
102
RTVSPost2010Prop29
280
     1
102
RTVSPost2010PropOp29
 70
     0
102
RTVSPost2010Prop30
280
     1
102
RTVSPost2010PropOp30
 70
     0
102
RTVSPost2010Prop31
280
     0
102
RTVSPost2010PropOp31
 70
     0
102
RTVSPost2010Prop32
280
     0
102
RTVSPost2010PropOp32
 70
     0
102
RTVSPost2010Prop33
280
     0
102
RTVSPost2010PropOp33
 70
     0
102
RTVSPost2010Prop34
280
     0
102
RTVSPost2010PropOp34
 70
     0
102
RTVSPost2010Prop35
280
     0
102
RTVSPost2010PropOp35
 70
     0
102
RTVSPost2010Prop36
280
     0
102
RTVSPost2010PropOp36
 70
     0
102
RTVSPost2010Prop37
 90
       50
102
RTVSPost2010PropOp37
 70
     0
102
RTVSPost2010Prop38
140
0.0
102
RTVSPost2010PropOp38
 70
     0
102
RTVSPost2010Prop39
140
1.0
102
RTVSPost2010PropOp39
 70
     0
102
RTVSPost2010Prop40
 90
        0
102
RTVSPost2010PropOp40
 70
     0
102
RTVSPost2010Prop41ColorIndex
 90
       18
102
RTVSPost2010Prop41ColorRGB
 90
        0
102
RTVSPost2010PropOp41
 70
     0
102
RTVSPost2010Prop42
 90
       50
102
RTVSPost2010PropOp42
 70
     0
102
RTVSPost2010Prop43
 90
        3
102
RTVSPost2010PropOp43
 70
     0
102
RTVSPost2010Prop44ColorIndex
 90
        5
102
RTVSPost2010Prop44ColorRGB
 90
      255
102
RTVSPost2010PropOp44
 70
     0
102
RTVSPost2010Prop45
280
     0
102
RTVSPost2010PropOp45
 70
     0
102
RTVSPost2010Prop46
 90
       50
102
RTVSPost2010PropOp46
 70
     0
102
RTVSPost2010Prop47
 90
       50
102
RTVSPost2010PropOp47
 70
     0
102
RTVSPost2010Prop48
 90
       50
102
RTVSPost2010PropOp48
 70
     0
102
RTVSPost2010Prop49
280
     0
102
RTVSPost2010PropOp49
 70
     0
102
RTVSPost2010Prop50
 90
       50
102
RTVSPost2010PropOp50
 70
     0
102
RTVSPost2010Prop51ColorIndex
 90
      256
102
RTVSPost2010Prop51ColorRGB
 90
-16777216
102
RTVSPost2010PropOp51
 70
     0
102
RTVSPost2010Prop52
140
1.0
102
RTVSPost2010PropOp52
 70
     0
102
RTVSPost2010Prop53
 90
        2
102
RTVSPost2010PropOp53
 70
     0
102
RTVSPost2010Prop54
  1
strokes_ogs.tif
102
RTVSPost2010PropOp54
 70
     0
102
RTVSPost2010Prop55
280
     0
102
RTVSPost2010PropOp55
 70
     0
102
RTVSPost2010Prop56
140
1.0
102
RTVSPost2010PropOp56
 70
     0
102
RTVSPost2010Prop57
140
1.0
102
RTVSPost2010PropOp57
 70
     0
  0
XRECORD
  5
12D
102
{ACAD_REACTORS
330
12C
102
}
330
12C
100
AcDbXrecord
280
     1
102
RTVSPost2010Prop28
280
     0
102
RTVSPost2010PropOp28
 70
     1
102
RTVSPost2010Prop29
280
     1
102
RTVSPost2010PropOp29
 70
     1
102
RTVSPost2010Prop30
280
     1
102
RTVSPost2010PropOp30
 70
     1
102
RTVSPost2010Prop31
280
     0
102
RTVSPost2010PropOp31
 70
     1
102
RTVSPost2010Prop32
280
     0
102
RTVSPost2010PropOp32
 70
     1
102
RTVSPost2010Prop33
280
     0
102
RTVSPost2010PropOp33
 70
     1
102
RTVSPost2010Prop34
280
     0
102
RTVSPost2010PropOp34
 70
     1
102
RTVSPost2010Prop35
280
     0
102
RTVSPost2010PropOp35
 70
     1
102
RTVSPost2010Prop36
280
     0
102
RTVSPost2010PropOp36
 70
     1
102
RTVSPost2010Prop37
 90
       50
102
RTVSPost2010PropOp37
 70
     1
102
RTVSPost2010Prop38
140
0.0
102
RTVSPost2010PropOp38
 70
     1
102
RTVSPost2010Prop39
140
1.0
102
RTVSPost2010PropOp39
 70
     1
102
RTVSPost2010Prop40
 90
        0
102
RTVSPost2010PropOp40
 70
     1
102
RTVSPost2010Prop41ColorIndex
 90
       18
102
RTVSPost2010Prop41ColorRGB
 90
        0
102
RTVSPost2010PropOp41
 70
     1
102
RTVSPost2010Prop42
 90
       50
102
RTVSPost2010PropOp42
 70
     1
102
RTVSPost2010Prop43
 90
        3
102
RTVSPost2010PropOp43
 70
     1
102
RTVSPost2010Prop44ColorIndex
 90
        5
102
RTVSPost2010Prop44ColorRGB
 90
      255
102
RTVSPost2010PropOp44
 70
     1
102
RTVSPost2010Prop45
280
     0
102
RTVSPost2010PropOp45
 70
     1
102
RTVSPost2010Prop46
 90
       50
102
RTVSPost2010PropOp46
 70
     1
102
RTVSPost2010Prop47
 90
       50
102
RTVSPost2010PropOp47
 70
     1
102
RTVSPost2010Prop48
 90
       50
102
RTVSPost2010PropOp48
 70
     1
102
RTVSPost2010Prop49
280
     0
102
RTVSPost2010PropOp49
 70
     1
102
RTVSPost2010Prop50
 90
       50
102
RTVSPost2010PropOp50
 70
     1
102
RTVSPost2010Prop51ColorIndex
 90
      256
102
RTVSPost2010Prop51ColorRGB
 90
-16777216
102
RTVSPost2010PropOp51
 70
     0
102
RTVSPost2010Prop52
140
1.0
102
RTVSPost2010PropOp52
 70
     0
102
RTVSPost2010Prop53
 90
        2
102
RTVSPost2010PropOp53
 70
     1
102
RTVSPost2010Prop54
  1
strokes_ogs.tif
102
RTVSPost2010PropOp54
 70
     1
102
RTVSPost2010Prop55
280
     0
102
RTVSPost2010PropOp55
 70
     1
102
RTVSPost2010Prop56
140
1.0
102
RTVSPost2010PropOp56
 70
     1
102
RTVSPost2010Prop57
140
1.0
102
RTVSPost2010PropOp57
 70
     1
  0
XRECORD
  5
111
102
{ACAD_REACTORS
330
110
102
}
330
110
100
AcDbXrecord
280
     1
102
RTVSPost2010Prop28
280
     0
102
RTVSPost2010PropOp28
 70
     1
102
RTVSPost2010Prop29
280
     1
102
RTVSPost2010PropOp29
 70
     1
102
RTVSPost2010Prop30
280
     1
102
RTVSPost2010PropOp30
 70
     1
102
RTVSPost2010Prop31
280
     0
102
RTVSPost2010PropOp31
 70
     1
102
RTVSPost2010Prop32
280
     0
102
RTVSPost2010PropOp32
 70
     1
102
RTVSPost2010Prop33
280
     0
102
RTVSPost2010PropOp33
 70
     1
102
RTVSPost2010Prop34
280
     0
102
RTVSPost2010PropOp34
 70
     1
102
RTVSPost2010Prop35
280
     0
102
RTVSPost2010PropOp35
 70
     1
102
RTVSPost2010Prop36
280
     0
102
RTVSPost2010PropOp36
 70
     1
102
RTVSPost2010Prop37
 90
       50
102
RTVSPost2010PropOp37
 70
     1
102
RTVSPost2010Prop38
140
0.0
102
RTVSPost2010PropOp38
 70
     1
102
RTVSPost2010Prop39
140
1.0
102
RTVSPost2010PropOp39
 70
     1
102
RTVSPost2010Prop40
 90
        0
102
RTVSPost2010PropOp40
 70
     1
102
RTVSPost2010Prop41ColorIndex
 90
       18
102
RTVSPost2010Prop41ColorRGB
 90
        0
102
RTVSPost2010PropOp41
 70
     1
102
RTVSPost2010Prop42
 90
       50
102
RTVSPost2010PropOp42
 70
     1
102
RTVSPost2010Prop43
 90
        3
102
RTVSPost2010PropOp43
 70
     1
102
RTVSPost2010Prop44ColorIndex
 90
        5
102
RTVSPost2010Prop44ColorRGB
 90
      255
102
RTVSPost2010PropOp44
 70
     1
102
RTVSPost2010Prop45
280
     0
102
RTVSPost2010PropOp45
 70
     1
102
RTVSPost2010Prop46
 90
       50
102
RTVSPost2010PropOp46
 70
     1
102
RTVSPost2010Prop47
 90
       50
102
RTVSPost2010PropOp47
 70
     1
102
RTVSPost2010Prop48
 90
       50
102
RTVSPost2010PropOp48
 70
     1
102
RTVSPost2010Prop49
280
     0
102
RTVSPost2010PropOp49
 70
     1
102
RTVSPost2010Prop50
 90
       50
102
RTVSPost2010PropOp50
 70
     1
102
RTVSPost2010Prop51ColorIndex
 90
      256
102
RTVSPost2010Prop51ColorRGB
 90
-16777216
102
RTVSPost2010PropOp51
 70
     0
102
RTVSPost2010Prop52
140
1.0
102
RTVSPost2010PropOp52
 70
     0
102
RTVSPost2010Prop53
 90
        2
102
RTVSPost2010PropOp53
 70
     1
102
RTVSPost2010Prop54
  1
strokes_ogs.tif
102
RTVSPost2010PropOp54
 70
     1
102
RTVSPost2010Prop55
280
     0
102
RTVSPost2010PropOp55
 70
     1
102
RTVSPost2010Prop56
140
1.0
102
RTVSPost2010PropOp56
 70
     1
102
RTVSPost2010Prop57
140
1.0
102
RTVSPost2010PropOp57
 70
     1
  0
XRECORD
  5
113
102
{ACAD_REACTORS
330
112
102
}
330
112
100
AcDbXrecord
280
     1
102
RTVSPost2010Prop28
280
     0
102
RTVSPost2010PropOp28
 70
     1
102
RTVSPost2010Prop29
280
     1
102
RTVSPost2010PropOp29
 70
     1
102
RTVSPost2010Prop30
280
     1
102
RTVSPost2010PropOp30
 70
     1
102
RTVSPost2010Prop31
280
     0
102
RTVSPost2010PropOp31
 70
     1
102
RTVSPost2010Prop32
280
     0
102
RTVSPost2010PropOp32
 70
     1
102
RTVSPost2010Prop33
280
     0
102
RTVSPost2010PropOp33
 70
     1
102
RTVSPost2010Prop34
280
     0
102
RTVSPost2010PropOp34
 70
     1
102
RTVSPost2010Prop35
280
     0
102
RTVSPost2010PropOp35
 70
     1
102
RTVSPost2010Prop36
280
     0
102
RTVSPost2010PropOp36
 70
     1
102
RTVSPost2010Prop37
 90
       50
102
RTVSPost2010PropOp37
 70
     1
102
RTVSPost2010Prop38
140
0.0
102
RTVSPost2010PropOp38
 70
     1
102
RTVSPost2010Prop39
140
1.0
102
RTVSPost2010PropOp39
 70
     1
102
RTVSPost2010Prop40
 90
        0
102
RTVSPost2010PropOp40
 70
     1
102
RTVSPost2010Prop41ColorIndex
 90
       18
102
RTVSPost2010Prop41ColorRGB
 90
        0
102
RTVSPost2010PropOp41
 70
     1
102
RTVSPost2010Prop42
 90
       50
102
RTVSPost2010PropOp42
 70
     1
102
RTVSPost2010Prop43
 90
        3
102
RTVSPost2010PropOp43
 70
     1
102
RTVSPost2010Prop44ColorIndex
 90
        5
102
RTVSPost2010Prop44ColorRGB
 90
      255
102
RTVSPost2010PropOp44
 70
     1
102
RTVSPost2010Prop45
280
     0
102
RTVSPost2010PropOp45
 70
     1
102
RTVSPost2010Prop46
 90
       50
102
RTVSPost2010PropOp46
 70
     1
102
RTVSPost2010Prop47
 90
       50
102
RTVSPost2010PropOp47
 70
     1
102
RTVSPost2010Prop48
 90
       50
102
RTVSPost2010PropOp48
 70
     1
102
RTVSPost2010Prop49
280
     0
102
RTVSPost2010PropOp49
 70
     1
102
RTVSPost2010Prop50
 90
       50
102
RTVSPost2010PropOp50
 70
     1
102
RTVSPost2010Prop51ColorIndex
 90
      256
102
RTVSPost2010Prop51ColorRGB
 90
-16777216
102
RTVSPost2010PropOp51
 70
     0
102
RTVSPost2010Prop52
140
1.0
102
RTVSPost2010PropOp52
 70
     0
102
RTVSPost2010Prop53
 90
        2
102
RTVSPost2010PropOp53
 70
     1
102
RTVSPost2010Prop54
  1
strokes_ogs.tif
102
RTVSPost2010PropOp54
 70
     1
102
RTVSPost2010Prop55
280
     0
102
RTVSPost2010PropOp55
 70
     1
102
RTVSPost2010Prop56
140
1.0
102
RTVSPost2010PropOp56
 70
     1
102
RTVSPost2010Prop57
140
1.0
102
RTVSPost2010PropOp57
 70
     1
  0
XRECORD
  5
115
102
{ACAD_REACTORS
330
114
102
}
330
114
100
AcDbXrecord
280
     1
102
RTVSPost2010Prop28
280
     0
102
RTVSPost2010PropOp28
 70
     1
102
RTVSPost2010Prop29
280
     1
102
RTVSPost2010PropOp29
 70
     1
102
RTVSPost2010Prop30
280
     1
102
RTVSPost2010PropOp30
 70
     1
102
RTVSPost2010Prop31
280
     0
102
RTVSPost2010PropOp31
 70
     1
102
RTVSPost2010Prop32
280
     0
102
RTVSPost2010PropOp32
 70
     1
102
RTVSPost2010Prop33
280
     0
102
RTVSPost2010PropOp33
 70
     1
102
RTVSPost2010Prop34
280
     0
102
RTVSPost2010PropOp34
 70
     1
102
RTVSPost2010Prop35
280
     0
102
RTVSPost2010PropOp35
 70
     1
102
RTVSPost2010Prop36
280
     0
102
RTVSPost2010PropOp36
 70
     1
102
RTVSPost2010Prop37
 90
       50
102
RTVSPost2010PropOp37
 70
     1
102
RTVSPost2010Prop38
140
0.0
102
RTVSPost2010PropOp38
 70
     1
102
RTVSPost2010Prop39
140
1.0
102
RTVSPost2010PropOp39
 70
     1
102
RTVSPost2010Prop40
 90
        0
102
RTVSPost2010PropOp40
 70
     1
102
RTVSPost2010Prop41ColorIndex
 90
       18
102
RTVSPost2010Prop41ColorRGB
 90
        0
102
RTVSPost2010PropOp41
 70
     1
102
RTVSPost2010Prop42
 90
       50
102
RTVSPost2010PropOp42
 70
     1
102
RTVSPost2010Prop43
 90
        3
102
RTVSPost2010PropOp43
 70
     1
102
RTVSPost2010Prop44ColorIndex
 90
        5
102
RTVSPost2010Prop44ColorRGB
 90
      255
102
RTVSPost2010PropOp44
 70
     1
102
RTVSPost2010Prop45
280
     0
102
RTVSPost2010PropOp45
 70
     1
102
RTVSPost2010Prop46
 90
       50
102
RTVSPost2010PropOp46
 70
     1
102
RTVSPost2010Prop47
 90
       50
102
RTVSPost2010PropOp47
 70
     1
102
RTVSPost2010Prop48
 90
       50
102
RTVSPost2010PropOp48
 70
     1
102
RTVSPost2010Prop49
280
     0
102
RTVSPost2010PropOp49
 70
     1
102
RTVSPost2010Prop50
 90
       50
102
RTVSPost2010PropOp50
 70
     1
102
RTVSPost2010Prop51ColorIndex
 90
      256
102
RTVSPost2010Prop51ColorRGB
 90
-16777216
102
RTVSPost2010PropOp51
 70
     0
102
RTVSPost2010Prop52
140
1.0
102
RTVSPost2010PropOp52
 70
     0
102
RTVSPost2010Prop53
 90
        2
102
RTVSPost2010PropOp53
 70
     1
102
RTVSPost2010Prop54
  1
strokes_ogs.tif
102
RTVSPost2010PropOp54
 70
     1
102
RTVSPost2010Prop55
280
     0
102
RTVSPost2010PropOp55
 70
     1
102
RTVSPost2010Prop56
140
1.0
102
RTVSPost2010PropOp56
 70
     1
102
RTVSPost2010Prop57
140
1.0
102
RTVSPost2010PropOp57
 70
     1
  0
XRECORD
  5
117
102
{ACAD_REACTORS
330
116
102
}
330
116
100
AcDbXrecord
280
     1
102
RTVSPost2010Prop28
280
     0
102
RTVSPost2010PropOp28
 70
     1
102
RTVSPost2010Prop29
280
     1
102
RTVSPost2010PropOp29
 70
     1
102
RTVSPost2010Prop30
280
     1
102
RTVSPost2010PropOp30
 70
     1
102
RTVSPost2010Prop31
280
     0
102
RTVSPost2010PropOp31
 70
     1
102
RTVSPost2010Prop32
280
     0
102
RTVSPost2010PropOp32
 70
     1
102
RTVSPost2010Prop33
280
     0
102
RTVSPost2010PropOp33
 70
     1
102
RTVSPost2010Prop34
280
     0
102
RTVSPost2010PropOp34
 70
     1
102
RTVSPost2010Prop35
280
     0
102
RTVSPost2010PropOp35
 70
     1
102
RTVSPost2010Prop36
280
     0
102
RTVSPost2010PropOp36
 70
     1
102
RTVSPost2010Prop37
 90
       50
102
RTVSPost2010PropOp37
 70
     1
102
RTVSPost2010Prop38
140
0.0
102
RTVSPost2010PropOp38
 70
     1
102
RTVSPost2010Prop39
140
1.0
102
RTVSPost2010PropOp39
 70
     1
102
RTVSPost2010Prop40
 90
        0
102
RTVSPost2010PropOp40
 70
     1
102
RTVSPost2010Prop41ColorIndex
 90
       18
102
RTVSPost2010Prop41ColorRGB
 90
        0
102
RTVSPost2010PropOp41
 70
     1
102
RTVSPost2010Prop42
 90
       50
102
RTVSPost2010PropOp42
 70
     1
102
RTVSPost2010Prop43
 90
        3
102
RTVSPost2010PropOp43
 70
     1
102
RTVSPost2010Prop44ColorIndex
 90
        5
102
RTVSPost2010Prop44ColorRGB
 90
      255
102
RTVSPost2010PropOp44
 70
     1
102
RTVSPost2010Prop45
280
     0
102
RTVSPost2010PropOp45
 70
     1
102
RTVSPost2010Prop46
 90
       50
102
RTVSPost2010PropOp46
 70
     1
102
RTVSPost2010Prop47
 90
       50
102
RTVSPost2010PropOp47
 70
     1
102
RTVSPost2010Prop48
 90
       50
102
RTVSPost2010PropOp48
 70
     1
102
RTVSPost2010Prop49
280
     0
102
RTVSPost2010PropOp49
 70
     1
102
RTVSPost2010Prop50
 90
       50
102
RTVSPost2010PropOp50
 70
     1
102
RTVSPost2010Prop51ColorIndex
 90
      256
102
RTVSPost2010Prop51ColorRGB
 90
-16777216
102
RTVSPost2010PropOp51
 70
     0
102
RTVSPost2010Prop52
140
1.0
102
RTVSPost2010PropOp52
 70
     0
102
RTVSPost2010Prop53
 90
        2
102
RTVSPost2010PropOp53
 70
     1
102
RTVSPost2010Prop54
  1
strokes_ogs.tif
102
RTVSPost2010PropOp54
 70
     1
102
RTVSPost2010Prop55
280
     0
102
RTVSPost2010PropOp55
 70
     1
102
RTVSPost2010Prop56
140
1.0
102
RTVSPost2010PropOp56
 70
     1
102
RTVSPost2010Prop57
140
1.0
102
RTVSPost2010PropOp57
 70
     1
  0
XRECORD
  5
11F
102
{ACAD_REACTORS
330
11E
102
}
330
11E
100
AcDbXrecord
280
     1
102
RTVSPost2010Prop28
280
     0
102
RTVSPost2010PropOp28
 70
     1
102
RTVSPost2010Prop29
280
     1
102
RTVSPost2010PropOp29
 70
     1
102
RTVSPost2010Prop30
280
     1
102
RTVSPost2010PropOp30
 70
     1
102
RTVSPost2010Prop31
280
     0
102
RTVSPost2010PropOp31
 70
     1
102
RTVSPost2010Prop32
280
     0
102
RTVSPost2010PropOp32
 70
     1
102
RTVSPost2010Prop33
280
     0
102
RTVSPost2010PropOp33
 70
     1
102
RTVSPost2010Prop34
280
     0
102
RTVSPost2010PropOp34
 70
     1
102
RTVSPost2010Prop35
280
     0
102
RTVSPost2010PropOp35
 70
     1
102
RTVSPost2010Prop36
280
     0
102
RTVSPost2010PropOp36
 70
     1
102
RTVSPost2010Prop37
 90
       50
102
RTVSPost2010PropOp37
 70
     1
102
RTVSPost2010Prop38
140
0.0
102
RTVSPost2010PropOp38
 70
     1
102
RTVSPost2010Prop39
140
1.0
102
RTVSPost2010PropOp39
 70
     1
102
RTVSPost2010Prop40
 90
        0
102
RTVSPost2010PropOp40
 70
     1
102
RTVSPost2010Prop41ColorIndex
 90
       18
102
RTVSPost2010Prop41ColorRGB
 90
        0
102
RTVSPost2010PropOp41
 70
     1
102
RTVSPost2010Prop42
 90
       50
102
RTVSPost2010PropOp42
 70
     1
102
RTVSPost2010Prop43
 90
        3
102
RTVSPost2010PropOp43
 70
     1
102
RTVSPost2010Prop44ColorIndex
 90
        5
102
RTVSPost2010Prop44ColorRGB
 90
      255
102
RTVSPost2010PropOp44
 70
     1
102
RTVSPost2010Prop45
280
     0
102
RTVSPost2010PropOp45
 70
     1
102
RTVSPost2010Prop46
 90
       50
102
RTVSPost2010PropOp46
 70
     1
102
RTVSPost2010Prop47
 90
       50
102
RTVSPost2010PropOp47
 70
     1
102
RTVSPost2010Prop48
 90
       50
102
RTVSPost2010PropOp48
 70
     1
102
RTVSPost2010Prop49
280
     0
102
RTVSPost2010PropOp49
 70
     1
102
RTVSPost2010Prop50
 90
       50
102
RTVSPost2010PropOp50
 70
     1
102
RTVSPost2010Prop51ColorIndex
 90
      256
102
RTVSPost2010Prop51ColorRGB
 90
-16777216
102
RTVSPost2010PropOp51
 70
     0
102
RTVSPost2010Prop52
140
1.0
102
RTVSPost2010PropOp52
 70
     0
102
RTVSPost2010Prop53
 90
        2
102
RTVSPost2010PropOp53
 70
     1
102
RTVSPost2010Prop54
  1
strokes_ogs.tif
102
RTVSPost2010PropOp54
 70
     1
102
RTVSPost2010Prop55
280
     0
102
RTVSPost2010PropOp55
 70
     1
102
RTVSPost2010Prop56
140
1.0
102
RTVSPost2010PropOp56
 70
     1
102
RTVSPost2010Prop57
140
1.0
102
RTVSPost2010PropOp57
 70
     1
  0
XRECORD
  5
13B
102
{ACAD_REACTORS
330
13A
102
}
330
13A
100
AcDbXrecord
280
     1
102
RTVSPost2010Prop28
280
     0
102
RTVSPost2010PropOp28
 70
     0
102
RTVSPost2010Prop29
280
     1
102
RTVSPost2010PropOp29
 70
     0
102
RTVSPost2010Prop30
280
     1
102
RTVSPost2010PropOp30
 70
     0
102
RTVSPost2010Prop31
280
     0
102
RTVSPost2010PropOp31
 70
     0
102
RTVSPost2010Prop32
280
     0
102
RTVSPost2010PropOp32
 70
     0
102
RTVSPost2010Prop33
280
     0
102
RTVSPost2010PropOp33
 70
     0
102
RTVSPost2010Prop34
280
     0
102
RTVSPost2010PropOp34
 70
     0
102
RTVSPost2010Prop35
280
     0
102
RTVSPost2010PropOp35
 70
     0
102
RTVSPost2010Prop36
280
     0
102
RTVSPost2010PropOp36
 70
     0
102
RTVSPost2010Prop37
 90
       50
102
RTVSPost2010PropOp37
 70
     0
102
RTVSPost2010Prop38
140
0.0
102
RTVSPost2010PropOp38
 70
     0
102
RTVSPost2010Prop39
140
1.0
102
RTVSPost2010PropOp39
 70
     0
102
RTVSPost2010Prop40
 90
        0
102
RTVSPost2010PropOp40
 70
     0
102
RTVSPost2010Prop41ColorIndex
 90
       18
102
RTVSPost2010Prop41ColorRGB
 90
        0
102
RTVSPost2010PropOp41
 70
     0
102
RTVSPost2010Prop42
 90
       50
102
RTVSPost2010PropOp42
 70
     0
102
RTVSPost2010Prop43
 90
        3
102
RTVSPost2010PropOp43
 70
     0
102
RTVSPost2010Prop44ColorIndex
 90
        5
102
RTVSPost2010Prop44ColorRGB
 90
      255
102
RTVSPost2010PropOp44
 70
     0
102
RTVSPost2010Prop45
280
     0
102
RTVSPost2010PropOp45
 70
     0
102
RTVSPost2010Prop46
 90
       50
102
RTVSPost2010PropOp46
 70
     0
102
RTVSPost2010Prop47
 90
       50
102
RTVSPost2010PropOp47
 70
     0
102
RTVSPost2010Prop48
 90
       50
102
RTVSPost2010PropOp48
 70
     0
102
RTVSPost2010Prop49
280
     0
102
RTVSPost2010PropOp49
 70
     0
102
RTVSPost2010Prop50
 90
       50
102
RTVSPost2010PropOp50
 70
     0
102
RTVSPost2010Prop51ColorIndex
 90
      256
102
RTVSPost2010Prop51ColorRGB
 90
-16777216
102
RTVSPost2010PropOp51
 70
     0
102
RTVSPost2010Prop52
140
1.0
102
RTVSPost2010PropOp52
 70
     0
102
RTVSPost2010Prop53
 90
        2
102
RTVSPost2010PropOp53
 70
     0
102
RTVSPost2010Prop54
  1
strokes_ogs.tif
102
RTVSPost2010PropOp54
 70
     0
102
RTVSPost2010Prop55
280
     0
102
RTVSPost2010PropOp55
 70
     0
102
RTVSPost2010Prop56
140
1.0
102
RTVSPost2010PropOp56
 70
     0
102
RTVSPost2010Prop57
140
1.0
102
RTVSPost2010PropOp57
 70
     0
  0
XRECORD
  5
12B
102
{ACAD_REACTORS
330
12A
102
}
330
12A
100
AcDbXrecord
280
     1
102
RTVSPost2010Prop28
280
     0
102
RTVSPost2010PropOp28
 70
     1
102
RTVSPost2010Prop29
280
     1
102
RTVSPost2010PropOp29
 70
     1
102
RTVSPost2010Prop30
280
     1
102
RTVSPost2010PropOp30
 70
     1
102
RTVSPost2010Prop31
280
     0
102
RTVSPost2010PropOp31
 70
     1
102
RTVSPost2010Prop32
280
     0
102
RTVSPost2010PropOp32
 70
     1
102
RTVSPost2010Prop33
280
     0
102
RTVSPost2010PropOp33
 70
     1
102
RTVSPost2010Prop34
280
     0
102
RTVSPost2010PropOp34
 70
     1
102
RTVSPost2010Prop35
280
     0
102
RTVSPost2010PropOp35
 70
     1
102
RTVSPost2010Prop36
280
     0
102
RTVSPost2010PropOp36
 70
     1
102
RTVSPost2010Prop37
 90
       50
102
RTVSPost2010PropOp37
 70
     1
102
RTVSPost2010Prop38
140
0.0
102
RTVSPost2010PropOp38
 70
     1
102
RTVSPost2010Prop39
140
1.0
102
RTVSPost2010PropOp39
 70
     1
102
RTVSPost2010Prop40
 90
        0
102
RTVSPost2010PropOp40
 70
     1
102
RTVSPost2010Prop41ColorIndex
 90
       18
102
RTVSPost2010Prop41ColorRGB
 90
        0
102
RTVSPost2010PropOp41
 70
     1
102
RTVSPost2010Prop42
 90
       50
102
RTVSPost2010PropOp42
 70
     1
102
RTVSPost2010Prop43
 90
        3
102
RTVSPost2010PropOp43
 70
     1
102
RTVSPost2010Prop44ColorIndex
 90
        5
102
RTVSPost2010Prop44ColorRGB
 90
      255
102
RTVSPost2010PropOp44
 70
     1
102
RTVSPost2010Prop45
280
     0
102
RTVSPost2010PropOp45
 70
     1
102
RTVSPost2010Prop46
 90
       50
102
RTVSPost2010PropOp46
 70
     1
102
RTVSPost2010Prop47
 90
       50
102
RTVSPost2010PropOp47
 70
     1
102
RTVSPost2010Prop48
 90
       50
102
RTVSPost2010PropOp48
 70
     1
102
RTVSPost2010Prop49
280
     0
102
RTVSPost2010PropOp49
 70
     1
102
RTVSPost2010Prop50
 90
       50
102
RTVSPost2010PropOp50
 70
     1
102
RTVSPost2010Prop51ColorIndex
 90
      256
102
RTVSPost2010Prop51ColorRGB
 90
-16777216
102
RTVSPost2010PropOp51
 70
     0
102
RTVSPost2010Prop52
140
1.0
102
RTVSPost2010PropOp52
 70
     0
102
RTVSPost2010Prop53
 90
        2
102
RTVSPost2010PropOp53
 70
     1
102
RTVSPost2010Prop54
  1
strokes_ogs.tif
102
RTVSPost2010PropOp54
 70
     1
102
RTVSPost2010Prop55
280
     0
102
RTVSPost2010PropOp55
 70
     1
102
RTVSPost2010Prop56
140
1.0
102
RTVSPost2010PropOp56
 70
     1
102
RTVSPost2010Prop57
140
1.0
102
RTVSPost2010PropOp57
 70
     1
  0
XRECORD
  5
13D
102
{ACAD_REACTORS
330
13C
102
}
330
13C
100
AcDbXrecord
280
     1
102
RTVSPost2010Prop28
280
     0
102
RTVSPost2010PropOp28
 70
     0
102
RTVSPost2010Prop29
280
     1
102
RTVSPost2010PropOp29
 70
     0
102
RTVSPost2010Prop30
280
     1
102
RTVSPost2010PropOp30
 70
     0
102
RTVSPost2010Prop31
280
     0
102
RTVSPost2010PropOp31
 70
     0
102
RTVSPost2010Prop32
280
     0
102
RTVSPost2010PropOp32
 70
     0
102
RTVSPost2010Prop33
280
     0
102
RTVSPost2010PropOp33
 70
     0
102
RTVSPost2010Prop34
280
     0
102
RTVSPost2010PropOp34
 70
     0
102
RTVSPost2010Prop35
280
     0
102
RTVSPost2010PropOp35
 70
     0
102
RTVSPost2010Prop36
280
     0
102
RTVSPost2010PropOp36
 70
     0
102
RTVSPost2010Prop37
 90
       50
102
RTVSPost2010PropOp37
 70
     0
102
RTVSPost2010Prop38
140
0.0
102
RTVSPost2010PropOp38
 70
     0
102
RTVSPost2010Prop39
140
1.0
102
RTVSPost2010PropOp39
 70
     0
102
RTVSPost2010Prop40
 90
        0
102
RTVSPost2010PropOp40
 70
     0
102
RTVSPost2010Prop41ColorIndex
 90
       18
102
RTVSPost2010Prop41ColorRGB
 90
        0
102
RTVSPost2010PropOp41
 70
     0
102
RTVSPost2010Prop42
 90
       50
102
RTVSPost2010PropOp42
 70
     0
102
RTVSPost2010Prop43
 90
        3
102
RTVSPost2010PropOp43
 70
     0
102
RTVSPost2010Prop44ColorIndex
 90
        5
102
RTVSPost2010Prop44ColorRGB
 90
      255
102
RTVSPost2010PropOp44
 70
     0
102
RTVSPost2010Prop45
280
     0
102
RTVSPost2010PropOp45
 70
     0
102
RTVSPost2010Prop46
 90
       50
102
RTVSPost2010PropOp46
 70
     0
102
RTVSPost2010Prop47
 90
       50
102
RTVSPost2010PropOp47
 70
     0
102
RTVSPost2010Prop48
 90
       50
102
RTVSPost2010PropOp48
 70
     0
102
RTVSPost2010Prop49
280
     0
102
RTVSPost2010PropOp49
 70
     0
102
RTVSPost2010Prop50
 90
       50
102
RTVSPost2010PropOp50
 70
     0
102
RTVSPost2010Prop51ColorIndex
 90
      256
102
RTVSPost2010Prop51ColorRGB
 90
-16777216
102
RTVSPost2010PropOp51
 70
     0
102
RTVSPost2010Prop52
140
1.0
102
RTVSPost2010PropOp52
 70
     0
102
RTVSPost2010Prop53
 90
        2
102
RTVSPost2010PropOp53
 70
     0
102
RTVSPost2010Prop54
  1
strokes_ogs.tif
102
RTVSPost2010PropOp54
 70
     0
102
RTVSPost2010Prop55
280
     0
102
RTVSPost2010PropOp55
 70
     0
102
RTVSPost2010Prop56
140
1.0
102
RTVSPost2010PropOp56
 70
     0
102
RTVSPost2010Prop57
140
1.0
102
RTVSPost2010PropOp57
 70
     0
  0
XRECORD
  5
123
102
{ACAD_REACTORS
330
122
102
}
330
122
100
AcDbXrecord
280
     1
102
RTVSPost2010Prop28
280
     0
102
RTVSPost2010PropOp28
 70
     1
102
RTVSPost2010Prop29
280
     1
102
RTVSPost2010PropOp29
 70
     1
102
RTVSPost2010Prop30
280
     1
102
RTVSPost2010PropOp30
 70
     1
102
RTVSPost2010Prop31
280
     0
102
RTVSPost2010PropOp31
 70
     1
102
RTVSPost2010Prop32
280
     0
102
RTVSPost2010PropOp32
 70
     1
102
RTVSPost2010Prop33
280
     0
102
RTVSPost2010PropOp33
 70
     1
102
RTVSPost2010Prop34
280
     0
102
RTVSPost2010PropOp34
 70
     1
102
RTVSPost2010Prop35
280
     0
102
RTVSPost2010PropOp35
 70
     1
102
RTVSPost2010Prop36
280
     0
102
RTVSPost2010PropOp36
 70
     1
102
RTVSPost2010Prop37
 90
       50
102
RTVSPost2010PropOp37
 70
     1
102
RTVSPost2010Prop38
140
0.0
102
RTVSPost2010PropOp38
 70
     1
102
RTVSPost2010Prop39
140
1.0
102
RTVSPost2010PropOp39
 70
     1
102
RTVSPost2010Prop40
 90
        0
102
RTVSPost2010PropOp40
 70
     1
102
RTVSPost2010Prop41ColorIndex
 90
       18
102
RTVSPost2010Prop41ColorRGB
 90
        0
102
RTVSPost2010PropOp41
 70
     1
102
RTVSPost2010Prop42
 90
       50
102
RTVSPost2010PropOp42
 70
     1
102
RTVSPost2010Prop43
 90
        3
102
RTVSPost2010PropOp43
 70
     1
102
RTVSPost2010Prop44ColorIndex
 90
        5
102
RTVSPost2010Prop44ColorRGB
 90
      255
102
RTVSPost2010PropOp44
 70
     1
102
RTVSPost2010Prop45
280
     0
102
RTVSPost2010PropOp45
 70
     1
102
RTVSPost2010Prop46
 90
       50
102
RTVSPost2010PropOp46
 70
     1
102
RTVSPost2010Prop47
 90
       50
102
RTVSPost2010PropOp47
 70
     1
102
RTVSPost2010Prop48
 90
       50
102
RTVSPost2010PropOp48
 70
     1
102
RTVSPost2010Prop49
280
     0
102
RTVSPost2010PropOp49
 70
     1
102
RTVSPost2010Prop50
 90
       50
102
RTVSPost2010PropOp50
 70
     1
102
RTVSPost2010Prop51ColorIndex
 90
      256
102
RTVSPost2010Prop51ColorRGB
 90
-16777216
102
RTVSPost2010PropOp51
 70
     0
102
RTVSPost2010Prop52
140
1.0
102
RTVSPost2010PropOp52
 70
     0
102
RTVSPost2010Prop53
 90
        2
102
RTVSPost2010PropOp53
 70
     1
102
RTVSPost2010Prop54
  1
strokes_ogs.tif
102
RTVSPost2010PropOp54
 70
     1
102
RTVSPost2010Prop55
280
     0
102
RTVSPost2010PropOp55
 70
     1
102
RTVSPost2010Prop56
140
1.0
102
RTVSPost2010PropOp56
 70
     1
102
RTVSPost2010Prop57
140
1.0
102
RTVSPost2010PropOp57
 70
     1
  0
XRECORD
  5
139
102
{ACAD_REACTORS
330
138
102
}
330
138
100
AcDbXrecord
280
     1
102
RTVSPost2010Prop28
280
     0
102
RTVSPost2010PropOp28
 70
     1
102
RTVSPost2010Prop29
280
     1
102
RTVSPost2010PropOp29
 70
     1
102
RTVSPost2010Prop30
280
     1
102
RTVSPost2010PropOp30
 70
     1
102
RTVSPost2010Prop31
280
     0
102
RTVSPost2010PropOp31
 70
     1
102
RTVSPost2010Prop32
280
     0
102
RTVSPost2010PropOp32
 70
     1
102
RTVSPost2010Prop33
280
     0
102
RTVSPost2010PropOp33
 70
     1
102
RTVSPost2010Prop34
280
     0
102
RTVSPost2010PropOp34
 70
     1
102
RTVSPost2010Prop35
280
     0
102
RTVSPost2010PropOp35
 70
     1
102
RTVSPost2010Prop36
280
     0
102
RTVSPost2010PropOp36
 70
     1
102
RTVSPost2010Prop37
 90
       50
102
RTVSPost2010PropOp37
 70
     1
102
RTVSPost2010Prop38
140
0.0
102
RTVSPost2010PropOp38
 70
     1
102
RTVSPost2010Prop39
140
1.0
102
RTVSPost2010PropOp39
 70
     1
102
RTVSPost2010Prop40
 90
        0
102
RTVSPost2010PropOp40
 70
     1
102
RTVSPost2010Prop41ColorIndex
 90
       18
102
RTVSPost2010Prop41ColorRGB
 90
        0
102
RTVSPost2010PropOp41
 70
     1
102
RTVSPost2010Prop42
 90
       50
102
RTVSPost2010PropOp42
 70
     1
102
RTVSPost2010Prop43
 90
        3
102
RTVSPost2010PropOp43
 70
     1
102
RTVSPost2010Prop44ColorIndex
 90
        5
102
RTVSPost2010Prop44ColorRGB
 90
      255
102
RTVSPost2010PropOp44
 70
     1
102
RTVSPost2010Prop45
280
     0
102
RTVSPost2010PropOp45
 70
     1
102
RTVSPost2010Prop46
 90
       50
102
RTVSPost2010PropOp46
 70
     1
102
RTVSPost2010Prop47
 90
       50
102
RTVSPost2010PropOp47
 70
     1
102
RTVSPost2010Prop48
 90
       50
102
RTVSPost2010PropOp48
 70
     1
102
RTVSPost2010Prop49
280
     0
102
RTVSPost2010PropOp49
 70
     1
102
RTVSPost2010Prop50
 90
       50
102
RTVSPost2010PropOp50
 70
     1
102
RTVSPost2010Prop51ColorIndex
 90
      256
102
RTVSPost2010Prop51ColorRGB
 90
-16777216
102
RTVSPost2010PropOp51
 70
     0
102
RTVSPost2010Prop52
140
1.0
102
RTVSPost2010PropOp52
 70
     0
102
RTVSPost2010Prop53
 90
        2
102
RTVSPost2010PropOp53
 70
     1
102
RTVSPost2010Prop54
  1
strokes_ogs.tif
102
RTVSPost2010PropOp54
 70
     1
102
RTVSPost2010Prop55
280
     0
102
RTVSPost2010PropOp55
 70
     1
102
RTVSPost2010Prop56
140
1.0
102
RTVSPost2010PropOp56
 70
     1
102
RTVSPost2010Prop57
140
1.0
102
RTVSPost2010PropOp57
 70
     1
  0
XRECORD
  5
137
102
{ACAD_REACTORS
330
136
102
}
330
136
100
AcDbXrecord
280
     1
102
RTVSPost2010Prop28
280
     0
102
RTVSPost2010PropOp28
 70
     1
102
RTVSPost2010Prop29
280
     1
102
RTVSPost2010PropOp29
 70
     1
102
RTVSPost2010Prop30
280
     1
102
RTVSPost2010PropOp30
 70
     1
102
RTVSPost2010Prop31
280
     0
102
RTVSPost2010PropOp31
 70
     1
102
RTVSPost2010Prop32
280
     0
102
RTVSPost2010PropOp32
 70
     1
102
RTVSPost2010Prop33
280
     0
102
RTVSPost2010PropOp33
 70
     1
102
RTVSPost2010Prop34
280
     0
102
RTVSPost2010PropOp34
 70
     1
102
RTVSPost2010Prop35
280
     0
102
RTVSPost2010PropOp35
 70
     1
102
RTVSPost2010Prop36
280
     0
102
RTVSPost2010PropOp36
 70
     1
102
RTVSPost2010Prop37
 90
       50
102
RTVSPost2010PropOp37
 70
     1
102
RTVSPost2010Prop38
140
0.0
102
RTVSPost2010PropOp38
 70
     1
102
RTVSPost2010Prop39
140
1.0
102
RTVSPost2010PropOp39
 70
     1
102
RTVSPost2010Prop40
 90
        0
102
RTVSPost2010PropOp40
 70
     1
102
RTVSPost2010Prop41ColorIndex
 90
       18
102
RTVSPost2010Prop41ColorRGB
 90
        0
102
RTVSPost2010PropOp41
 70
     1
102
RTVSPost2010Prop42
 90
       50
102
RTVSPost2010PropOp42
 70
     1
102
RTVSPost2010Prop43
 90
        3
102
RTVSPost2010PropOp43
 70
     1
102
RTVSPost2010Prop44ColorIndex
 90
        5
102
RTVSPost2010Prop44ColorRGB
 90
      255
102
RTVSPost2010PropOp44
 70
     1
102
RTVSPost2010Prop45
280
     0
102
RTVSPost2010PropOp45
 70
     1
102
RTVSPost2010Prop46
 90
       50
102
RTVSPost2010PropOp46
 70
     1
102
RTVSPost2010Prop47
 90
       50
102
RTVSPost2010PropOp47
 70
     1
102
RTVSPost2010Prop48
 90
       50
102
RTVSPost2010PropOp48
 70
     1
102
RTVSPost2010Prop49
280
     0
102
RTVSPost2010PropOp49
 70
     1
102
RTVSPost2010Prop50
 90
       50
102
RTVSPost2010PropOp50
 70
     1
102
RTVSPost2010Prop51ColorIndex
 90
      256
102
RTVSPost2010Prop51ColorRGB
 90
-16777216
102
RTVSPost2010PropOp51
 70
     0
102
RTVSPost2010Prop52
140
1.0
102
RTVSPost2010PropOp52
 70
     0
102
RTVSPost2010Prop53
 90
        2
102
RTVSPost2010PropOp53
 70
     1
102
RTVSPost2010Prop54
  1
strokes_ogs.tif
102
RTVSPost2010PropOp54
 70
     1
102
RTVSPost2010Prop55
280
     0
102
RTVSPost2010PropOp55
 70
     1
102
RTVSPost2010Prop56
140
1.0
102
RTVSPost2010PropOp56
 70
     1
102
RTVSPost2010Prop57
140
1.0
102
RTVSPost2010PropOp57
 70
     1
  0
XRECORD
  5
131
102
{ACAD_REACTORS
330
130
102
}
330
130
100
AcDbXrecord
280
     1
102
RTVSPost2010Prop28
280
     0
102
RTVSPost2010PropOp28
 70
     1
102
RTVSPost2010Prop29
280
     1
102
RTVSPost2010PropOp29
 70
     1
102
RTVSPost2010Prop30
280
     1
102
RTVSPost2010PropOp30
 70
     1
102
RTVSPost2010Prop31
280
     0
102
RTVSPost2010PropOp31
 70
     1
102
RTVSPost2010Prop32
280
     0
102
RTVSPost2010PropOp32
 70
     1
102
RTVSPost2010Prop33
280
     0
102
RTVSPost2010PropOp33
 70
     1
102
RTVSPost2010Prop34
280
     0
102
RTVSPost2010PropOp34
 70
     1
102
RTVSPost2010Prop35
280
     0
102
RTVSPost2010PropOp35
 70
     1
102
RTVSPost2010Prop36
280
     0
102
RTVSPost2010PropOp36
 70
     1
102
RTVSPost2010Prop37
 90
       50
102
RTVSPost2010PropOp37
 70
     1
102
RTVSPost2010Prop38
140
0.0
102
RTVSPost2010PropOp38
 70
     1
102
RTVSPost2010Prop39
140
1.0
102
RTVSPost2010PropOp39
 70
     1
102
RTVSPost2010Prop40
 90
        0
102
RTVSPost2010PropOp40
 70
     1
102
RTVSPost2010Prop41ColorIndex
 90
       18
102
RTVSPost2010Prop41ColorRGB
 90
        0
102
RTVSPost2010PropOp41
 70
     1
102
RTVSPost2010Prop42
 90
       50
102
RTVSPost2010PropOp42
 70
     1
102
RTVSPost2010Prop43
 90
        3
102
RTVSPost2010PropOp43
 70
     1
102
RTVSPost2010Prop44ColorIndex
 90
        5
102
RTVSPost2010Prop44ColorRGB
 90
      255
102
RTVSPost2010PropOp44
 70
     1
102
RTVSPost2010Prop45
280
     0
102
RTVSPost2010PropOp45
 70
     1
102
RTVSPost2010Prop46
 90
       50
102
RTVSPost2010PropOp46
 70
     1
102
RTVSPost2010Prop47
 90
       50
102
RTVSPost2010PropOp47
 70
     1
102
RTVSPost2010Prop48
 90
       50
102
RTVSPost2010PropOp48
 70
     1
102
RTVSPost2010Prop49
280
     0
102
RTVSPost2010PropOp49
 70
     1
102
RTVSPost2010Prop50
 90
       50
102
RTVSPost2010PropOp50
 70
     1
102
RTVSPost2010Prop51ColorIndex
 90
      256
102
RTVSPost2010Prop51ColorRGB
 90
-16777216
102
RTVSPost2010PropOp51
 70
     0
102
RTVSPost2010Prop52
140
1.0
102
RTVSPost2010PropOp52
 70
     0
102
RTVSPost2010Prop53
 90
        2
102
RTVSPost2010PropOp53
 70
     1
102
RTVSPost2010Prop54
  1
strokes_ogs.tif
102
RTVSPost2010PropOp54
 70
     1
102
RTVSPost2010Prop55
280
     0
102
RTVSPost2010PropOp55
 70
     1
102
RTVSPost2010Prop56
140
1.0
102
RTVSPost2010PropOp56
 70
     1
102
RTVSPost2010Prop57
140
1.0
102
RTVSPost2010PropOp57
 70
     1
  0
XRECORD
  5
133
102
{ACAD_REACTORS
330
132
102
}
330
132
100
AcDbXrecord
280
     1
102
RTVSPost2010Prop28
280
     0
102
RTVSPost2010PropOp28
 70
     1
102
RTVSPost2010Prop29
280
     1
102
RTVSPost2010PropOp29
 70
     1
102
RTVSPost2010Prop30
280
     1
102
RTVSPost2010PropOp30
 70
     1
102
RTVSPost2010Prop31
280
     0
102
RTVSPost2010PropOp31
 70
     1
102
RTVSPost2010Prop32
280
     0
102
RTVSPost2010PropOp32
 70
     1
102
RTVSPost2010Prop33
280
     0
102
RTVSPost2010PropOp33
 70
     1
102
RTVSPost2010Prop34
280
     0
102
RTVSPost2010PropOp34
 70
     1
102
RTVSPost2010Prop35
280
     0
102
RTVSPost2010PropOp35
 70
     1
102
RTVSPost2010Prop36
280
     0
102
RTVSPost2010PropOp36
 70
     1
102
RTVSPost2010Prop37
 90
       50
102
RTVSPost2010PropOp37
 70
     1
102
RTVSPost2010Prop38
140
0.0
102
RTVSPost2010PropOp38
 70
     1
102
RTVSPost2010Prop39
140
1.0
102
RTVSPost2010PropOp39
 70
     1
102
RTVSPost2010Prop40
 90
        0
102
RTVSPost2010PropOp40
 70
     1
102
RTVSPost2010Prop41ColorIndex
 90
       18
102
RTVSPost2010Prop41ColorRGB
 90
        0
102
RTVSPost2010PropOp41
 70
     1
102
RTVSPost2010Prop42
 90
       50
102
RTVSPost2010PropOp42
 70
     1
102
RTVSPost2010Prop43
 90
        3
102
RTVSPost2010PropOp43
 70
     1
102
RTVSPost2010Prop44ColorIndex
 90
        5
102
RTVSPost2010Prop44ColorRGB
 90
      255
102
RTVSPost2010PropOp44
 70
     1
102
RTVSPost2010Prop45
280
     0
102
RTVSPost2010PropOp45
 70
     1
102
RTVSPost2010Prop46
 90
       50
102
RTVSPost2010PropOp46
 70
     1
102
RTVSPost2010Prop47
 90
       50
102
RTVSPost2010PropOp47
 70
     1
102
RTVSPost2010Prop48
 90
       50
102
RTVSPost2010PropOp48
 70
     1
102
RTVSPost2010Prop49
280
     0
102
RTVSPost2010PropOp49
 70
     1
102
RTVSPost2010Prop50
 90
       50
102
RTVSPost2010PropOp50
 70
     1
102
RTVSPost2010Prop51ColorIndex
 90
      256
102
RTVSPost2010Prop51ColorRGB
 90
-16777216
102
RTVSPost2010PropOp51
 70
     0
102
RTVSPost2010Prop52
140
1.0
102
RTVSPost2010PropOp52
 70
     0
102
RTVSPost2010Prop53
 90
        2
102
RTVSPost2010PropOp53
 70
     1
102
RTVSPost2010Prop54
  1
strokes_ogs.tif
102
RTVSPost2010PropOp54
 70
     1
102
RTVSPost2010Prop55
280
     0
102
RTVSPost2010PropOp55
 70
     1
102
RTVSPost2010Prop56
140
1.0
102
RTVSPost2010PropOp56
 70
     1
102
RTVSPost2010Prop57
140
1.0
102
RTVSPost2010PropOp57
 70
     1
  0
XRECORD
  5
129
102
{ACAD_REACTORS
330
128
102
}
330
128
100
AcDbXrecord
280
     1
102
RTVSPost2010Prop28
280
     0
102
RTVSPost2010PropOp28
 70
     1
102
RTVSPost2010Prop29
280
     1
102
RTVSPost2010PropOp29
 70
     1
102
RTVSPost2010Prop30
280
     1
102
RTVSPost2010PropOp30
 70
     1
102
RTVSPost2010Prop31
280
     0
102
RTVSPost2010PropOp31
 70
     1
102
RTVSPost2010Prop32
280
     0
102
RTVSPost2010PropOp32
 70
     1
102
RTVSPost2010Prop33
280
     0
102
RTVSPost2010PropOp33
 70
     1
102
RTVSPost2010Prop34
280
     0
102
RTVSPost2010PropOp34
 70
     1
102
RTVSPost2010Prop35
280
     0
102
RTVSPost2010PropOp35
 70
     1
102
RTVSPost2010Prop36
280
     0
102
RTVSPost2010PropOp36
 70
     1
102
RTVSPost2010Prop37
 90
       50
102
RTVSPost2010PropOp37
 70
     1
102
RTVSPost2010Prop38
140
0.0
102
RTVSPost2010PropOp38
 70
     1
102
RTVSPost2010Prop39
140
1.0
102
RTVSPost2010PropOp39
 70
     1
102
RTVSPost2010Prop40
 90
        0
102
RTVSPost2010PropOp40
 70
     1
102
RTVSPost2010Prop41ColorIndex
 90
       18
102
RTVSPost2010Prop41ColorRGB
 90
        0
102
RTVSPost2010PropOp41
 70
     1
102
RTVSPost2010Prop42
 90
       50
102
RTVSPost2010PropOp42
 70
     1
102
RTVSPost2010Prop43
 90
        3
102
RTVSPost2010PropOp43
 70
     1
102
RTVSPost2010Prop44ColorIndex
 90
        5
102
RTVSPost2010Prop44ColorRGB
 90
      255
102
RTVSPost2010PropOp44
 70
     1
102
RTVSPost2010Prop45
280
     0
102
RTVSPost2010PropOp45
 70
     1
102
RTVSPost2010Prop46
 90
       50
102
RTVSPost2010PropOp46
 70
     1
102
RTVSPost2010Prop47
 90
       50
102
RTVSPost2010PropOp47
 70
     1
102
RTVSPost2010Prop48
 90
       50
102
RTVSPost2010PropOp48
 70
     1
102
RTVSPost2010Prop49
280
     0
102
RTVSPost2010PropOp49
 70
     1
102
RTVSPost2010Prop50
 90
       50
102
RTVSPost2010PropOp50
 70
     1
102
RTVSPost2010Prop51ColorIndex
 90
      256
102
RTVSPost2010Prop51ColorRGB
 90
-16777216
102
RTVSPost2010PropOp51
 70
     0
102
RTVSPost2010Prop52
140
1.0
102
RTVSPost2010PropOp52
 70
     0
102
RTVSPost2010Prop53
 90
        2
102
RTVSPost2010PropOp53
 70
     1
102
RTVSPost2010Prop54
  1
strokes_ogs.tif
102
RTVSPost2010PropOp54
 70
     1
102
RTVSPost2010Prop55
280
     0
102
RTVSPost2010PropOp55
 70
     1
102
RTVSPost2010Prop56
140
1.0
102
RTVSPost2010PropOp56
 70
     1
102
RTVSPost2010Prop57
140
1.0
102
RTVSPost2010PropOp57
 70
     1
  0
XRECORD
  5
11D
102
{ACAD_REACTORS
330
11C
102
}
330
11C
100
AcDbXrecord
280
     1
102
RTVSPost2010Prop28
280
     0
102
RTVSPost2010PropOp28
 70
     1
102
RTVSPost2010Prop29
280
     1
102
RTVSPost2010PropOp29
 70
     1
102
RTVSPost2010Prop30
280
     1
102
RTVSPost2010PropOp30
 70
     1
102
RTVSPost2010Prop31
280
     0
102
RTVSPost2010PropOp31
 70
     1
102
RTVSPost2010Prop32
280
     0
102
RTVSPost2010PropOp32
 70
     1
102
RTVSPost2010Prop33
280
     0
102
RTVSPost2010PropOp33
 70
     1
102
RTVSPost2010Prop34
280
     0
102
RTVSPost2010PropOp34
 70
     1
102
RTVSPost2010Prop35
280
     0
102
RTVSPost2010PropOp35
 70
     1
102
RTVSPost2010Prop36
280
     0
102
RTVSPost2010PropOp36
 70
     1
102
RTVSPost2010Prop37
 90
       50
102
RTVSPost2010PropOp37
 70
     1
102
RTVSPost2010Prop38
140
0.0
102
RTVSPost2010PropOp38
 70
     1
102
RTVSPost2010Prop39
140
1.0
102
RTVSPost2010PropOp39
 70
     1
102
RTVSPost2010Prop40
 90
        0
102
RTVSPost2010PropOp40
 70
     1
102
RTVSPost2010Prop41ColorIndex
 90
       18
102
RTVSPost2010Prop41ColorRGB
 90
        0
102
RTVSPost2010PropOp41
 70
     1
102
RTVSPost2010Prop42
 90
       50
102
RTVSPost2010PropOp42
 70
     1
102
RTVSPost2010Prop43
 90
        3
102
RTVSPost2010PropOp43
 70
     1
102
RTVSPost2010Prop44ColorIndex
 90
        5
102
RTVSPost2010Prop44ColorRGB
 90
      255
102
RTVSPost2010PropOp44
 70
     1
102
RTVSPost2010Prop45
280
     0
102
RTVSPost2010PropOp45
 70
     1
102
RTVSPost2010Prop46
 90
       50
102
RTVSPost2010PropOp46
 70
     1
102
RTVSPost2010Prop47
 90
       50
102
RTVSPost2010PropOp47
 70
     1
102
RTVSPost2010Prop48
 90
       50
102
RTVSPost2010PropOp48
 70
     1
102
RTVSPost2010Prop49
280
     0
102
RTVSPost2010PropOp49
 70
     1
102
RTVSPost2010Prop50
 90
       50
102
RTVSPost2010PropOp50
 70
     1
102
RTVSPost2010Prop51ColorIndex
 90
      256
102
RTVSPost2010Prop51ColorRGB
 90
-16777216
102
RTVSPost2010PropOp51
 70
     0
102
RTVSPost2010Prop52
140
1.0
102
RTVSPost2010PropOp52
 70
     0
102
RTVSPost2010Prop53
 90
        2
102
RTVSPost2010PropOp53
 70
     1
102
RTVSPost2010Prop54
  1
strokes_ogs.tif
102
RTVSPost2010PropOp54
 70
     1
102
RTVSPost2010Prop55
280
     0
102
RTVSPost2010PropOp55
 70
     1
102
RTVSPost2010Prop56
140
1.0
102
RTVSPost2010PropOp56
 70
     1
102
RTVSPost2010Prop57
140
1.0
102
RTVSPost2010PropOp57
 70
     1
  0
XRECORD
  5
135
102
{ACAD_REACTORS
330
134
102
}
330
134
100
AcDbXrecord
280
     1
102
RTVSPost2010Prop28
280
     0
102
RTVSPost2010PropOp28
 70
     1
102
RTVSPost2010Prop29
280
     1
102
RTVSPost2010PropOp29
 70
     1
102
RTVSPost2010Prop30
280
     1
102
RTVSPost2010PropOp30
 70
     1
102
RTVSPost2010Prop31
280
     0
102
RTVSPost2010PropOp31
 70
     1
102
RTVSPost2010Prop32
280
     0
102
RTVSPost2010PropOp32
 70
     1
102
RTVSPost2010Prop33
280
     0
102
RTVSPost2010PropOp33
 70
     1
102
RTVSPost2010Prop34
280
     0
102
RTVSPost2010PropOp34
 70
     1
102
RTVSPost2010Prop35
280
     0
102
RTVSPost2010PropOp35
 70
     1
102
RTVSPost2010Prop36
280
     0
102
RTVSPost2010PropOp36
 70
     1
102
RTVSPost2010Prop37
 90
       50
102
RTVSPost2010PropOp37
 70
     1
102
RTVSPost2010Prop38
140
0.0
102
RTVSPost2010PropOp38
 70
     1
102
RTVSPost2010Prop39
140
1.0
102
RTVSPost2010PropOp39
 70
     1
102
RTVSPost2010Prop40
 90
        0
102
RTVSPost2010PropOp40
 70
     1
102
RTVSPost2010Prop41ColorIndex
 90
       18
102
RTVSPost2010Prop41ColorRGB
 90
        0
102
RTVSPost2010PropOp41
 70
     1
102
RTVSPost2010Prop42
 90
       50
102
RTVSPost2010PropOp42
 70
     1
102
RTVSPost2010Prop43
 90
        3
102
RTVSPost2010PropOp43
 70
     1
102
RTVSPost2010Prop44ColorIndex
 90
        5
102
RTVSPost2010Prop44ColorRGB
 90
      255
102
RTVSPost2010PropOp44
 70
     1
102
RTVSPost2010Prop45
280
     0
102
RTVSPost2010PropOp45
 70
     1
102
RTVSPost2010Prop46
 90
       50
102
RTVSPost2010PropOp46
 70
     1
102
RTVSPost2010Prop47
 90
       50
102
RTVSPost2010PropOp47
 70
     1
102
RTVSPost2010Prop48
 90
       50
102
RTVSPost2010PropOp48
 70
     1
102
RTVSPost2010Prop49
280
     0
102
RTVSPost2010PropOp49
 70
     1
102
RTVSPost2010Prop50
 90
       50
102
RTVSPost2010PropOp50
 70
     1
102
RTVSPost2010Prop51ColorIndex
 90
      256
102
RTVSPost2010Prop51ColorRGB
 90
-16777216
102
RTVSPost2010PropOp51
 70
     0
102
RTVSPost2010Prop52
140
1.0
102
RTVSPost2010PropOp52
 70
     0
102
RTVSPost2010Prop53
 90
        2
102
RTVSPost2010PropOp53
 70
     1
102
RTVSPost2010Prop54
  1
strokes_ogs.tif
102
RTVSPost2010PropOp54
 70
     1
102
RTVSPost2010Prop55
280
     0
102
RTVSPost2010PropOp55
 70
     1
102
RTVSPost2010Prop56
140
1.0
102
RTVSPost2010PropOp56
 70
     1
102
RTVSPost2010Prop57
140
1.0
102
RTVSPost2010PropOp57
 70
     1
  0
ENDSEC
  0
EOF
