  0
SECTION
  2
HEADER
  9
$ACADVER
  1
AC1024
  9
$ACADMAINTVER
 70
   226
  9
$DWGCODEPAGE
  3
ANSI_932
  9
$INSBASE
 10
0.0
 20
0.0
 30
0.0
  9
$EXTMIN
 10
1.000000000000000E+20
 20
1.000000000000000E+20
 30
1.000000000000000E+20
  9
$EXTMAX
 10
-1.000000000000000E+20
 20
-1.000000000000000E+20
 30
-1.000000000000000E+20
  9
$LIMMIN
 10
0.0
 20
0.0
  9
$LIMMAX
 10
12.0
 20
9.0
  9
$ORTHOMODE
 70
     0
  9
$REGENMODE
 70
     1
  9
$FILLMODE
 70
     1
  9
$QTEXTMODE
 70
     0
  9
$MIRRTEXT
 70
     0
  9
$LTSCALE
 40
1.0
  9
$ATTMODE
 70
     1
  9
$TEXTSIZE
 40
0.2
  9
$TRACEWID
 40
0.05
  9
$TEXTSTYLE
  7
Standard
  9
$CLAYER
  8
0
  9
$CELTYPE
  6
ByLayer
  9
$CECOLOR
 62
   256
  9
$CELTSCALE
 40
1.0
  9
$DISPSILH
 70
     0
  9
$DIMSCALE
 40
1.0
  9
$DIMASZ
 40
0.18
  9
$DIMEXO
 40
0.0625
  9
$DIMDLI
 40
0.38
  9
$DIMRND
 40
0.0
  9
$DIMDLE
 40
0.0
  9
$DIMEXE
 40
0.18
  9
$DIMTP
 40
0.0
  9
$DIMTM
 40
0.0
  9
$DIMTXT
 40
0.18
  9
$DIMCEN
 40
0.09
  9
$DIMTSZ
 40
0.0
  9
$DIMTOL
 70
     0
  9
$DIMLIM
 70
     0
  9
$DIMTIH
 70
     1
  9
$DIMTOH
 70
     1
  9
$DIMSE1
 70
     0
  9
$DIMSE2
 70
     0
  9
$DIMTAD
 70
     0
  9
$DIMZIN
 70
     0
  9
$DIMBLK
  1

  9
$DIMASO
 70
     1
  9
$DIMSHO
 70
     1
  9
$DIMPOST
  1

  9
$DIMAPOST
  1

  9
$DIMALT
 70
     0
  9
$DIMALTD
 70
     2
  9
$DIMALTF
 40
25.4
  9
$DIMLFAC
 40
1.0
  9
$DIMTOFL
 70
     0
  9
$DIMTVP
 40
0.0
  9
$DIMTIX
 70
     0
  9
$DIMSOXD
 70
     0
  9
$DIMSAH
 70
     0
  9
$DIMBLK1
  1

  9
$DIMBLK2
  1

  9
$DIMSTYLE
  2
Standard
  9
$DIMCLRD
 70
     0
  9
$DIMCLRE
 70
     0
  9
$DIMCLRT
 70
     0
  9
$DIMTFAC
 40
1.0
  9
$DIMGAP
 40
0.09
  9
$DIMJUST
 70
     0
  9
$DIMSD1
 70
     0
  9
$DIMSD2
 70
     0
  9
$DIMTOLJ
 70
     1
  9
$DIMTZIN
 70
     0
  9
$DIMALTZ
 70
     0
  9
$DIMALTTZ
 70
     0
  9
$DIMUPT
 70
     0
  9
$DIMDEC
 70
     4
  9
$DIMTDEC
 70
     4
  9
$DIMALTU
 70
     2
  9
$DIMALTTD
 70
     2
  9
$DIMTXSTY
  7
Standard
  9
$DIMAUNIT
 70
     0
  9
$DIMADEC
 70
     0
  9
$DIMALTRND
 40
0.0
  9
$DIMAZIN
 70
     0
  9
$DIMDSEP
 70
    46
  9
$DIMATFIT
 70
     3
  9
$DIMFRAC
 70
     0
  9
$DIMLDRBLK
  1

  9
$DIMLUNIT
 70
     2
  9
$DIMLWD
 70
    -2
  9
$DIMLWE
 70
    -2
  9
$DIMTMOVE
 70
     0
  9
$DIMFXL
 40
1.0
  9
$DIMFXLON
 70
     0
  9
$DIMJOGANG
 40
0.7853981633974483
  9
$DIMTFILL
 70
     0
  9
$DIMTFILLCLR
 70
     0
  9
$DIMARCSYM
 70
     0
  9
$DIMLTYPE
  6

  9
$DIMLTEX1
  6

  9
$DIMLTEX2
  6

  9
$DIMTXTDIRECTION
 70
     0
  9
$LUNITS
 70
     2
  9
$LUPREC
 70
     4
  9
$SKETCHINC
 40
0.1
  9
$FILLETRAD
 40
0.0
  9
$AUNITS
 70
     0
  9
$AUPREC
 70
     0
  9
$MENU
  1
.
  9
$ELEVATION
 40
0.0
  9
$PELEVATION
 40
0.0
  9
$THICKNESS
 40
0.0
  9
$LIMCHECK
 70
     0
  9
$CHAMFERA
 40
0.0
  9
$CHAMFERB
 40
0.0
  9
$CHAMFERC
 40
0.0
  9
$CHAMFERD
 40
0.0
  9
$SKPOLY
 70
     0
  9
$TDCREATE
 40
2460039.382511574
  9
$TDUCREATE
 40
2460039.007511574
  9
$TDUPDATE
 40
2460039.382511574
  9
$TDUUPDATE
 40
2460039.007511574
  9
$TDINDWG
 40
0.0000000000
  9
$TDUSRTIMER
 40
0.0000000000
  9
$USRTIMER
 70
     1
  9
$ANGBASE
 50
0.0
  9
$ANGDIR
 70
     0
  9
$PDMODE
 70
     0
  9
$PDSIZE
 40
0.0
  9
$PLINEWID
 40
0.0
  9
$SPLFRAME
 70
     0
  9
$SPLINETYPE
 70
     6
  9
$SPLINESEGS
 70
     8
  9
$HANDSEED
  5
140
  9
$SURFTAB1
 70
     6
  9
$SURFTAB2
 70
     6
  9
$SURFTYPE
 70
     6
  9
$SURFU
 70
     6
  9
$SURFV
 70
     6
  9
$UCSBASE
  2

  9
$UCSNAME
  2

  9
$UCSORG
 10
0.0
 20
0.0
 30
0.0
  9
$UCSXDIR
 10
1.0
 20
0.0
 30
0.0
  9
$UCSYDIR
 10
0.0
 20
1.0
 30
0.0
  9
$UCSORTHOREF
  2

  9
$UCSORTHOVIEW
 70
     0
  9
$UCSORGTOP
 10
0.0
 20
0.0
 30
0.0
  9
$UCSORGBOTTOM
 10
0.0
 20
0.0
 30
0.0
  9
$UCSORGLEFT
 10
0.0
 20
0.0
 30
0.0
  9
$UCSORGRIGHT
 10
0.0
 20
0.0
 30
0.0
  9
$UCSORGFRONT
 10
0.0
 20
0.0
 30
0.0
  9
$UCSORGBACK
 10
0.0
 20
0.0
 30
0.0
  9
$PUCSBASE
  2

  9
$PUCSNAME
  2

  9
$PUCSORG
 10
0.0
 20
0.0
 30
0.0
  9
$PUCSXDIR
 10
1.0
 20
0.0
 30
0.0
  9
$PUCSYDIR
 10
0.0
 20
1.0
 30
0.0
  9
$PUCSORTHOREF
  2

  9
$PUCSORTHOVIEW
 70
     0
  9
$PUCSORGTOP
 10
0.0
 20
0.0
 30
0.0
  9
$PUCSORGBOTTOM
 10
0.0
 20
0.0
 30
0.0
  9
$PUCSORGLEFT
 10
0.0
 20
0.0
 30
0.0
  9
$PUCSORGRIGHT
 10
0.0
 20
0.0
 30
0.0
  9
$PUCSORGFRONT
 10
0.0
 20
0.0
 30
0.0
  9
$PUCSORGBACK
 10
0.0
 20
0.0
 30
0.0
  9
$USERI1
 70
     0
  9
$USERI2
 70
     0
  9
$USERI3
 70
     0
  9
$USERI4
 70
     0
  9
$USERI5
 70
     0
  9
$USERR1
 40
0.0
  9
$USERR2
 40
0.0
  9
$USERR3
 40
0.0
  9
$USERR4
 40
0.0
  9
$USERR5
 40
0.0
  9
$WORLDVIEW
 70
     1
  9
$SHADEDGE
 70
     3
  9
$SHADEDIF
 70
    70
  9
$TILEMODE
 70
     1
  9
$MAXACTVP
 70
    64
  9
$PINSBASE
 10
0.0
 20
0.0
 30
0.0
  9
$PLIMCHECK
 70
     0
  9
$PEXTMIN
 10
1.000000000000000E+20
 20
1.000000000000000E+20
 30
1.000000000000000E+20
  9
$PEXTMAX
 10
-1.000000000000000E+20
 20
-1.000000000000000E+20
 30
-1.000000000000000E+20
  9
$PLIMMIN
 10
0.0
 20
0.0
  9
$PLIMMAX
 10
12.0
 20
9.0
  9
$UNITMODE
 70
     0
  9
$VISRETAIN
 70
     1
  9
$PLINEGEN
 70
     0
  9
$PSLTSCALE
 70
     1
  9
$TREEDEPTH
 70
  3020
  9
$CMLSTYLE
  2
Standard
  9
$CMLJUST
 70
     0
  9
$CMLSCALE
 40
1.0
  9
$PROXYGRAPHICS
 70
     1
  9
$MEASUREMENT
 70
     0
  9
$CELWEIGHT
370
    -1
  9
$ENDCAPS
280
     0
  9
$JOINSTYLE
280
     0
  9
$LWDISPLAY
290
     1
  9
$INSUNITS
 70
     4
  9
$HYPERLINKBASE
  1

  9
$STYLESHEET
  1

  9
$XEDIT
290
     1
  9
$CEPSNTYPE
380
     0
  9
$PSTYLEMODE
290
     1
  9
$FINGERPRINTGUID
  2
{EAD5123B-AD6A-534F-AECD-F40869C3E407}
  9
$VERSIONGUID
  2
{EF40ECEA-50D2-524B-883E-8CAB7EA200B8}
  9
$EXTNAMES
290
     1
  9
$PSVPSCALE
 40
0.0
  9
$OLESTARTUP
290
     0
  9
$SORTENTS
280
   127
  9
$INDEXCTL
280
     0
  9
$HIDETEXT
280
     1
  9
$XCLIPFRAME
280
     2
  9
$HALOGAP
280
     0
  9
$OBSCOLOR
 70
   257
  9
$OBSLTYPE
280
     0
  9
$INTERSECTIONDISPLAY
280
     0
  9
$INTERSECTIONCOLOR
 70
   257
  9
$DIMASSOC
280
     2
  9
$PROJECTNAME
  1

  9
$CAMERADISPLAY
290
     0
  9
$LENSLENGTH
 40
50.0
  9
$CAMERAHEIGHT
 40
0.0
  9
$STEPSPERSEC
 40
2.0
  9
$STEPSIZE
 40
6.0
  9
$3DDWFPREC
 40
2.0
  9
$PSOLWIDTH
 40
0.25
  9
$PSOLHEIGHT
 40
4.0
  9
$LOFTANG1
 40
1.570796326794896
  9
$LOFTANG2
 40
1.570796326794896
  9
$LOFTMAG1
 40
0.0
  9
$LOFTMAG2
 40
0.0
  9
$LOFTPARAM
 70
     7
  9
$LOFTNORMALS
280
     1
  9
$LATITUDE
 40
37.795
  9
$LONGITUDE
 40
-122.394
  9
$NORTHDIRECTION
 40
0.0
  9
$TIMEZONE
 70
 -8000
  9
$LIGHTGLYPHDISPLAY
280
     1
  9
$TILEMODELIGHTSYNCH
280
     1
  9
$CMATERIAL
347
11
  9
$SOLIDHIST
280
     0
  9
$SHOWHIST
280
     1
  9
$DWFFRAME
280
     2
  9
$DGNFRAME
280
     0
  9
$REALWORLDSCALE
290
     1
  9
$INTERFERECOLOR
 62
     1
  9
$INTERFEREOBJVS
345
33
  9
$INTERFEREVPVS
346
30
  9
$CSHADOW
280
     0
  9
$SHADOWPLANELOCATION
 40
0.0
  0
ENDSEC
  0
SECTION
  2
CLASSES
  0
CLASS
  1
ACDBDICTIONARYWDFLT
  2
AcDbDictionaryWithDefault
  3
ObjectDBX Classes
 90
        0
 91
        1
280
     0
281
     0
  0
CLASS
  1
MATERIAL
  2
AcDbMaterial
  3
ObjectDBX Classes
 90
     1153
 91
        3
280
     0
281
     0
  0
CLASS
  1
VISUALSTYLE
  2
AcDbVisualStyle
  3
ObjectDBX Classes
 90
     4095
 91
       24
280
     0
281
     0
  0
CLASS
  1
SCALE
  2
AcDbScale
  3
ObjectDBX Classes
 90
     1153
 91
       17
280
     0
281
     0
  0
CLASS
  1
TABLESTYLE
  2
AcDbTableStyle
  3
ObjectDBX Classes
 90
     4095
 91
        1
280
     0
281
     0
  0
CLASS
  1
MLEADERSTYLE
  2
AcDbMLeaderStyle
  3
ACDB_MLEADERSTYLE_CLASS
 90
     4095
 91
        1
280
     0
281
     0
  0
CLASS
  1
ACDBSECTIONVIEWSTYLE
  2
AcDbSectionViewStyle
  3
ObjectDBX Classes
 90
     1025
 91
        1
280
     0
281
     0
  0
CLASS
  1
ACDBDETAILVIEWSTYLE
  2
AcDbDetailViewStyle
  3
ObjectDBX Classes
 90
     1025
 91
        1
280
     0
281
     0
  0
CLASS
  1
DICTIONARYVAR
  2
AcDbDictionaryVar
  3
ObjectDBX Classes
 90
        0
 91
        5
280
     0
281
     0
  0
CLASS
  1
CELLSTYLEMAP
  2
AcDbCellStyleMap
  3
ObjectDBX Classes
 90
     1152
 91
        1
280
     0
281
     0
  0
ENDSEC
  0
SECTION
  2
TABLES
  0
TABLE
  2
VPORT
  5
8
330
0
100
AcDbSymbolTable
 70
     1
  0
VPORT
  5
57
330
8
100
AcDbSymbolTableRecord
100
AcDbViewportTableRecord
  2
*Active
 70
     0
 10
0.0
 20
0.0
 11
1.0
 21
1.0
 12
0.0
 22
0.0
 13
0.0
 23
0.0
 14
1.0
 24
1.0
 15
0.0
 25
0.0
 16
0.0
 26
0.0
 36
1.0
 17
210.0001270975655
 27
148.5000011496697
 37
0.0
 40
302.940178045196
 41
1.414141676452652
 42
50.0
 43
0.0
 44
0.0
 50
0.0
 51
0.0
 71
     0
 72
   100
 73
     1
 74
     1
 75
     0
 76
     0
 77
     0
 78
     0
281
     0
 65
     1
110
0.0
120
0.0
130
0.0
111
1.0
121
0.0
131
0.0
112
0.0
122
1.0
132
0.0
 79
     0
146
0.0
 60
     3
 61
     5
292
     1
282
     1
141
0.0
142
0.0
 63
   250
421
  3355443
  0
ENDTAB
  0
TABLE
  2
LTYPE
  5
5
330
0
100
AcDbSymbolTable
 70
    12
  0
LTYPE
  5
5B
330
5
100
AcDbSymbolTableRecord
100
AcDbLinetypeTableRecord
  2
ByBlock
 70
     0
  3

 72
    65
 73
     0
 40
0.0
  0
LTYPE
  5
5C
330
5
100
AcDbSymbolTableRecord
100
AcDbLinetypeTableRecord
  2
ByLayer
 70
     0
  3

 72
    65
 73
     0
 40
0.0
  0
LTYPE
  5
5D
330
5
100
AcDbSymbolTableRecord
100
AcDbLinetypeTableRecord
  2
Continuous
 70
     0
  3
Solid line
 72
    65
 73
     0
 40
0.0
  0
LTYPE
  5
88
330
5
100
AcDbSymbolTableRecord
100
AcDbLinetypeTableRecord
  2
AI-Linetype-0
 70
     0
  3
Adobe Illustrator Linetype No. 0
 72
    65
 73
     2
 40
1.403349973407224
 49
0.7016749867036122
 74
     0
 49
-0.7016749867036122
 74
     0
  0
LTYPE
  5
8A
330
5
100
AcDbSymbolTableRecord
100
AcDbLinetypeTableRecord
  2
AI-Linetype-1
 70
     0
  3
Adobe Illustrator Linetype No. 1
 72
    65
 73
     4
 40
7.367763925736984
 49
5.262738965626149
 74
     0
 49
-0.7016749867036122
 74
     0
 49
0.7016749867036122
 74
     0
 49
-0.7016749867036122
 74
     0
  0
LTYPE
  5
91
330
5
100
AcDbSymbolTableRecord
100
AcDbLinetypeTableRecord
  2
AI-Linetype-2
 70
     0
  3
Adobe Illustrator Linetype No. 2
 72
    65
 73
     4
 40
7.408333331481251
 49
5.29166666534375
 74
     0
 49
-0.7055555553791667
 74
     0
 49
0.7055555553791667
 74
     0
 49
-0.7055555553791667
 74
     0
  0
LTYPE
  5
95
330
5
100
AcDbSymbolTableRecord
100
AcDbLinetypeTableRecord
  2
AI-Linetype-3
 70
     0
  3
Adobe Illustrator Linetype No. 3
 72
    65
 73
     2
 40
1.40970001781507
 49
0.7048500089075354
 74
     0
 49
-0.7048500089075354
 74
     0
  0
LTYPE
  5
97
330
5
100
AcDbSymbolTableRecord
100
AcDbLinetypeTableRecord
  2
AI-Linetype-4
 70
     0
  3
Adobe Illustrator Linetype No. 4
 72
    65
 73
     4
 40
2.819400035630141
 49
0.7048500089075354
 74
     0
 49
-0.7048500089075354
 74
     0
 49
0.7048500089075354
 74
     0
 49
-0.7048500089075354
 74
     0
  0
LTYPE
  5
A0
330
5
100
AcDbSymbolTableRecord
100
AcDbLinetypeTableRecord
  2
AI-Linetype-5
 70
     0
  3
Adobe Illustrator Linetype No. 5
 72
    65
 73
     2
 40
1.40970001781507
 49
0.7048500089075354
 74
     0
 49
-0.7048500089075354
 74
     0
  0
LTYPE
  5
A2
330
5
100
AcDbSymbolTableRecord
100
AcDbLinetypeTableRecord
  2
AI-Linetype-6
 70
     0
  3
Adobe Illustrator Linetype No. 6
 72
    65
 73
     4
 40
2.819400035630141
 49
0.7048500089075354
 74
     0
 49
-0.7048500089075354
 74
     0
 49
0.7048500089075354
 74
     0
 49
-0.7048500089075354
 74
     0
  0
LTYPE
  5
B1
330
5
100
AcDbSymbolTableRecord
100
AcDbLinetypeTableRecord
  2
AI-Linetype-7
 70
     0
  3
Adobe Illustrator Linetype No. 7
 72
    65
 73
     2
 40
1.411111110758333
 49
0.7055555553791667
 74
     0
 49
-0.7055555553791667
 74
     0
  0
LTYPE
  5
B3
330
5
100
AcDbSymbolTableRecord
100
AcDbLinetypeTableRecord
  2
AI-Linetype-8
 70
     0
  3
Adobe Illustrator Linetype No. 8
 72
    65
 73
     2
 40
1.406877747819769
 49
0.7034388739098846
 74
     0
 49
-0.7034388739098846
 74
     0
  0
LTYPE
  5
B7
330
5
100
AcDbSymbolTableRecord
100
AcDbLinetypeTableRecord
  2
AI-Linetype-9
 70
     0
  3
Adobe Illustrator Linetype No. 9
 72
    65
 73
     2
 40
1.411111110758333
 49
0.7055555553791667
 74
     0
 49
-0.7055555553791667
 74
     0
  0
LTYPE
  5
B9
330
5
100
AcDbSymbolTableRecord
100
AcDbLinetypeTableRecord
  2
AI-Linetype-10
 70
     0
  3
Adobe Illustrator Linetype No. 10
 72
    65
 73
     2
 40
1.411111110758333
 49
0.7055555553791667
 74
     0
 49
-0.7055555553791667
 74
     0
  0
ENDTAB
  0
TABLE
  2
LAYER
  5
2
330
0
100
AcDbSymbolTable
 70
     2
  0
LAYER
  5
54
330
2
100
AcDbSymbolTableRecord
100
AcDbLayerTableRecord
  2
0
 70
     0
 62
     7
  6
Continuous
370
    -3
390
F
347
21
  0
LAYER
  5
78
330
2
100
AcDbSymbolTableRecord
100
AcDbLayerTableRecord
  2
レイヤー 1
 70
     0
 62
     7
  6
Continuous
370
     0
390
F
347
21
  0
ENDTAB
  0
TABLE
  2
STYLE
  5
3
330
0
100
AcDbSymbolTable
 70
     2
  0
STYLE
  5
55
330
3
100
AcDbSymbolTableRecord
100
AcDbTextStyleTableRecord
  2
Standard
 70
     0
 40
0.0
 41
1.0
 50
0.0
 71
     0
 42
0.2
  3
txt
  4

  0
STYLE
  5
5A
330
3
100
AcDbSymbolTableRecord
100
AcDbTextStyleTableRecord
  2
Annotative
 70
     0
 40
0.0
 41
1.0
 50
0.0
 71
     0
 42
0.2
  3
txt
  4

1001
AcadAnnotative
1000
AnnotativeData
1002
{
1070
     1
1070
     1
1002
}
  0
ENDTAB
  0
TABLE
  2
VIEW
  5
6
330
0
100
AcDbSymbolTable
 70
     0
  0
ENDTAB
  0
TABLE
  2
UCS
  5
7
330
0
100
AcDbSymbolTable
 70
     0
  0
ENDTAB
  0
TABLE
  2
APPID
  5
9
330
0
100
AcDbSymbolTable
 70
     2
  0
APPID
  5
56
330
9
100
AcDbSymbolTableRecord
100
AcDbRegAppTableRecord
  2
ACAD
 70
     0
  0
APPID
  5
5E
330
9
100
AcDbSymbolTableRecord
100
AcDbRegAppTableRecord
  2
AcadAnnotative
 70
     0
  0
ENDTAB
  0
TABLE
  2
DIMSTYLE
  5
A
330
0
100
AcDbSymbolTable
 70
     2
100
AcDbDimStyleTable
 71
     0
  0
DIMSTYLE
105
58
330
A
100
AcDbSymbolTableRecord
100
AcDbDimStyleTableRecord
  2
Standard
 70
     0
340
55
  0
DIMSTYLE
105
59
330
A
100
AcDbSymbolTableRecord
100
AcDbDimStyleTableRecord
  2
Annotative
 70
     0
340
55
1001
AcadAnnotative
1000
AnnotativeData
1002
{
1070
     1
1070
     1
1002
}
  0
ENDTAB
  0
TABLE
  2
BLOCK_RECORD
  5
1
330
0
100
AcDbSymbolTable
 70
    10
  0
BLOCK_RECORD
  5
70
330
1
100
AcDbSymbolTableRecord
100
AcDbBlockTableRecord
  2
*Model_Space
340
73
 70
     0
280
     1
281
     0
  0
BLOCK_RECORD
  5
6C
330
1
100
AcDbSymbolTableRecord
100
AcDbBlockTableRecord
  2
*Paper_Space
340
6F
 70
     0
280
     1
281
     0
  0
BLOCK_RECORD
  5
74
330
1
100
AcDbSymbolTableRecord
100
AcDbBlockTableRecord
  2
*Paper_Space0
340
77
 70
     0
280
     1
281
     0
  0
BLOCK_RECORD
  5
79
330
1
100
AcDbSymbolTableRecord
100
AcDbBlockTableRecord
  2
Block_0
340
0
102
{BLKREFS
331
7A
102
}
 70
     0
280
     1
281
     0
  0
BLOCK_RECORD
  5
8B
330
1
100
AcDbSymbolTableRecord
100
AcDbBlockTableRecord
  2
Block_1
340
0
102
{BLKREFS
331
8C
102
}
 70
     0
280
     1
281
     0
  0
BLOCK_RECORD
  5
98
330
1
100
AcDbSymbolTableRecord
100
AcDbBlockTableRecord
  2
Block_2
340
0
102
{BLKREFS
331
99
102
}
 70
     0
280
     1
281
     0
  0
BLOCK_RECORD
  5
A3
330
1
100
AcDbSymbolTableRecord
100
AcDbBlockTableRecord
  2
Block_3
340
0
102
{BLKREFS
331
A4
102
}
 70
     0
280
     1
281
     0
  0
BLOCK_RECORD
  5
AC
330
1
100
AcDbSymbolTableRecord
100
AcDbBlockTableRecord
  2
Block_4
340
0
102
{BLKREFS
331
AD
102
}
 70
     0
280
     1
281
     0
  0
BLOCK_RECORD
  5
C3
330
1
100
AcDbSymbolTableRecord
100
AcDbBlockTableRecord
  2
Block_5
340
0
102
{BLKREFS
331
C4
102
}
 70
     0
280
     1
281
     0
  0
BLOCK_RECORD
  5
D4
330
1
100
AcDbSymbolTableRecord
100
AcDbBlockTableRecord
  2
Block_6
340
0
102
{BLKREFS
331
D5
102
}
 70
     0
280
     1
281
     0
  0
BLOCK_RECORD
  5
EC
330
1
100
AcDbSymbolTableRecord
100
AcDbBlockTableRecord
  2
Block_7
340
0
102
{BLKREFS
331
ED
102
}
 70
     0
280
     1
281
     0
  0
BLOCK_RECORD
  5
F7
330
1
100
AcDbSymbolTableRecord
100
AcDbBlockTableRecord
  2
Block_8
340
0
102
{BLKREFS
331
F8
102
}
 70
     0
280
     1
281
     0
  0
ENDTAB
  0
ENDSEC
  0
SECTION
  2
BLOCKS
  0
BLOCK
  5
71
330
70
100
AcDbEntity
  8
0
100
AcDbBlockBegin
  2
*Model_Space
 70
     0
 10
0.0
 20
0.0
 30
0.0
  3
*Model_Space
  1

  0
ENDBLK
  5
72
330
70
100
AcDbEntity
  8
0
100
AcDbBlockEnd
  0
BLOCK
  5
6D
330
6C
100
AcDbEntity
 67
     1
  8
0
100
AcDbBlockBegin
  2
*Paper_Space
 70
     0
 10
0.0
 20
0.0
 30
0.0
  3
*Paper_Space
  1

  0
ENDBLK
  5
6E
330
6C
100
AcDbEntity
 67
     1
  8
0
100
AcDbBlockEnd
  0
BLOCK
  5
75
330
74
100
AcDbEntity
 67
     1
  8
0
100
AcDbBlockBegin
  2
*Paper_Space0
 70
     0
 10
0.0
 20
0.0
 30
0.0
  3
*Paper_Space0
  1

  0
ENDBLK
  5
76
330
74
100
AcDbEntity
 67
     1
  8
0
100
AcDbBlockEnd
  0
BLOCK
  5
7B
330
79
100
AcDbEntity
  8
0
100
AcDbBlockBegin
  2
Block_0
 70
     0
 10
0.0
 20
0.0
 30
0.0
  3
Block_0
  1

  0
SPLINE
  5
7D
330
79
100
AcDbEntity
  8
レイヤー 1
 62
   140
370
    18
100
AcDbSpline
210
0.0
220
0.0
230
1.0
 70
    11
 71
     3
 72
    74
 73
    70
 74
     0
 42
0.0000000001
 43
0.0000000001
 40
0.0
 40
0.0
 40
0.0
 40
0.0
 40
1.0
 40
1.0
 40
1.0
 40
2.0
 40
2.0
 40
2.0
 40
3.0
 40
3.0
 40
3.0
 40
4.0
 40
4.0
 40
4.0
 40
5.0
 40
5.0
 40
5.0
 40
6.0
 40
6.0
 40
6.0
 40
7.0
 40
7.0
 40
7.0
 40
8.0
 40
8.0
 40
8.0
 40
9.0
 40
9.0
 40
9.0
 40
10.0
 40
10.0
 40
10.0
 40
11.0
 40
11.0
 40
11.0
 40
12.0
 40
12.0
 40
12.0
 40
13.0
 40
13.0
 40
13.0
 40
14.0
 40
14.0
 40
14.0
 40
15.0
 40
15.0
 40
15.0
 40
16.0
 40
16.0
 40
16.0
 40
17.0
 40
17.0
 40
17.0
 40
18.0
 40
18.0
 40
18.0
 40
19.0
 40
19.0
 40
19.0
 40
20.0
 40
20.0
 40
20.0
 40
21.0
 40
21.0
 40
21.0
 40
22.0
 40
22.0
 40
22.0
 40
23.0
 40
23.0
 40
23.0
 40
23.0
 10
178.8233332716733
 20
164.8483680312977
 30
0.0
 10
178.8233332716733
 20
164.8483680312977
 30
0.0
 10
216.3387759197652
 20
164.8483680312977
 30
0.0
 10
216.3387759197652
 20
164.8483680312977
 30
0.0
 10
217.4704897866697
 20
164.8483680312977
 30
0.0
 10
218.5679680171896
 20
164.9023376052588
 30
0.0
 10
219.6943850497856
 20
165.013108191033
 30
0.0
 10
220.9047762848346
 20
165.1302306716081
 30
0.0
 10
222.0752905396418
 20
165.3154368517104
 30
0.0
 10
223.2687362112727
 20
165.5786098490133
 30
0.0
 10
224.3761190913127
 20
165.8216721014211
 30
0.0
 10
225.4347969339299
 20
166.1261216490067
 30
0.0
 10
226.5019367923329
 20
166.5088825233413
 30
0.0
 10
227.4925524672696
 20
166.8620155765028
 30
0.0
 10
228.4326974933476
 20
167.2708838150616
 30
0.0
 10
229.371098439836
 20
167.7570190858005
 30
0.0
 10
230.4004929708287
 20
168.2875960882992
 30
0.0
 10
231.3558179488885
 20
168.8848464543608
 30
0.0
 10
232.2875009591808
 20
169.5808741675386
 30
0.0
 10
234.2443582584962
 20
171.0367930514519
 30
0.0
 10
235.8847835374915
 20
172.8341962594173
 30
0.0
 10
237.1586506568561
 20
174.919814002494
 30
0.0
 10
237.7146460044819
 20
175.8338624302711
 30
0.0
 10
238.1778390924738
 20
176.7546180283211
 30
0.0
 10
238.578934334344
 20
177.7392155520821
 30
0.0
 10
239.0001618529561
 20
178.77884847622
 30
0.0
 10
239.3303527233705
 20
179.811085210988
 30
0.0
 10
239.5892947127806
 20
180.8986910897579
 30
0.0
 10
239.825305285367
 20
181.894237557608
 30
0.0
 10
239.994631728467
 20
182.8693072391676
 30
0.0
 10
240.1075232011494
 20
183.881777738589
 30
0.0
 10
240.2236013871555
 20
184.9394005207139
 30
0.0
 10
240.2800363575732
 20
185.9666849307219
 30
0.0
 10
240.2800363575732
 20
187.0257288147344
 30
0.0
 10
240.2800363575732
 20
187.3989618468677
 30
0.0
 10
240.2733399532237
 20
187.7549263378811
 30
0.0
 10
240.2585260426372
 20
188.1278148604659
 30
0.0
 10
240.221469734324
 20
189.1942656997717
 30
0.0
 10
240.1219926021874
 20
190.2363640203662
 30
0.0
 10
239.9551207896206
 20
191.3028148596721
 30
0.0
 10
239.8034289290357
 20
192.2821263150479
 30
0.0
 10
239.5959911171301
 20
193.2236924430135
 30
0.0
 10
239.3208356470925
 20
194.1768857682418
 30
0.0
 10
239.0213276583436
 20
195.2257020250325
 30
0.0
 10
238.6498602376466
 20
196.2219375119797
 30
0.0
 10
238.1873561687518
 20
197.2171394702812
 30
0.0
 10
237.0433045536407
 20
199.6915147070216
 30
0.0
 10
235.4124178827702
 20
201.8526231049188
 30
0.0
 10
233.3423030693771
 20
203.6355676777695
 30
0.0
 10
232.4716628447141
 20
204.3816892324875
 30
0.0
 10
231.575959550396
 20
205.0286996964642
 30
0.0
 10
230.5994687669487
 20
205.6174665148934
 30
0.0
 10
229.6423781774527
 20
206.1928620564704
 30
0.0
 10
228.6789356931558
 20
206.6796971122298
 30
0.0
 10
227.6516512831479
 20
207.10796554474
 30
0.0
 10
226.6282426055608
 20
207.5323582448292
 30
0.0
 10
225.6150615551956
 20
207.8784180863225
 30
0.0
 10
224.5496657763821
 20
208.1676984478496
 30
0.0
 10
223.4024489797939
 20
208.4778001052157
 30
0.0
 10
222.2756659058026
 20
208.7099349453811
 30
0.0
 10
221.101620428123
 20
208.8782063279888
 30
0.0
 10
219.5155415304076
 20
209.103623231958
 30
0.0
 10
217.9693180810871
 20
209.2129834817679
 30
0.0
 10
216.3708799033183
 20
209.2129834817679
 30
0.0
 10
216.3708799033183
 20
209.2129834817679
 30
0.0
 10
178.8233332716733
 20
209.2126389722194
 30
0.0
 10
178.8233332716733
 20
209.2126389722194
 30
0.0
 10
178.8233332716733
 20
209.2126389722194
 30
0.0
 10
178.8233332716733
 20
164.8483680312977
 30
0.0
 10
178.8233332716733
 20
164.8483680312977
 30
0.0
  0
SPLINE
  5
7E
330
79
100
AcDbEntity
  8
レイヤー 1
 62
   140
370
    18
100
AcDbSpline
210
0.0
220
0.0
230
1.0
 70
     9
 71
     3
 72
    92
 73
    88
 74
     0
 42
0.0000000001
 43
0.0000000001
 40
0.0
 40
0.0
 40
0.0
 40
0.0
 40
1.0
 40
1.0
 40
1.0
 40
2.0
 40
2.0
 40
2.0
 40
3.0
 40
3.0
 40
3.0
 40
4.0
 40
4.0
 40
4.0
 40
5.0
 40
5.0
 40
5.0
 40
6.0
 40
6.0
 40
6.0
 40
7.0
 40
7.0
 40
7.0
 40
8.0
 40
8.0
 40
8.0
 40
9.0
 40
9.0
 40
9.0
 40
10.0
 40
10.0
 40
10.0
 40
11.0
 40
11.0
 40
11.0
 40
12.0
 40
12.0
 40
12.0
 40
13.0
 40
13.0
 40
13.0
 40
14.0
 40
14.0
 40
14.0
 40
15.0
 40
15.0
 40
15.0
 40
16.0
 40
16.0
 40
16.0
 40
17.0
 40
17.0
 40
17.0
 40
18.0
 40
18.0
 40
18.0
 40
19.0
 40
19.0
 40
19.0
 40
20.0
 40
20.0
 40
20.0
 40
21.0
 40
21.0
 40
21.0
 40
22.0
 40
22.0
 40
22.0
 40
23.0
 40
23.0
 40
23.0
 40
24.0
 40
24.0
 40
24.0
 40
25.0
 40
25.0
 40
25.0
 40
26.0
 40
26.0
 40
26.0
 40
27.0
 40
27.0
 40
27.0
 40
28.0
 40
28.0
 40
28.0
 40
29.0
 40
29.0
 40
29.0
 40
29.0
 10
138.6045457281527
 20
35.5997650057485
 30
0.0
 10
130.0204013075556
 20
35.5997650057485
 30
0.0
 10
123.0375265025793
 20
42.5829950861967
 30
0.0
 10
123.0375265025793
 20
51.16608444630136
 30
0.0
 10
123.0375265025793
 20
51.16608444630136
 30
0.0
 10
123.0375265025793
 20
245.832733601465
 30
0.0
 10
123.0375265025793
 20
245.832733601465
 30
0.0
 10
123.0375265025793
 20
254.4172225316105
 30
0.0
 10
130.0204013075556
 20
261.4001081025102
 30
0.0
 10
138.6034906676603
 20
261.4001081025102
 30
0.0
 10
138.6034906676603
 20
261.4001081025102
 30
0.0
 10
220.2634286965618
 20
261.4001081025102
 30
0.0
 10
220.2634286965618
 20
261.4001081025102
 30
0.0
 10
223.0524918740329
 20
261.4001081025102
 30
0.0
 10
225.7597125018826
 20
261.2851065088432
 30
0.0
 10
228.5388925616804
 20
261.0487514267083
 30
0.0
 10
231.5082203604172
 20
260.7979269435353
 30
0.0
 10
234.3738292532012
 20
260.4116240804049
 30
0.0
 10
237.3011914825584
 20
259.8669329523402
 30
0.0
 10
240.2962713700475
 20
259.3120141970536
 30
0.0
 10
243.1682321576325
 20
258.6128105364753
 30
0.0
 10
246.0821800464439
 20
257.729811031759
 30
0.0
 10
249.0522183961246
 20
256.8319976164561
 30
0.0
 10
251.8740745762459
 20
255.7874231334816
 30
0.0
 10
254.711821259293
 20
254.5368104086423
 30
0.0
 10
258.0117059698395
 20
253.0847887889966
 30
0.0
 10
261.0946357922025
 20
251.4429639399605
 30
0.0
 10
264.1391097362113
 20
249.5167895223105
 30
0.0
 10
270.9078610908559
 20
245.2393589678243
 30
0.0
 10
276.5946371446643
 20
240.0944533701522
 30
0.0
 10
281.5254085260813
 20
233.787840043007
 30
0.0
 10
284.1021030987336
 20
230.4865557624196
 30
0.0
 10
286.3051985978573
 20
227.0794209230479
 30
0.0
 10
288.2588691838489
 20
223.3741991968149
 30
0.0
 10
290.0665107849595
 20
219.9398911668032
 30
0.0
 10
291.5531125505384
 20
216.4812736817738
 30
0.0
 10
292.8019381320947
 20
212.803203614334
 30
0.0
 10
294.0687643375614
 20
209.0630572326192
 30
0.0
 10
295.0195030322564
 20
205.3539597739653
 30
0.0
 10
295.707768514669
 20
201.4652867131428
 30
0.0
 10
296.4344898754356
 20
197.3469549745348
 30
0.0
 10
296.8363172000965
 20
193.3108318269436
 30
0.0
 10
296.9372154341207
 20
189.1275815702854
 30
0.0
 10
296.9544839752406
 20
188.4153296105568
 30
0.0
 10
296.9626014814777
 20
187.7542157869373
 30
0.0
 10
296.9626014814777
 20
187.0458395596296
 30
0.0
 10
296.9626014814777
 20
184.2818179199668
 30
0.0
 10
296.8310203657879
 20
181.5993158522238
 30
0.0
 10
296.5600851377198
 20
178.8458771152549
 30
0.0
 10
296.1738038064362
 20
174.9035897559431
 30
0.0
 10
295.5165657152376
 20
171.1221668239458
 30
0.0
 10
294.5506686004075
 20
167.2835876046635
 30
0.0
 10
293.6048606986257
 20
163.5155682472884
 30
0.0
 10
292.4093049060101
 20
159.946158644638
 30
0.0
 10
290.8951854402428
 20
156.3689975771458
 30
0.0
 10
289.3242649626624
 20
152.6514273367829
 30
0.0
 10
287.5060512247815
 20
149.1913779839424
 30
0.0
 10
285.3368253206472
 20
145.7895399788792
 30
0.0
 10
280.8554881771277
 20
138.7576263928551
 30
0.0
 10
275.4456332047931
 20
132.8937508992581
 30
0.0
 10
268.7975247876726
 20
127.8624365592887
 30
0.0
 10
265.6489874281624
 20
125.4836519563407
 30
0.0
 10
262.4157868471022
 20
123.4375451521104
 30
0.0
 10
258.9151607289995
 20
121.6087485115357
 30
0.0
 10
255.9363158539847
 20
120.0554626164705
 30
0.0
 10
252.9504085332251
 20
118.7441946792441
 30
0.0
 10
249.7881123236207
 20
117.6008428491534
 30
0.0
 10
246.7898457228077
 20
116.5199226088095
 30
0.0
 10
243.8212284750147
 20
115.6443300593864
 30
0.0
 10
240.7146566848843
 20
114.9257262048569
 30
0.0
 10
237.4990906863392
 20
114.1841801675802
 30
0.0
 10
234.338560088171
 20
113.6419652018955
 30
0.0
 10
231.0541998391549
 20
113.2680216188184
 30
0.0
 10
227.4480892036632
 20
112.8602084407519
 30
0.0
 10
223.9284289330044
 20
112.6615986860273
 30
0.0
 10
220.296221699212
 20
112.6615986860273
 30
0.0
 10
220.296221699212
 20
112.6615986860273
 30
0.0
 10
178.8233332716733
 20
112.6615986860273
 30
0.0
 10
178.8233332716733
 20
112.6615986860273
 30
0.0
 10
178.8233332716733
 20
112.6615986860273
 30
0.0
 10
178.8233332716733
 20
51.16713950679372
 30
0.0
 10
178.8233332716733
 20
51.16713950679372
 30
0.0
 10
178.8233332716733
 20
42.5829950861967
 30
0.0
 10
171.8400924253017
 20
35.5997650057485
 30
0.0
 10
163.2566585556485
 20
35.5997650057485
 30
0.0
 10
163.2566585556485
 20
35.5997650057485
 30
0.0
 10
138.6045457281527
 20
35.5997650057485
 30
0.0
 10
138.6045457281527
 20
35.5997650057485
 30
0.0
  0
SPLINE
  5
7F
330
79
100
AcDbEntity
  8
レイヤー 1
 62
   140
370
    18
100
AcDbSpline
210
0.0
220
0.0
230
1.0
 70
     9
 71
     3
 72
    74
 73
    70
 74
     0
 42
0.0000000001
 43
0.0000000001
 40
0.0
 40
0.0
 40
0.0
 40
0.0
 40
1.0
 40
1.0
 40
1.0
 40
2.0
 40
2.0
 40
2.0
 40
3.0
 40
3.0
 40
3.0
 40
4.0
 40
4.0
 40
4.0
 40
5.0
 40
5.0
 40
5.0
 40
6.0
 40
6.0
 40
6.0
 40
7.0
 40
7.0
 40
7.0
 40
8.0
 40
8.0
 40
8.0
 40
9.0
 40
9.0
 40
9.0
 40
10.0
 40
10.0
 40
10.0
 40
11.0
 40
11.0
 40
11.0
 40
12.0
 40
12.0
 40
12.0
 40
13.0
 40
13.0
 40
13.0
 40
14.0
 40
14.0
 40
14.0
 40
15.0
 40
15.0
 40
15.0
 40
16.0
 40
16.0
 40
16.0
 40
17.0
 40
17.0
 40
17.0
 40
18.0
 40
18.0
 40
18.0
 40
19.0
 40
19.0
 40
19.0
 40
20.0
 40
20.0
 40
20.0
 40
21.0
 40
21.0
 40
21.0
 40
22.0
 40
22.0
 40
22.0
 40
23.0
 40
23.0
 40
23.0
 40
23.0
 10
216.338689792378
 20
170.9484155863319
 30
0.0
 10
217.2686071912341
 20
170.9484155863319
 30
0.0
 10
218.1710068899017
 20
170.9925128085431
 30
0.0
 10
219.0973930658854
 20
171.0838724344426
 30
0.0
 10
220.0714292187994
 20
171.1780634981939
 30
0.0
 10
221.0034567386402
 20
171.3255243508861
 30
0.0
 10
221.954905984279
 20
171.5357828347202
 30
0.0
 10
222.8132084607355
 20
171.7238204526745
 30
0.0
 10
223.6242485335037
 20
171.9569995874089
 30
0.0
 10
224.4430400711137
 20
172.2505109568288
 30
0.0
 10
225.1828097310307
 20
172.5147390146241
 30
0.0
 10
225.8739174172186
 20
172.8153128297888
 30
0.0
 10
226.5653480811082
 20
173.1733766758635
 30
0.0
 10
227.3040626805329
 20
173.5543827046854
 30
0.0
 10
227.9778802937542
 20
173.9755994573741
 30
0.0
 10
228.6365179549937
 20
174.4677205815187
 30
0.0
 10
229.9753035924085
 20
175.4636115589173
 30
0.0
 10
231.0879617749103
 20
176.6831645947723
 30
0.0
 10
231.952982187563
 20
178.0995725398392
 30
0.0
 10
232.3304569935125
 20
178.7201095981965
 30
0.0
 10
232.6518198067459
 20
179.3582812390688
 30
0.0
 10
232.9294729710102
 20
180.0398503171319
 30
0.0
 10
233.2296699788562
 20
180.7806750375414
 30
0.0
 10
233.4685012233712
 20
181.5271626336547
 30
0.0
 10
233.6554837808331
 20
182.3120845762753
 30
0.0
 10
233.8322171792264
 20
183.0582061309932
 30
0.0
 10
233.9599225624953
 20
183.7944660998847
 30
0.0
 10
234.0445857840453
 20
184.5564566256816
 30
0.0
 10
234.1352563908477
 20
185.3819660994878
 30
0.0
 10
234.1800641640027
 20
186.1926401308607
 30
0.0
 10
234.1800641640027
 20
187.0255565599602
 30
0.0
 10
234.1800641640027
 20
187.316947042472
 30
0.0
 10
234.1751333710895
 20
187.594923184438
 30
0.0
 10
234.16348464198
 20
187.8859691574013
 30
0.0
 10
234.1334907794115
 20
188.7368646785645
 30
0.0
 10
234.0572895736471
 20
189.5366220636184
 30
0.0
 10
233.9281846203374
 20
190.3603659259885
 30
0.0
 10
233.8152931476551
 20
191.0916735701199
 30
0.0
 10
233.6621801851826
 20
191.7841592945018
 30
0.0
 10
233.459694698037
 20
192.4868941779525
 30
0.0
 10
233.2441393798943
 20
193.2411332389076
 30
0.0
 10
232.9823767185556
 20
193.9431575714144
 30
0.0
 10
232.6553510296183
 20
194.6469690472041
 30
0.0
 10
231.8739603098701
 20
196.3367668508724
 30
0.0
 10
230.7669434712254
 20
197.8029133620076
 30
0.0
 10
229.3614737043241
 20
199.0136491066051
 30
0.0
 10
228.7631682777702
 20
199.5262362511167
 30
0.0
 10
228.1341584377039
 20
199.9809673233229
 30
0.0
 10
227.4494241781637
 20
200.3937112943026
 30
0.0
 10
226.7590270429196
 20
200.8085653862671
 30
0.0
 10
226.0552370989767
 20
201.1645298772805
 30
0.0
 10
225.3045292608939
 20
201.4774522065751
 30
0.0
 10
224.5354762893523
 20
201.7963603892753
 30
0.0
 10
223.7625260535429
 20
202.0605776811472
 30
0.0
 10
222.9504309202824
 20
202.2810637922032
 30
0.0
 10
222.0536725654718
 20
202.5234262595905
 30
0.0
 10
221.1636106150108
 20
202.7068775941801
 30
0.0
 10
220.2358248689862
 20
202.8398798117575
 30
0.0
 10
218.9464117562443
 20
203.0233096145003
 30
0.0
 10
217.6795855507776
 20
203.1129251608103
 30
0.0
 10
216.3707722440844
 20
203.1129251608103
 30
0.0
 10
216.3707722440844
 20
203.1129251608103
 30
0.0
 10
184.9231224445461
 20
203.1129251608103
 30
0.0
 10
184.9231224445461
 20
203.1129251608103
 30
0.0
 10
184.9231224445461
 20
203.1129251608103
 30
0.0
 10
184.9231224445461
 20
170.9484155863319
 30
0.0
 10
184.9231224445461
 20
170.9484155863319
 30
0.0
 10
184.9231224445461
 20
170.9484155863319
 30
0.0
 10
216.338689792378
 20
170.9484155863319
 30
0.0
 10
216.338689792378
 20
170.9484155863319
 30
0.0
  0
SPLINE
  5
80
330
79
100
AcDbEntity
  8
レイヤー 1
 62
   140
370
    18
100
AcDbSpline
210
0.0
220
0.0
230
1.0
 70
     9
 71
     3
 72
    92
 73
    88
 74
     0
 42
0.0000000001
 43
0.0000000001
 40
0.0
 40
0.0
 40
0.0
 40
0.0
 40
1.0
 40
1.0
 40
1.0
 40
2.0
 40
2.0
 40
2.0
 40
3.0
 40
3.0
 40
3.0
 40
4.0
 40
4.0
 40
4.0
 40
5.0
 40
5.0
 40
5.0
 40
6.0
 40
6.0
 40
6.0
 40
7.0
 40
7.0
 40
7.0
 40
8.0
 40
8.0
 40
8.0
 40
9.0
 40
9.0
 40
9.0
 40
10.0
 40
10.0
 40
10.0
 40
11.0
 40
11.0
 40
11.0
 40
12.0
 40
12.0
 40
12.0
 40
13.0
 40
13.0
 40
13.0
 40
14.0
 40
14.0
 40
14.0
 40
15.0
 40
15.0
 40
15.0
 40
16.0
 40
16.0
 40
16.0
 40
17.0
 40
17.0
 40
17.0
 40
18.0
 40
18.0
 40
18.0
 40
19.0
 40
19.0
 40
19.0
 40
20.0
 40
20.0
 40
20.0
 40
21.0
 40
21.0
 40
21.0
 40
22.0
 40
22.0
 40
22.0
 40
23.0
 40
23.0
 40
23.0
 40
24.0
 40
24.0
 40
24.0
 40
25.0
 40
25.0
 40
25.0
 40
26.0
 40
26.0
 40
26.0
 40
27.0
 40
27.0
 40
27.0
 40
28.0
 40
28.0
 40
28.0
 40
29.0
 40
29.0
 40
29.0
 40
29.0
 10
138.6044596007655
 20
29.49969591886748
 30
0.0
 10
126.6572883289314
 20
29.49969591886748
 30
0.0
 10
116.9375543090089
 20
39.21942993878998
 30
0.0
 10
116.9375543090089
 20
51.16624593515223
 30
0.0
 10
116.9375543090089
 20
51.16624593515223
 30
0.0
 10
116.9375543090089
 20
245.8329058562393
 30
0.0
 10
116.9375543090089
 20
245.8329058562393
 30
0.0
 10
116.9375543090089
 20
257.78006636215
 30
0.0
 10
126.6569330534594
 20
267.5001664234679
 30
0.0
 10
138.6033937743498
 20
267.5001664234679
 30
0.0
 10
138.6033937743498
 20
267.5001664234679
 30
0.0
 10
220.2633425691746
 20
267.5001664234679
 30
0.0
 10
220.2633425691746
 20
267.5001664234679
 30
0.0
 10
223.2252634126182
 20
267.5001664234679
 30
0.0
 10
226.1014444421726
 20
267.3781023840561
 30
0.0
 10
229.0556138207743
 20
267.1269118594878
 30
0.0
 10
232.2249724761235
 20
266.8591633447435
 30
0.0
 10
235.2881360631398
 20
266.4460533323685
 30
0.0
 10
238.4165626777548
 20
265.8639829182888
 30
0.0
 10
241.6310736158075
 20
265.2684981636634
 30
0.0
 10
244.7185897215352
 20
264.5167137332415
 30
0.0
 10
247.8509136004179
 20
263.5677406499826
 30
0.0
 10
251.0541203189097
 20
262.5993673727724
 30
0.0
 10
254.1046016481709
 20
261.4708402191918
 30
0.0
 10
257.1720070090034
 20
260.1186402412312
 30
0.0
 10
260.7498678615161
 20
258.544533050327
 30
0.0
 10
264.0966704662024
 20
256.7619545188716
 30
0.0
 10
267.4004524410166
 20
254.6713844510349
 30
0.0
 10
274.7685642827076
 20
250.0154240301068
 30
0.0
 10
280.9615755862266
 20
244.4129666883
 30
0.0
 10
286.3308430273757
 20
237.5450827110673
 30
0.0
 10
289.136141217321
 20
233.9506423365319
 30
0.0
 10
291.5311500668199
 20
230.2471862217351
 30
0.0
 10
293.6545131373069
 20
226.2191590485342
 30
0.0
 10
295.6156122104385
 20
222.493826577406
 30
0.0
 10
297.2253330759215
 20
218.7480388518343
 30
0.0
 10
298.5778775634306
 20
214.7641089008446
 30
0.0
 10
299.9463125538654
 20
210.7241100208324
 30
0.0
 10
300.9718313524372
 20
206.7232560382715
 30
0.0
 10
301.7144216842828
 20
202.5287230938991
 30
0.0
 10
302.4954894263292
 20
198.1020553093612
 30
0.0
 10
302.9272890817118
 20
193.7678452749087
 30
0.0
 10
303.035228229634
 20
189.274148851336
 30
0.0
 10
303.0539394044883
 20
188.5213308922685
 30
0.0
 10
303.0624014202739
 20
187.812244114017
 30
0.0
 10
303.0624014202739
 20
187.0460118144039
 30
0.0
 10
303.0624014202739
 20
184.0802152385394
 30
0.0
 10
302.9212816964593
 20
181.2025915752506
 30
0.0
 10
302.6306017648914
 20
178.2487990039675
 30
0.0
 10
302.2150155901364
 20
174.0048720030754
 30
0.0
 10
301.507005404224
 20
169.93029297713
 30
0.0
 10
300.4663066536703
 20
165.7946819314788
 30
0.0
 10
299.4442975461242
 20
161.7239786379544
 30
0.0
 10
298.1506641914129
 20
157.8617682168279
 30
0.0
 10
296.5127150747976
 20
153.9910850139924
 30
0.0
 10
294.809868971979
 20
149.9616582707507
 30
0.0
 10
292.8364321506407
 20
146.2049323670132
 30
0.0
 10
290.4798791794959
 20
142.5099382680021
 30
0.0
 10
285.6034326475119
 20
134.8574768576973
 30
0.0
 10
279.7144940842597
 20
128.4750283661831
 30
0.0
 10
272.4786739092024
 20
122.9985000302855
 30
0.0
 10
269.0539044873156
 20
120.4105227699191
 30
0.0
 10
265.5423617228939
 20
118.1883823523159
 30
0.0
 10
261.7394284759606
 20
116.2018864659039
 30
0.0
 10
258.5125582578545
 20
114.5191403420571
 30
0.0
 10
255.2828673678199
 20
113.100966785554
 30
0.0
 10
251.8619952102008
 20
111.8644897181276
 30
0.0
 10
248.6284285877452
 20
110.6982064712132
 30
0.0
 10
245.4336838850391
 20
109.7562850677757
 30
0.0
 10
242.0900464618299
 20
108.9826458128693
 30
0.0
 10
238.6416350721756
 20
108.1874854771035
 30
0.0
 10
235.2588527515151
 20
107.6071591426132
 30
0.0
 10
231.7437787642212
 20
107.2071081953119
 30
0.0
 10
227.9030786580308
 20
106.7724878680009
 30
0.0
 10
224.159767094839
 20
106.5615295991463
 30
0.0
 10
220.2961355718248
 20
106.5615295991463
 30
0.0
 10
220.2961355718248
 20
106.5615295991463
 30
0.0
 10
184.9231224445461
 20
106.5615295991463
 30
0.0
 10
184.9231224445461
 20
106.5615295991463
 30
0.0
 10
184.9231224445461
 20
106.5615295991463
 30
0.0
 10
184.9231224445461
 20
51.16695648609606
 30
0.0
 10
184.9231224445461
 20
51.16695648609606
 30
0.0
 10
184.9231224445461
 20
39.2197852142619
 30
0.0
 10
175.2037437000955
 20
29.49969591886748
 30
0.0
 10
163.2565724282614
 20
29.49969591886748
 30
0.0
 10
163.2565724282614
 20
29.49969591886748
 30
0.0
 10
138.6044596007655
 20
29.49969591886748
 30
0.0
 10
138.6044596007655
 20
29.49969591886748
 30
0.0
  0
SPLINE
  5
81
330
79
100
AcDbEntity
  8
レイヤー 1
 62
     1
370
    18
100
AcDbSpline
210
0.0
220
0.0
230
1.0
 70
    11
 71
     3
 72
    74
 73
    70
 74
     0
 42
0.0000000001
 43
0.0000000001
 40
0.0
 40
0.0
 40
0.0
 40
0.0
 40
1.0
 40
1.0
 40
1.0
 40
2.0
 40
2.0
 40
2.0
 40
3.0
 40
3.0
 40
3.0
 40
4.0
 40
4.0
 40
4.0
 40
5.0
 40
5.0
 40
5.0
 40
6.0
 40
6.0
 40
6.0
 40
7.0
 40
7.0
 40
7.0
 40
8.0
 40
8.0
 40
8.0
 40
9.0
 40
9.0
 40
9.0
 40
10.0
 40
10.0
 40
10.0
 40
11.0
 40
11.0
 40
11.0
 40
12.0
 40
12.0
 40
12.0
 40
13.0
 40
13.0
 40
13.0
 40
14.0
 40
14.0
 40
14.0
 40
15.0
 40
15.0
 40
15.0
 40
16.0
 40
16.0
 40
16.0
 40
17.0
 40
17.0
 40
17.0
 40
18.0
 40
18.0
 40
18.0
 40
19.0
 40
19.0
 40
19.0
 40
20.0
 40
20.0
 40
20.0
 40
21.0
 40
21.0
 40
21.0
 40
22.0
 40
22.0
 40
22.0
 40
23.0
 40
23.0
 40
23.0
 40
23.0
 10
177.8232112863818
 20
163.8484183007805
 30
0.0
 10
177.8232112863818
 20
163.8484183007805
 30
0.0
 10
216.3387759197652
 20
163.8484183007805
 30
0.0
 10
216.3387759197652
 20
163.8484183007805
 30
0.0
 10
217.5036488307152
 20
163.8484183007805
 30
0.0
 10
218.6339415957322
 20
163.9037982107059
 30
0.0
 10
219.7931731628251
 20
164.0181000193524
 30
0.0
 10
221.0405991743405
 20
164.1387537227999
 30
0.0
 10
222.2513349189381
 20
164.3303117977032
 30
0.0
 10
223.4850020803592
 20
164.6023020862637
 30
0.0
 10
224.6318743673989
 20
164.854181629929
 30
0.0
 10
225.7318287602988
 20
165.1702691407007
 30
0.0
 10
226.8392116403388
 20
165.5671441406015
 30
0.0
 10
227.8717928846553
 20
165.9358016552934
 30
0.0
 10
228.8528699514674
 20
166.3623044763673
 30
0.0
 10
229.8307603049555
 20
166.8688950015499
 30
0.0
 10
230.9084938319756
 20
167.4248688173289
 30
0.0
 10
231.9107367041751
 20
168.0514024950151
 30
0.0
 10
232.8858063857347
 20
168.7795449576695
 30
0.0
 10
234.9435619190745
 20
170.3102439454595
 30
0.0
 10
236.6714710915483
 20
172.2036038286125
 30
0.0
 10
238.0123883817947
 20
174.3996476479148
 30
0.0
 10
238.5958798977621
 20
175.3577932979032
 30
0.0
 10
239.0820044025776
 20
176.3240456882052
 30
0.0
 10
239.5046314912306
 20
177.3608579404146
 30
0.0
 10
239.946658773835
 20
178.4516505325084
 30
0.0
 10
240.2906300261903
 20
179.5283289990361
 30
0.0
 10
240.561909763807
 20
180.664618383382
 30
0.0
 10
240.8092030241076
 20
181.7106139682442
 30
0.0
 10
240.9848813620086
 20
182.7230844676656
 30
0.0
 10
241.1013040575632
 20
183.7722452340048
 30
0.0
 10
241.2223130364826
 20
184.8746757892848
 30
0.0
 10
241.2801691087881
 20
185.9358297942821
 30
0.0
 10
241.2801691087881
 20
187.0255565599602
 30
0.0
 10
241.2801691087881
 20
187.4122039326391
 30
0.0
 10
241.2731066630433
 20
187.7805061718591
 30
0.0
 10
241.2575822015129
 20
188.1667875031428
 30
0.0
 10
241.2198368741026
 20
189.2618111031294
 30
0.0
 10
241.1164840095451
 20
190.3473176268381
 30
0.0
 10
240.9432603021774
 20
191.4564445864675
 30
0.0
 10
240.7862716072839
 20
192.4727908183097
 30
0.0
 10
240.5693167191003
 20
193.4563440475018
 30
0.0
 10
240.2818019690094
 20
194.4536345949413
 30
0.0
 10
239.9678245792224
 20
195.5514788668565
 30
0.0
 10
239.5780120250664
 20
196.5978189612672
 30
0.0
 10
239.0932870902918
 20
197.640283323257
 30
0.0
 10
237.8910348933267
 20
200.2402538222815
 30
0.0
 10
236.1740638990186
 20
202.5163853456925
 30
0.0
 10
233.9949548772109
 20
204.3931657068227
 30
0.0
 10
233.0773752265614
 20
205.179508751331
 30
0.0
 10
232.1396848310167
 20
205.8564915460294
 30
0.0
 10
231.1162761534297
 20
206.4738526569861
 30
0.0
 10
230.112267669794
 20
207.0770888764534
 30
0.0
 10
229.1075701670612
 20
207.5847452280517
 30
0.0
 10
228.0361885348421
 20
208.0309927526255
 30
0.0
 10
226.9690271445924
 20
208.4733860766252
 30
0.0
 10
225.9177562572684
 20
208.8325157491157
 30
0.0
 10
224.8117944791161
 20
209.1327342888084
 30
0.0
 10
223.6247007022861
 20
209.4537525924934
 30
0.0
 10
222.459827791336
 20
209.6936388975006
 30
0.0
 10
221.2441397219785
 20
209.8682621749092
 30
0.0
 10
219.6083222581947
 20
210.1003970150748
 30
0.0
 10
218.0172910357192
 20
210.2129439782085
 30
0.0
 10
216.3708799033183
 20
210.2129439782085
 30
0.0
 10
216.3708799033183
 20
210.2129439782085
 30
0.0
 10
177.8232112863818
 20
210.2129439782085
 30
0.0
 10
177.8232112863818
 20
210.2129439782085
 30
0.0
 10
177.8232112863818
 20
210.2129439782085
 30
0.0
 10
177.8232112863818
 20
163.8484183007805
 30
0.0
 10
177.8232112863818
 20
163.8484183007805
 30
0.0
  0
SPLINE
  5
82
330
79
100
AcDbEntity
  8
レイヤー 1
 62
     1
370
    18
100
AcDbSpline
210
0.0
220
0.0
230
1.0
 70
     9
 71
     3
 72
    92
 73
    88
 74
     0
 42
0.0000000001
 43
0.0000000001
 40
0.0
 40
0.0
 40
0.0
 40
0.0
 40
1.0
 40
1.0
 40
1.0
 40
2.0
 40
2.0
 40
2.0
 40
3.0
 40
3.0
 40
3.0
 40
4.0
 40
4.0
 40
4.0
 40
5.0
 40
5.0
 40
5.0
 40
6.0
 40
6.0
 40
6.0
 40
7.0
 40
7.0
 40
7.0
 40
8.0
 40
8.0
 40
8.0
 40
9.0
 40
9.0
 40
9.0
 40
10.0
 40
10.0
 40
10.0
 40
11.0
 40
11.0
 40
11.0
 40
12.0
 40
12.0
 40
12.0
 40
13.0
 40
13.0
 40
13.0
 40
14.0
 40
14.0
 40
14.0
 40
15.0
 40
15.0
 40
15.0
 40
16.0
 40
16.0
 40
16.0
 40
17.0
 40
17.0
 40
17.0
 40
18.0
 40
18.0
 40
18.0
 40
19.0
 40
19.0
 40
19.0
 40
20.0
 40
20.0
 40
20.0
 40
21.0
 40
21.0
 40
21.0
 40
22.0
 40
22.0
 40
22.0
 40
23.0
 40
23.0
 40
23.0
 40
24.0
 40
24.0
 40
24.0
 40
25.0
 40
25.0
 40
25.0
 40
26.0
 40
26.0
 40
26.0
 40
27.0
 40
27.0
 40
27.0
 40
28.0
 40
28.0
 40
28.0
 40
29.0
 40
29.0
 40
29.0
 40
29.0
 10
138.6045457281527
 20
36.59971473626566
 30
0.0
 10
130.5725101568371
 20
36.59971473626566
 30
0.0
 10
124.0376484878708
 20
43.13421036383667
 30
0.0
 10
124.0376484878708
 20
51.16625670107563
 30
0.0
 10
124.0376484878708
 20
51.16625670107563
 30
0.0
 10
124.0376484878708
 20
245.8329058562393
 30
0.0
 10
124.0376484878708
 20
245.8329058562393
 30
0.0
 10
124.0376484878708
 20
253.8652967030267
 30
0.0
 10
130.5721548813652
 20
260.3998030965211
 30
0.0
 10
138.6034906676603
 20
260.3998030965211
 30
0.0
 10
138.6034906676603
 20
260.3998030965211
 30
0.0
 10
220.2634286965618
 20
260.4001691379165
 30
0.0
 10
220.2634286965618
 20
260.4001691379165
 30
0.0
 10
223.0235530719568
 20
260.4001691379165
 30
0.0
 10
225.7025454486742
 20
260.2865671142903
 30
0.0
 10
228.453863298735
 20
260.0526666626887
 30
0.0
 10
231.3910871139187
 20
259.8043183418957
 30
0.0
 10
234.2239030040525
 20
259.421912743033
 30
0.0
 10
237.1180846575174
 20
258.8839180193176
 30
0.0
 10
240.0782398895247
 20
258.3350066492835
 30
0.0
 10
242.9142209611356
 20
257.6449755554347
 30
0.0
 10
245.7918446244244
 20
256.7728926970373
 30
0.0
 10
248.720950933371
 20
255.8874385617877
 30
0.0
 10
251.5054278274774
 20
254.8569674384559
 30
0.0
 10
254.3085943645913
 20
253.621879175147
 30
0.0
 10
257.5626162414904
 20
252.1899683003965
 30
0.0
 10
260.6017933511907
 20
250.5714193777326
 30
0.0
 10
263.6039356844245
 20
248.6717075997787
 30
0.0
 10
270.2753200279173
 20
244.4560088500189
 30
0.0
 10
275.8788539620633
 20
239.3869599485626
 30
0.0
 10
280.7376659115322
 20
233.1720722887122
 30
0.0
 10
283.2769596663227
 20
229.9183949213616
 30
0.0
 10
285.4486402009903
 20
226.5595990780172
 30
0.0
 10
287.3737595581479
 20
222.9079916502735
 30
0.0
 10
289.1567041309986
 20
219.5213335971922
 30
0.0
 10
290.6228506421338
 20
216.109978515851
 30
0.0
 10
291.8547521921188
 20
212.4816470144794
 30
0.0
 10
293.104977343716
 20
208.7908946892845
 30
0.0
 10
294.043722799753
 20
205.1290596343189
 30
0.0
 10
294.7231817568314
 20
201.2908356905084
 30
0.0
 10
295.4407305508686
 20
197.2229530689125
 30
0.0
 10
295.8379500603179
 20
193.2355134268973
 30
0.0
 10
295.937082682906
 20
189.1041333891389
 30
0.0
 10
295.9543727558726
 20
188.4056187476577
 30
0.0
 10
295.9624902621097
 20
187.7526224302754
 30
0.0
 10
295.9624902621097
 20
187.0460118144039
 30
0.0
 10
295.9624902621097
 20
184.3141156901411
 30
0.0
 10
295.8323087164608
 20
181.6636960741045
 30
0.0
 10
295.564904711265
 20
178.9437716566529
 30
0.0
 10
295.1835541728947
 20
175.0498125274452
 30
0.0
 10
294.5344335879332
 20
171.3167178255519
 30
0.0
 10
293.5808742213097
 20
167.5278879382612
 30
0.0
 10
292.6477916409765
 20
163.8106622074468
 30
0.0
 10
291.4684493289883
 20
160.2892363253519
 30
0.0
 10
289.9740745667209
 20
156.7582826010556
 30
0.0
 10
288.4260855059642
 20
153.0943374251053
 30
0.0
 10
286.6336238568355
 20
149.6833268533127
 30
0.0
 10
284.4936812643258
 20
146.3273516818969
 30
0.0
 10
280.0768965974612
 20
139.3970361149174
 30
0.0
 10
274.7453744837225
 20
133.6185343938143
 30
0.0
 10
268.1939440586568
 20
128.659534761265
 30
0.0
 10
265.0905374500034
 20
126.3149750287782
 30
0.0
 10
261.9028551930421
 20
124.2977962607007
 30
0.0
 10
258.452333682403
 20
122.4954514938987
 30
0.0
 10
255.514743825824
 20
120.9633314042209
 30
0.0
 10
252.5683474439109
 20
119.6693427740377
 30
0.0
 10
249.4483828450815
 20
118.5415154054775
 30
0.0
 10
246.4903377340589
 20
117.4747200566231
 30
0.0
 10
243.5584107531838
 20
116.6104101949142
 30
0.0
 10
240.489239780915
 20
115.8999130806984
 30
0.0
 10
237.3117636193287
 20
115.1671951006027
 30
0.0
 10
234.1868682275861
 20
114.630976754247
 30
0.0
 10
230.9409638569241
 20
114.2616194545346
 30
0.0
 10
227.373653609335
 20
113.858037284361
 30
0.0
 10
223.8903390960456
 20
113.6615484165445
 30
0.0
 10
220.2958771896635
 20
113.6615484165445
 30
0.0
 10
220.2958771896635
 20
113.6615484165445
 30
0.0
 10
177.8232112863818
 20
113.6615484165445
 30
0.0
 10
177.8232112863818
 20
113.6615484165445
 30
0.0
 10
177.8232112863818
 20
113.6615484165445
 30
0.0
 10
177.8232112863818
 20
51.16696725201946
 30
0.0
 10
177.8232112863818
 20
51.16696725201946
 30
0.0
 10
177.8232112863818
 20
43.13456563930858
 30
0.0
 10
171.2887048928875
 20
36.59971473626566
 30
0.0
 10
163.2566585556485
 20
36.59971473626566
 30
0.0
 10
163.2566585556485
 20
36.59971473626566
 30
0.0
 10
138.6045457281527
 20
36.59971473626566
 30
0.0
 10
138.6045457281527
 20
36.59971473626566
 30
0.0
  0
SPLINE
  5
83
330
79
100
AcDbEntity
  8
レイヤー 1
 62
     1
370
    18
100
AcDbSpline
210
0.0
220
0.0
230
1.0
 70
    11
 71
     3
 72
    74
 73
    70
 74
     0
 42
0.0000000001
 43
0.0000000001
 40
0.0
 40
0.0
 40
0.0
 40
0.0
 40
1.0
 40
1.0
 40
1.0
 40
2.0
 40
2.0
 40
2.0
 40
3.0
 40
3.0
 40
3.0
 40
4.0
 40
4.0
 40
4.0
 40
5.0
 40
5.0
 40
5.0
 40
6.0
 40
6.0
 40
6.0
 40
7.0
 40
7.0
 40
7.0
 40
8.0
 40
8.0
 40
8.0
 40
9.0
 40
9.0
 40
9.0
 40
10.0
 40
10.0
 40
10.0
 40
11.0
 40
11.0
 40
11.0
 40
12.0
 40
12.0
 40
12.0
 40
13.0
 40
13.0
 40
13.0
 40
14.0
 40
14.0
 40
14.0
 40
15.0
 40
15.0
 40
15.0
 40
16.0
 40
16.0
 40
16.0
 40
17.0
 40
17.0
 40
17.0
 40
18.0
 40
18.0
 40
18.0
 40
19.0
 40
19.0
 40
19.0
 40
20.0
 40
20.0
 40
20.0
 40
21.0
 40
21.0
 40
21.0
 40
22.0
 40
22.0
 40
22.0
 40
23.0
 40
23.0
 40
23.0
 40
23.0
 10
183.6230295358
 20
169.6483980390495
 30
0.0
 10
183.6230295358
 20
169.6483980390495
 30
0.0
 10
216.3385821331441
 20
169.6483980390495
 30
0.0
 10
216.3385821331441
 20
169.6483980390495
 30
0.0
 10
217.3118862032676
 20
169.6483980390495
 30
0.0
 10
218.2562730031616
 20
169.6946053822454
 30
0.0
 10
219.2246462803718
 20
169.7902067819611
 30
0.0
 10
220.2469998974665
 20
169.8889841290772
 30
0.0
 10
221.2316081871509
 20
170.0449177634783
 30
0.0
 10
222.2352506293913
 20
170.2661036595548
 30
0.0
 10
223.1443682642551
 20
170.4654239652232
 30
0.0
 10
224.0100776960049
 20
170.71448283696
 30
0.0
 10
224.881794513007
 20
171.0270498907827
 30
0.0
 10
225.6734343918239
 20
171.309267806565
 30
0.0
 10
226.4199004560904
 20
171.6341833745176
 30
0.0
 10
227.1632013388798
 20
172.019054369837
 30
0.0
 10
227.9625926825384
 20
172.4314538312682
 30
0.0
 10
228.6988526514299
 20
172.891481737783
 30
0.0
 10
229.4146358340309
 20
173.4262897481744
 30
0.0
 10
230.8828924661508
 20
174.5184926762325
 30
0.0
 10
232.1102077327711
 20
175.8629304234279
 30
0.0
 10
233.0623675293538
 20
177.4218468964269
 30
0.0
 10
233.4782766818106
 20
178.10589213687
 30
0.0
 10
233.8285998289669
 20
178.8015645745758
 30
0.0
 10
234.1333831201776
 20
179.54945174073
 30
0.0
 10
234.4600642995664
 20
180.3562608056054
 30
0.0
 10
234.7175851870888
 20
181.1609274517258
 30
0.0
 10
234.9200922060812
 20
182.0104234028481
 30
0.0
 10
235.1102399450202
 20
182.8140565203229
 30
0.0
 10
235.2464073440747
 20
183.5996890138874
 30
0.0
 10
235.3367119094818
 20
184.4128392076403
 30
0.0
 10
235.4333683696899
 20
185.2940731009204
 30
0.0
 10
235.4802862638296
 20
186.1484998449559
 30
0.0
 10
235.4802862638296
 20
187.0255134962666
 30
0.0
 10
235.4802862638296
 20
187.334194051745
 30
0.0
 10
235.4746449199725
 20
187.6284052061853
 30
0.0
 10
235.4623071717659
 20
187.9367412521152
 30
0.0
 10
235.4312582487051
 20
188.8250375911401
 30
0.0
 10
235.3497602086322
 20
189.6840506185403
 30
0.0
 10
235.2125377490853
 20
190.5614087793996
 30
0.0
 10
235.0922393211098
 20
191.3410554195584
 30
0.0
 10
234.9274991613745
 20
192.0889425857126
 30
0.0
 10
234.7091231713032
 20
192.84671286954
 30
0.0
 10
234.4755887610968
 20
193.6623176938262
 30
0.0
 10
234.1894735810468
 20
194.4306816462708
 30
0.0
 10
233.834241172824
 20
195.1947822930524
 30
0.0
 10
232.9766277154646
 20
197.0493417883028
 30
0.0
 10
231.7570854455329
 20
198.665780589982
 30
0.0
 10
230.2098069357201
 20
199.9985588421444
 30
0.0
 10
229.5500926821416
 20
200.5640712660482
 30
0.0
 10
228.866779524489
 20
201.0572582166085
 30
0.0
 10
228.1210024793196
 20
201.5070369640547
 30
0.0
 10
227.3702946412369
 20
201.95789230384
 30
0.0
 10
226.6125243574094
 20
202.340663944098
 30
0.0
 10
225.8046494661183
 20
202.6775512188619
 30
0.0
 10
224.9787954827636
 20
203.0201013693296
 30
0.0
 10
224.1564727222812
 20
203.3005752055225
 30
0.0
 10
223.29110780008
 20
203.5358752271651
 30
0.0
 10
222.3400245958365
 20
203.7926855637437
 30
0.0
 10
221.4012791397995
 20
203.9860200160065
 30
0.0
 10
220.4205681143827
 20
204.1267736984258
 30
0.0
 10
219.0655474644936
 20
204.3193975997448
 30
0.0
 10
217.74120969627
 20
204.412867346629
 30
0.0
 10
216.3706861166973
 20
204.412867346629
 30
0.0
 10
216.3706861166973
 20
204.412867346629
 30
0.0
 10
183.6230295358
 20
204.412867346629
 30
0.0
 10
183.6230295358
 20
204.412867346629
 30
0.0
 10
183.6230295358
 20
204.412867346629
 30
0.0
 10
183.6230295358
 20
169.6483980390495
 30
0.0
 10
183.6230295358
 20
169.6483980390495
 30
0.0
  0
SPLINE
  5
84
330
79
100
AcDbEntity
  8
レイヤー 1
 62
     1
370
    18
100
AcDbSpline
210
0.0
220
0.0
230
1.0
 70
     9
 71
     3
 72
    92
 73
    88
 74
     0
 42
0.0000000001
 43
0.0000000001
 40
0.0
 40
0.0
 40
0.0
 40
0.0
 40
1.0
 40
1.0
 40
1.0
 40
2.0
 40
2.0
 40
2.0
 40
3.0
 40
3.0
 40
3.0
 40
4.0
 40
4.0
 40
4.0
 40
5.0
 40
5.0
 40
5.0
 40
6.0
 40
6.0
 40
6.0
 40
7.0
 40
7.0
 40
7.0
 40
8.0
 40
8.0
 40
8.0
 40
9.0
 40
9.0
 40
9.0
 40
10.0
 40
10.0
 40
10.0
 40
11.0
 40
11.0
 40
11.0
 40
12.0
 40
12.0
 40
12.0
 40
13.0
 40
13.0
 40
13.0
 40
14.0
 40
14.0
 40
14.0
 40
15.0
 40
15.0
 40
15.0
 40
16.0
 40
16.0
 40
16.0
 40
17.0
 40
17.0
 40
17.0
 40
18.0
 40
18.0
 40
18.0
 40
19.0
 40
19.0
 40
19.0
 40
20.0
 40
20.0
 40
20.0
 40
21.0
 40
21.0
 40
21.0
 40
22.0
 40
22.0
 40
22.0
 40
23.0
 40
23.0
 40
23.0
 40
24.0
 40
24.0
 40
24.0
 40
25.0
 40
25.0
 40
25.0
 40
26.0
 40
26.0
 40
26.0
 40
27.0
 40
27.0
 40
27.0
 40
28.0
 40
28.0
 40
28.0
 40
29.0
 40
29.0
 40
29.0
 40
29.0
 10
138.6046964510802
 20
30.80000414608147
 30
0.0
 10
127.3743741882627
 20
30.80000414608147
 30
0.0
 10
118.2377871747591
 20
39.93624665003656
 30
0.0
 10
118.2377871747591
 20
51.16621363738206
 30
0.0
 10
118.2377871747591
 20
51.16621363738206
 30
0.0
 10
118.2377871747591
 20
245.8328627925457
 30
0.0
 10
118.2377871747591
 20
245.8328627925457
 30
0.0
 10
118.2377871747591
 20
257.0635510967584
 30
0.0
 10
127.3740189127908
 20
266.2001381102621
 30
0.0
 10
138.6036413905878
 20
266.2001381102621
 30
0.0
 10
138.6036413905878
 20
266.2001381102621
 30
0.0
 10
220.2632349099407
 20
266.2001381102621
 30
0.0
 10
220.2632349099407
 20
266.2001381102621
 30
0.0
 10
223.1891545055634
 20
266.2001381102621
 30
0.0
 10
226.029032841442
 20
266.079495172738
 30
0.0
 10
228.9454353607867
 20
265.8314913614935
 30
0.0
 10
232.0731729563046
 20
265.5672525377749
 30
0.0
 10
235.0932943816022
 20
265.1598054011037
 30
0.0
 10
238.1787003663451
 20
264.5861754709629
 30
0.0
 10
241.3480590216942
 20
263.998463713026
 30
0.0
 10
244.3882911918869
 20
263.2586725212622
 30
0.0
 10
247.4736756447831
 20
262.3234582880975
 30
0.0
 10
250.6268208195048
 20
261.3706094724177
 30
0.0
 10
253.6271760094556
 20
260.260427452296
 30
0.0
 10
256.6476634761484
 20
258.9290272383276
 30
0.0
 10
260.1662686863148
 20
257.381038177571
 30
0.0
 10
263.456270279188
 20
255.6291640596279
 30
0.0
 10
266.705361363174
 20
253.572808096329
 30
0.0
 10
273.9464783725399
 20
248.9972906549816
 30
0.0
 10
280.0308399771928
 20
243.4925448338752
 30
0.0
 10
285.3066376714576
 20
236.7442487336742
 30
0.0
 10
288.0628863144318
 20
233.212939733906
 30
0.0
 10
290.4173291645919
 20
229.5719259747794
 30
0.0
 10
292.5047125191047
 20
225.6130590934448
 30
0.0
 10
294.4319419972471
 20
221.9512240384792
 30
0.0
 10
296.0162552835263
 20
218.2657470157461
 30
0.0
 10
297.3465789051556
 20
214.346391073258
 30
0.0
 10
298.6934820488075
 20
210.3716336889978
 30
0.0
 10
299.7034979176957
 20
206.4318224920661
 30
0.0
 10
300.4340950108832
 20
202.3018420243486
 30
0.0
 10
301.2038585333688
 20
197.9404587992562
 30
0.0
 10
301.6296508034989
 20
193.6690356300224
 30
0.0
 10
301.7355013622832
 20
189.2430783964284
 30
0.0
 10
301.7534804543468
 20
188.4997775136389
 30
0.0
 10
301.7623085115277
 20
187.801628913553
 30
0.0
 10
301.7623085115277
 20
187.0459687507103
 30
0.0
 10
301.7623085115277
 20
184.1225037856208
 30
0.0
 10
301.6229543991494
 20
181.28652271401
 30
0.0
 10
301.3368607509462
 20
178.3761168139943
 30
0.0
 10
300.927626470992
 20
174.1946429346957
 30
0.0
 10
300.23018842185
 20
170.1832060494409
 30
0.0
 10
299.2057246837707
 20
166.1121474804446
 30
0.0
 10
298.1996060791502
 20
162.1052968785546
 30
0.0
 10
296.9274830393749
 20
158.3065838735907
 30
0.0
 10
295.3152860115119
 20
154.4979985168768
 30
0.0
 10
293.6406466279787
 20
150.5341900767056
 30
0.0
 10
291.700368850686
 20
146.8416613741511
 30
0.0
 10
289.3840373693315
 20
143.2087543553382
 30
0.0
 10
284.5911989984052
 20
135.6885953775904
 30
0.0
 10
278.8049458124602
 20
129.416906705927
 30
0.0
 10
271.6939888168964
 20
124.0349354751761
 30
0.0
 10
268.3284965692026
 20
121.4921104975132
 30
0.0
 10
264.8754988961835
 20
119.3066495809047
 30
0.0
 10
261.1378286768488
 20
117.3543785649539
 30
0.0
 10
257.9645942890787
 20
115.6998499263159
 30
0.0
 10
254.7860630670001
 20
114.303908001616
 30
0.0
 10
251.420204777911
 20
113.086831128141
 30
0.0
 10
248.2395634348477
 20
111.939948075178
 30
0.0
 10
245.0917366262813
 20
111.0117855218347
 30
0.0
 10
241.7971272181965
 20
110.2494397205659
 30
0.0
 10
238.3991864774011
 20
109.4659173479862
 30
0.0
 10
235.0626114999366
 20
108.8933640101844
 30
0.0
 10
231.5969100373156
 20
108.4989544067403
 30
0.0
 10
227.8073695990812
 20
108.0699754232863
 30
0.0
 10
224.1109759300291
 20
107.8614825508883
 30
0.0
 10
220.2960279125909
 20
107.8614825508883
 30
0.0
 10
220.2960279125909
 20
107.8614825508883
 30
0.0
 10
183.6230295358
 20
107.8614825508883
 30
0.0
 10
183.6230295358
 20
107.8614825508883
 30
0.0
 10
183.6230295358
 20
107.8614825508883
 30
0.0
 10
183.6230295358
 20
51.16692418832589
 30
0.0
 10
183.6230295358
 20
51.16692418832589
 30
0.0
 10
183.6230295358
 20
39.93659115958509
 30
0.0
 10
174.4867870318449
 20
30.80000414608147
 30
0.0
 10
163.256809278576
 20
30.80000414608147
 30
0.0
 10
163.256809278576
 20
30.80000414608147
 30
0.0
 10
138.6046964510802
 20
30.80000414608147
 30
0.0
 10
138.6046964510802
 20
30.80000414608147
 30
0.0
  0
LINE
  5
85
330
79
100
AcDbEntity
  8
レイヤー 1
 62
    29
370
    25
100
AcDbLine
 10
-0.0000352777768778
 20
148.5000011496697
 30
0.0
 11
2.645798006985747
 21
148.5000011496697
 31
0.0
  0
LWPOLYLINE
  5
86
330
79
100
AcDbEntity
  8
レイヤー 1
100
AcDbPolyline
 90
        4
 70
     1
 43
0.0
 10
0.0
 20
297.0000884267266
 10
419.9999449633593
 20
297.0000884267266
 10
419.9999449633593
 20
0.0
 10
0.0
 20
0.0
  0
ENDBLK
  5
7C
330
79
100
AcDbEntity
  8
0
100
AcDbBlockEnd
  0
BLOCK
  5
8D
330
8B
100
AcDbEntity
  8
0
100
AcDbBlockBegin
  2
Block_1
 70
     0
 10
0.0
 20
0.0
 30
0.0
  3
Block_1
  1

  0
LINE
  5
8F
330
8B
100
AcDbEntity
  8
レイヤー 1
 62
    29
370
    25
100
AcDbLine
 10
417.3541546943811
 20
148.5000011496697
 30
0.0
 11
419.9999880270529
 21
148.5000011496697
 31
0.0
  0
LINE
  5
90
330
8B
100
AcDbEntity
  8
レイヤー 1
  6
AI-Linetype-2
 62
    29
370
    25
100
AcDbLine
 10
209.9999940135265
 20
297.0000022993394
 30
0.0
 11
209.9999940135265
 21
-0.0000861273871312
 31
0.0
  0
LINE
  5
92
330
8B
100
AcDbEntity
  8
レイヤー 1
 62
    29
370
    25
100
AcDbLine
 10
-0.0000352777768778
 20
248.5000126535326
 30
0.0
 11
0.3527424940578435
 21
248.5000126535326
 31
0.0
  0
LWPOLYLINE
  5
93
330
8B
100
AcDbEntity
  8
レイヤー 1
100
AcDbPolyline
 90
        4
 70
     1
 43
0.0
 10
0.0
 20
297.0000884267266
 10
419.9999449633593
 20
297.0000884267266
 10
419.9999449633593
 20
0.0
 10
0.0
 20
0.0
  0
ENDBLK
  5
8E
330
8B
100
AcDbEntity
  8
0
100
AcDbBlockEnd
  0
BLOCK
  5
9A
330
98
100
AcDbEntity
  8
0
100
AcDbBlockBegin
  2
Block_2
 70
     0
 10
0.0
 20
0.0
 30
0.0
  3
Block_2
  1

  0
LINE
  5
9C
330
98
100
AcDbEntity
  8
レイヤー 1
 62
    29
370
    25
100
AcDbLine
 10
419.6472102493634
 20
248.5000126535326
 30
0.0
 11
419.9999880270529
 21
248.5000126535326
 31
0.0
  0
LINE
  5
9D
330
98
100
AcDbEntity
  8
レイヤー 1
 62
    29
370
    25
100
AcDbLine
 10
-0.0000352777768778
 20
48.49999502876856
 30
0.0
 11
0.3527424940578435
 21
48.49999502876856
 31
0.0
  0
LWPOLYLINE
  5
9E
330
98
100
AcDbEntity
  8
レイヤー 1
100
AcDbPolyline
 90
        4
 70
     1
 43
0.0
 10
0.0
 20
297.0000884267266
 10
419.9999449633593
 20
297.0000884267266
 10
419.9999449633593
 20
0.0
 10
0.0
 20
0.0
  0
ENDBLK
  5
9B
330
98
100
AcDbEntity
  8
0
100
AcDbBlockEnd
  0
BLOCK
  5
A5
330
A3
100
AcDbEntity
  8
0
100
AcDbBlockBegin
  2
Block_3
 70
     0
 10
0.0
 20
0.0
 30
0.0
  3
Block_3
  1

  0
LINE
  5
A7
330
A3
100
AcDbEntity
  8
レイヤー 1
 62
    29
370
    25
100
AcDbLine
 10
419.6472102493634
 20
48.49999502876856
 30
0.0
 11
419.9999880270529
 21
48.49999502876856
 31
0.0
  0
LINE
  5
A8
330
A3
100
AcDbEntity
  8
レイヤー 1
 62
    29
370
    18
100
AcDbLine
 10
0.0
 20
267.5056139807039
 30
0.0
 11
419.9999449633593
 21
267.5056139807039
 31
0.0
  0
LWPOLYLINE
  5
A9
330
A3
100
AcDbEntity
  8
レイヤー 1
100
AcDbPolyline
 90
        4
 70
     1
 43
0.0
 10
0.0
 20
297.0000884267266
 10
419.9999449633593
 20
297.0000884267266
 10
419.9999449633593
 20
0.0
 10
0.0
 20
0.0
  0
ENDBLK
  5
A6
330
A3
100
AcDbEntity
  8
0
100
AcDbBlockEnd
  0
BLOCK
  5
AE
330
AC
100
AcDbEntity
  8
0
100
AcDbBlockBegin
  2
Block_4
 70
     0
 10
0.0
 20
0.0
 30
0.0
  3
Block_4
  1

  0
SPLINE
  5
B0
330
AC
100
AcDbEntity
  8
レイヤー 1
  6
AI-Linetype-7
 62
   255
370
    18
100
AcDbSpline
210
0.0
220
0.0
230
1.0
 70
     9
 71
     3
 72
   119
 73
   115
 74
     0
 42
0.0000000001
 43
0.0000000001
 40
0.0
 40
0.0
 40
0.0
 40
0.0
 40
1.0
 40
1.0
 40
1.0
 40
2.0
 40
2.0
 40
2.0
 40
3.0
 40
3.0
 40
3.0
 40
4.0
 40
4.0
 40
4.0
 40
5.0
 40
5.0
 40
5.0
 40
6.0
 40
6.0
 40
6.0
 40
7.0
 40
7.0
 40
7.0
 40
8.0
 40
8.0
 40
8.0
 40
9.0
 40
9.0
 40
9.0
 40
10.0
 40
10.0
 40
10.0
 40
11.0
 40
11.0
 40
11.0
 40
12.0
 40
12.0
 40
12.0
 40
13.0
 40
13.0
 40
13.0
 40
14.0
 40
14.0
 40
14.0
 40
15.0
 40
15.0
 40
15.0
 40
16.0
 40
16.0
 40
16.0
 40
17.0
 40
17.0
 40
17.0
 40
18.0
 40
18.0
 40
18.0
 40
19.0
 40
19.0
 40
19.0
 40
20.0
 40
20.0
 40
20.0
 40
21.0
 40
21.0
 40
21.0
 40
22.0
 40
22.0
 40
22.0
 40
23.0
 40
23.0
 40
23.0
 40
24.0
 40
24.0
 40
24.0
 40
25.0
 40
25.0
 40
25.0
 40
26.0
 40
26.0
 40
26.0
 40
27.0
 40
27.0
 40
27.0
 40
28.0
 40
28.0
 40
28.0
 40
29.0
 40
29.0
 40
29.0
 40
30.0
 40
30.0
 40
30.0
 40
31.0
 40
31.0
 40
31.0
 40
32.0
 40
32.0
 40
32.0
 40
33.0
 40
33.0
 40
33.0
 40
34.0
 40
34.0
 40
34.0
 40
35.0
 40
35.0
 40
35.0
 40
36.0
 40
36.0
 40
36.0
 40
37.0
 40
37.0
 40
37.0
 40
38.0
 40
38.0
 40
38.0
 40
38.0
 10
256.5102256981337
 20
126.2192013742883
 30
0.0
 10
259.7638815336376
 20
127.9192268051784
 30
0.0
 10
262.7332093323744
 20
129.7981280532167
 30
0.0
 10
265.6619711317725
 20
132.0107513945418
 30
0.0
 10
271.7766711085424
 20
136.6388388398095
 30
0.0
 10
276.8305615898636
 20
142.1171220212198
 30
0.0
 10
280.9513694908515
 20
148.5845997756793
 30
0.0
 10
282.971379696781
 20
151.7511377591
 30
0.0
 10
284.6438874274827
 20
154.9338999890714
 30
0.0
 10
286.1054476552531
 20
158.3939385759885
 30
0.0
 10
287.5204344984324
 20
161.7368654482539
 30
0.0
 10
288.6235756046562
 20
165.0296877130557
 30
0.0
 10
289.5072856603163
 20
168.5504138101302
 30
0.0
 10
290.4142716423487
 20
172.1536822418466
 30
0.0
 10
291.0228262279713
 20
175.6553634204416
 30
0.0
 10
291.3847765723904
 20
179.3531781913813
 30
0.0
 10
291.6405318484766
 20
181.9496174675334
 30
0.0
 10
291.7625958878884
 20
184.4370410034241
 30
0.0
 10
291.7625958878884
 20
187.0458395596296
 30
0.0
 10
291.7625958878884
 20
187.7076639341929
 30
0.0
 10
291.7548228911997
 20
188.3380733443
 30
0.0
 10
291.738243369177
 20
188.9998761870165
 30
0.0
 10
291.644063071349
 20
192.9361776929226
 30
0.0
 10
291.2711745487643
 20
196.6833865203821
 30
0.0
 10
290.5871293083211
 20
200.561121403039
 30
0.0
 10
289.9419059876274
 20
204.203190222658
 30
0.0
 10
289.0634927662759
 20
207.6304358069249
 30
0.0
 10
287.8771095403897
 20
211.1338610651093
 30
0.0
 10
286.7125811389881
 20
214.563216770361
 30
0.0
 10
285.3441461485533
 20
217.7466787853528
 30
0.0
 10
283.6575350582089
 20
220.951328137579
 30
0.0
 10
281.8431970527488
 20
224.3923110400933
 30
0.0
 10
279.8200001334955
 20
227.5211036961036
 30
0.0
 10
277.4267568954329
 20
230.5877985059924
 30
0.0
 10
272.8896953324395
 20
236.3902867044116
 30
0.0
 10
267.5874349984786
 20
241.1866562982103
 30
0.0
 10
261.3605540999702
 20
245.1211921926802
 30
0.0
 10
258.5238624774155
 20
246.9164745137375
 30
0.0
 10
255.6896470172408
 20
248.4256416547447
 30
0.0
 10
252.6166003125512
 20
249.7774971231568
 30
0.0
 10
249.9591397826166
 20
250.9490664384563
 30
0.0
 10
247.3570376307606
 20
251.9121644132047
 30
0.0
 10
244.5764580009218
 20
252.7524662657507
 30
0.0
 10
241.8325471061543
 20
253.5843276343578
 30
0.0
 10
239.1718998628958
 20
254.2316610760363
 30
0.0
 10
236.3524983133077
 20
254.7541313382212
 30
0.0
 10
233.5796701483108
 20
255.2702497056052
 30
0.0
 10
230.9112499083638
 20
255.6300899290395
 30
0.0
 10
228.1006764159566
 20
255.8675000716668
 30
0.0
 10
225.4530774718486
 20
256.0925724660875
 30
0.0
 10
222.9204801214075
 20
256.2001671044612
 30
0.0
 10
220.2629980596261
 20
256.2001671044612
 30
0.0
 10
220.2629980596261
 20
256.2001671044612
 30
0.0
 10
220.194203809155
 20
256.2001671044612
 30
0.0
 10
220.194203809155
 20
256.2001671044612
 30
0.0
 10
220.194203809155
 20
256.2001671044612
 30
0.0
 10
138.6044811326123
 20
256.2001671044612
 30
0.0
 10
138.6044811326123
 20
256.2001671044612
 30
0.0
 10
138.6044811326123
 20
256.2001671044612
 30
0.0
 10
138.6037813475919
 20
256.2001671044612
 30
0.0
 10
138.6037813475919
 20
256.2001671044612
 30
0.0
 10
132.8785494154294
 20
256.2001671044612
 30
0.0
 10
128.237402905088
 20
251.5586760845713
 30
0.0
 10
128.237402905088
 20
245.8337886619573
 30
0.0
 10
128.237402905088
 20
245.8337886619573
 30
0.0
 10
128.237402905088
 20
245.8330781110135
 30
0.0
 10
128.237402905088
 20
245.8330781110135
 30
0.0
 10
128.237402905088
 20
245.8330781110135
 30
0.0
 10
128.237402905088
 20
51.1667896142835
 30
0.0
 10
128.237402905088
 20
51.1667896142835
 30
0.0
 10
128.237402905088
 20
51.1667896142835
 30
0.0
 10
128.237402905088
 20
51.16608444630136
 30
0.0
 10
128.237402905088
 20
51.16608444630136
 30
0.0
 10
128.237402905088
 20
45.44120240664914
 30
0.0
 10
132.8785494154294
 20
40.79970600379747
 30
0.0
 10
138.6037813475919
 20
40.79970600379747
 30
0.0
 10
138.6037813475919
 20
40.79970600379747
 30
0.0
 10
138.6044811326123
 20
40.79970600379747
 30
0.0
 10
138.6044811326123
 20
40.79970600379747
 30
0.0
 10
138.6044811326123
 20
40.79970600379747
 30
0.0
 10
163.2558941750877
 20
40.79970600379747
 30
0.0
 10
163.2558941750877
 20
40.79970600379747
 30
0.0
 10
163.2558941750877
 20
40.79970600379747
 30
0.0
 10
163.2565939601082
 20
40.79970600379747
 30
0.0
 10
163.2565939601082
 20
40.79970600379747
 30
0.0
 10
168.9818258922706
 20
40.79970600379747
 30
0.0
 10
173.622972402612
 20
45.44120240664914
 30
0.0
 10
173.622972402612
 20
51.16608444630136
 30
0.0
 10
173.622972402612
 20
51.16608444630136
 30
0.0
 10
173.622972402612
 20
51.1667896142835
 30
0.0
 10
173.622972402612
 20
51.1667896142835
 30
0.0
 10
173.622972402612
 20
51.1667896142835
 30
0.0
 10
173.622972402612
 20
116.8617622083334
 30
0.0
 10
173.622972402612
 20
116.8617622083334
 30
0.0
 10
173.622972402612
 20
117.4138602916914
 30
0.0
 10
174.0709963045454
 20
117.8618949595482
 30
0.0
 10
174.6230943879035
 20
117.8618949595482
 30
0.0
 10
174.6230943879035
 20
117.8618949595482
 30
0.0
 10
220.1945698505503
 20
117.8618949595482
 30
0.0
 10
220.1945698505503
 20
117.8618949595482
 30
0.0
 10
220.2287839550882
 20
117.8615396840763
 30
0.0
 10
220.2619429991337
 20
117.8615396840763
 30
0.0
 10
220.2961571036716
 20
117.8615396840763
 30
0.0
 10
223.7477336748031
 20
117.8615396840763
 30
0.0
 10
227.0388118600155
 20
118.0471011396505
 30
0.0
 10
230.4688565843641
 20
118.4351588482938
 30
0.0
 10
233.5687319701452
 20
118.7879366259833
 30
0.0
 10
236.505245234385
 20
119.291695713314
 30
0.0
 10
239.5454774045776
 20
119.9923204757799
 30
0.0
 10
242.4629565162614
 20
120.6678821685906
 30
0.0
 10
245.2065013696337
 20
121.4768013544507
 30
0.0
 10
248.0234482886886
 20
122.4921032917239
 30
0.0
 10
250.9768855844997
 20
123.5603089765426
 30
0.0
 10
253.7250382530835
 20
124.7671582227958
 30
0.0
 10
256.5102256981337
 20
126.2192013742883
 30
0.0
  0
SPLINE
  5
B2
330
AC
100
AcDbEntity
  8
レイヤー 1
  6
AI-Linetype-8
 62
   255
370
    18
100
AcDbSpline
210
0.0
220
0.0
230
1.0
 70
     9
 71
     3
 72
    86
 73
    82
 74
     0
 42
0.0000000001
 43
0.0000000001
 40
0.0
 40
0.0
 40
0.0
 40
0.0
 40
1.0
 40
1.0
 40
1.0
 40
2.0
 40
2.0
 40
2.0
 40
3.0
 40
3.0
 40
3.0
 40
4.0
 40
4.0
 40
4.0
 40
5.0
 40
5.0
 40
5.0
 40
6.0
 40
6.0
 40
6.0
 40
7.0
 40
7.0
 40
7.0
 40
8.0
 40
8.0
 40
8.0
 40
9.0
 40
9.0
 40
9.0
 40
10.0
 40
10.0
 40
10.0
 40
11.0
 40
11.0
 40
11.0
 40
12.0
 40
12.0
 40
12.0
 40
13.0
 40
13.0
 40
13.0
 40
14.0
 40
14.0
 40
14.0
 40
15.0
 40
15.0
 40
15.0
 40
16.0
 40
16.0
 40
16.0
 40
17.0
 40
17.0
 40
17.0
 40
18.0
 40
18.0
 40
18.0
 40
19.0
 40
19.0
 40
19.0
 40
20.0
 40
20.0
 40
20.0
 40
21.0
 40
21.0
 40
21.0
 40
22.0
 40
22.0
 40
22.0
 40
23.0
 40
23.0
 40
23.0
 40
24.0
 40
24.0
 40
24.0
 40
25.0
 40
25.0
 40
25.0
 40
26.0
 40
26.0
 40
26.0
 40
27.0
 40
27.0
 40
27.0
 40
27.0
 10
245.2759415755083
 20
183.3109469485299
 30
0.0
 10
245.1383530745661
 20
182.075858685221
 30
0.0
 10
244.9355015460252
 20
180.9063994909062
 30
0.0
 10
244.6486973468782
 20
179.6974401236683
 30
0.0
 10
244.3262579413056
 20
178.3424194737792
 30
0.0
 10
243.9205548842239
 20
177.0734831473277
 30
0.0
 10
243.3970295615466
 20
175.7830149740935
 30
0.0
 10
242.886918579415
 20
174.5292478337006
 30
0.0
 10
242.3041376143914
 20
173.3728369385361
 30
0.0
 10
241.6010366895455
 20
172.216436809295
 30
0.0
 10
239.967673856295
 20
169.5406096140547
 30
0.0
 10
237.9081742433659
 20
167.2821342050056
 30
0.0
 10
235.3932114754399
 20
165.4099401272402
 30
0.0
 10
234.2279940549413
 20
164.5403441971462
 30
0.0
 10
233.0479411920093
 20
163.8026846582138
 30
0.0
 10
231.7560734487341
 20
163.1359294907373
 30
0.0
 10
230.6056699388221
 20
162.5408000115838
 30
0.0
 10
229.4704248490452
 20
162.046913276003
 30
0.0
 10
228.2508825791135
 20
161.6115823977481
 30
0.0
 10
226.9678213611725
 20
161.1519097667053
 30
0.0
 10
225.7161751076877
 20
160.7920803091943
 30
0.0
 10
224.3847748937194
 20
160.4996240002668
 30
0.0
 10
222.9821473305935
 20
160.1905881693165
 30
0.0
 10
221.6271266807043
 20
159.9760986775895
 30
0.0
 10
220.1976704364871
 20
159.8374658820784
 30
0.0
 10
218.8952090245948
 20
159.7094052233376
 30
0.0
 10
217.6474385035309
 20
159.6483732036317
 30
0.0
 10
216.3386251968376
 20
159.6483732036317
 30
0.0
 10
216.3386251968376
 20
159.6483732036317
 30
0.0
 10
216.278314493999
 20
159.6483732036317
 30
0.0
 10
216.278314493999
 20
159.6483732036317
 30
0.0
 10
216.278314493999
 20
159.6483732036317
 30
0.0
 10
174.6230190264397
 20
159.6483732036317
 30
0.0
 10
174.6230190264397
 20
159.6483732036317
 30
0.0
 10
174.0709209430816
 20
159.6483732036317
 30
0.0
 10
173.6232415506968
 20
160.0960525960165
 30
0.0
 10
173.6232415506968
 20
160.6484951889231
 30
0.0
 10
173.6232415506968
 20
160.6484951889231
 30
0.0
 10
173.6232415506968
 20
213.4127701967553
 30
0.0
 10
173.6232415506968
 20
213.4127701967553
 30
0.0
 10
173.6232415506968
 20
213.9648467482666
 30
0.0
 10
174.0709209430816
 20
214.4128814161234
 30
0.0
 10
174.6230190264397
 20
214.4128814161234
 30
0.0
 10
174.6230190264397
 20
214.4128814161234
 30
0.0
 10
216.2768933921114
 20
214.4128814161234
 30
0.0
 10
216.2768933921114
 20
214.4128814161234
 30
0.0
 10
216.2768933921114
 20
214.4128814161234
 30
0.0
 10
216.3707291803909
 20
214.4128814161234
 30
0.0
 10
216.3707291803909
 20
214.4128814161234
 30
0.0
 10
218.2266882456821
 20
214.4128814161234
 30
0.0
 10
219.9969290289309
 20
214.2876521952345
 30
0.0
 10
221.8341984512147
 20
214.0262340434444
 30
0.0
 10
223.2290745494987
 20
213.8265692282274
 30
0.0
 10
224.5474049324699
 20
213.5549234492154
 30
0.0
 10
225.9073779071191
 20
213.1873317609393
 30
0.0
 10
227.1989011408457
 20
212.8370301456298
 30
0.0
 10
228.4092708440478
 20
212.4232095823109
 30
0.0
 10
229.6454141678491
 20
211.9102779282507
 30
0.0
 10
230.9192812872138
 20
211.380056201224
 30
0.0
 10
232.0965134782172
 20
210.7849159561471
 30
0.0
 10
233.2790209716824
 20
210.0740635664593
 30
0.0
 10
234.5147982540883
 20
209.3297076231776
 30
0.0
 10
235.633808331391
 20
208.5207992032409
 30
0.0
 10
236.7284874218292
 20
207.58134319626
 30
0.0
 10
239.3764308754858
 20
205.3031015518643
 30
0.0
 10
241.4394832431341
 20
202.5711838957548
 30
0.0
 10
242.9063187733663
 20
199.4011362213085
 30
0.0
 10
243.4838244359281
 20
198.1572414326655
 30
0.0
 10
243.9424312405552
 20
196.9278160450605
 30
0.0
 10
244.3199060465047
 20
195.6091196206941
 30
0.0
 10
244.6568148531153
 20
194.4393159168307
 30
0.0
 10
244.907273294893
 20
193.3030157665614
 30
0.0
 10
245.0938898109596
 20
192.0996869772572
 30
0.0
 10
245.2925210975311
 20
190.8265088769895
 30
0.0
 10
245.4096328121828
 20
189.6013252632008
 30
0.0
 10
245.4554956458302
 20
188.3136777618951
 30
0.0
 10
245.4720751678529
 20
187.8776363326964
 30
0.0
 10
245.48019267409
 20
187.4620716897881
 30
0.0
 10
245.48019267409
 20
187.0256857510409
 30
0.0
 10
245.48019267409
 20
185.7652114403751
 30
0.0
 10
245.413874585999
 20
184.5636482625071
 30
0.0
 10
245.2759415755083
 20
183.3109469485299
 30
0.0
  0
SPLINE
  5
B4
330
AC
100
AcDbEntity
  8
レイヤー 1
 62
   255
370
    18
100
AcDbSpline
210
0.0
220
0.0
230
1.0
 70
     9
 71
     3
 72
    50
 73
    46
 74
     0
 42
0.0000000001
 43
0.0000000001
 40
0.0
 40
0.0
 40
0.0
 40
0.0
 40
1.0
 40
1.0
 40
1.0
 40
2.0
 40
2.0
 40
2.0
 40
3.0
 40
3.0
 40
3.0
 40
4.0
 40
4.0
 40
4.0
 40
5.0
 40
5.0
 40
5.0
 40
6.0
 40
6.0
 40
6.0
 40
7.0
 40
7.0
 40
7.0
 40
8.0
 40
8.0
 40
8.0
 40
9.0
 40
9.0
 40
9.0
 40
10.0
 40
10.0
 40
10.0
 40
11.0
 40
11.0
 40
11.0
 40
12.0
 40
12.0
 40
12.0
 40
13.0
 40
13.0
 40
13.0
 40
14.0
 40
14.0
 40
14.0
 40
15.0
 40
15.0
 40
15.0
 40
15.0
 10
251.4218627301133
 20
175.3436038108733
 30
0.0
 10
249.6036274603856
 20
169.5580396440254
 30
0.0
 10
246.2674185243164
 20
164.5076803855766
 30
0.0
 10
241.659086548472
 20
160.5653822603415
 30
0.0
 10
238.1845785605168
 20
157.6288582301783
 30
0.0
 10
234.3078987383523
 20
155.4702152287377
 30
0.0
 10
229.9817846782902
 20
154.0636904013441
 30
0.0
 10
225.7823209410045
 20
152.6984421242332
 30
0.0
 10
221.5694428631732
 20
152.0062901434763
 30
0.0
 10
217.1540792981963
 20
151.956551577408
 30
0.0
 10
217.1540792981963
 20
151.956551577408
 30
0.0
 10
168.5896340690451
 20
151.9484340711709
 30
0.0
 10
168.5896340690451
 20
151.9484340711709
 30
0.0
 10
167.2025202015262
 20
151.9487893466428
 30
0.0
 10
166.0376472905761
 20
153.0272334246067
 30
0.0
 10
165.9307524372228
 20
154.4101162842328
 30
0.0
 10
165.9307524372228
 20
154.4101162842328
 30
0.0
 10
165.9229902064576
 20
219.4464673659283
 30
0.0
 10
165.9229902064576
 20
219.4464673659283
 30
0.0
 10
165.9229902064576
 20
220.9189657718645
 30
0.0
 10
167.1167911535604
 20
222.1127559530438
 30
0.0
 10
168.5896340690451
 20
222.1127559530438
 30
0.0
 10
168.5896340690451
 20
222.1127559530438
 30
0.0
 10
216.2975424331761
 20
222.1127559530438
 30
0.0
 10
216.2975424331761
 20
222.1127559530438
 30
0.0
 10
216.3321010472625
 20
222.1127559530438
 30
0.0
 10
216.365260091308
 20
222.1127559530438
 30
0.0
 10
216.3998402372412
 20
222.1127559530438
 30
0.0
 10
219.2114687901407
 20
222.1127559530438
 30
0.0
 10
221.8943584311258
 20
221.8689939156156
 30
0.0
 10
224.6597796408294
 20
221.3620481149611
 30
0.0
 10
228.9728454017412
 20
220.5880428186594
 30
0.0
 10
232.9694576104859
 20
219.1332005270852
 30
0.0
 10
236.7706467778299
 20
216.9540915052775
 30
0.0
 10
243.5781985203771
 20
213.0438865976722
 30
0.0
 10
248.6867583606799
 20
206.8244341863039
 30
0.0
 10
251.2003000267182
 20
199.3871620527465
 30
0.0
 10
252.5151207186638
 20
195.4819094699012
 30
0.0
 10
253.1656408736661
 20
191.5438638844057
 30
0.0
 10
253.1769235613802
 20
187.4234004929662
 30
0.0
 10
253.1797442333088
 20
187.2223361077083
 30
0.0
 10
253.181509844745
 20
187.0304227573331
 30
0.0
 10
253.181509844745
 20
186.8293368402284
 30
0.0
 10
253.181509844745
 20
182.8820971561566
 30
0.0
 10
252.6033151630862
 20
179.1095022813402
 30
0.0
 10
251.4218627301133
 20
175.3436038108733
 30
0.0
  0
SPLINE
  5
B5
330
AC
100
AcDbEntity
  8
レイヤー 1
 62
   255
370
    18
100
AcDbSpline
210
0.0
220
0.0
230
1.0
 70
     9
 71
     3
 72
    65
 73
    61
 74
     0
 42
0.0000000001
 43
0.0000000001
 40
0.0
 40
0.0
 40
0.0
 40
0.0
 40
1.0
 40
1.0
 40
1.0
 40
2.0
 40
2.0
 40
2.0
 40
3.0
 40
3.0
 40
3.0
 40
4.0
 40
4.0
 40
4.0
 40
5.0
 40
5.0
 40
5.0
 40
6.0
 40
6.0
 40
6.0
 40
7.0
 40
7.0
 40
7.0
 40
8.0
 40
8.0
 40
8.0
 40
9.0
 40
9.0
 40
9.0
 40
10.0
 40
10.0
 40
10.0
 40
11.0
 40
11.0
 40
11.0
 40
12.0
 40
12.0
 40
12.0
 40
13.0
 40
13.0
 40
13.0
 40
14.0
 40
14.0
 40
14.0
 40
15.0
 40
15.0
 40
15.0
 40
16.0
 40
16.0
 40
16.0
 40
17.0
 40
17.0
 40
17.0
 40
18.0
 40
18.0
 40
18.0
 40
19.0
 40
19.0
 40
19.0
 40
20.0
 40
20.0
 40
20.0
 40
20.0
 10
277.5196452824539
 20
158.1403903141975
 30
0.0
 10
280.6463278174795
 20
164.496386931939
 30
0.0
 10
282.61586737455
 20
171.0767561590808
 30
0.0
 10
283.4946466372969
 20
178.1058490731764
 30
0.0
 10
283.8795283985397
 20
181.1108013124154
 30
0.0
 10
284.0640347936216
 20
183.9993416220231
 30
0.0
 10
284.0640347936216
 20
187.0286571458969
 30
0.0
 10
284.0640347936216
 20
192.1065341045341
 30
0.0
 10
283.5440406938167
 20
196.953352815345
 30
0.0
 10
282.4666516763452
 20
201.9155176293714
 30
0.0
 10
280.9811049712586
 20
208.766456043186
 30
0.0
 10
278.4294519364148
 20
215.0734354117265
 30
0.0
 10
274.7330582673628
 20
221.0300916331105
 30
0.0
 10
269.3602596033414
 20
229.630449534335
 30
0.0
 10
261.9356912593858
 20
236.460932693706
 30
0.0
 10
252.9179815719702
 20
241.0996030416674
 30
0.0
 10
247.5815071334714
 20
243.8406932645064
 30
0.0
 10
242.11909292314
 20
245.7502881601336
 30
0.0
 10
236.2372383374793
 20
246.9310300421627
 30
0.0
 10
230.9829724899973
 20
247.9904184357238
 30
0.0
 10
225.8676947134984
 20
248.5008954592506
 30
0.0
 10
220.5079443486274
 20
248.5008954592506
 30
0.0
 10
220.401404770746
 20
248.5008954592506
 30
0.0
 10
220.3001404953265
 20
248.5005294178554
 30
0.0
 10
220.1939669588404
 20
248.5001849083068
 30
0.0
 10
220.1939669588404
 20
248.5001849083068
 30
0.0
 10
138.6045887918462
 20
248.5001849083068
 30
0.0
 10
138.6045887918462
 20
248.5001849083068
 30
0.0
 10
137.1313906008897
 20
248.5001849083068
 30
0.0
 10
135.9372343783149
 20
247.3060286857321
 30
0.0
 10
135.9372343783149
 20
245.8331857702475
 30
0.0
 10
135.9372343783149
 20
245.8331857702475
 30
0.0
 10
135.9449966090801
 20
50.96156419963483
 30
0.0
 10
135.9449966090801
 20
50.96156419963483
 30
0.0
 10
136.0522359719819
 20
49.57832606453685
 30
0.0
 10
137.217108882932
 20
48.50023726204486
 30
0.0
 10
138.6045887918462
 20
48.49988198657295
 30
0.0
 10
138.6045887918462
 20
48.49988198657295
 30
0.0
 10
163.4609527179238
 20
48.50764421733815
 30
0.0
 10
163.4609527179238
 20
48.50764421733815
 30
0.0
 10
164.8441908530218
 20
48.61453907069142
 30
0.0
 10
165.9226349309857
 20
49.77941198164153
 30
0.0
 10
165.9229902064576
 20
51.16688112463233
 30
0.0
 10
165.9229902064576
 20
51.16688112463233
 30
0.0
 10
165.9307524372228
 20
123.1000334537899
 30
0.0
 10
165.9307524372228
 20
123.1000334537899
 30
0.0
 10
166.0376472905761
 20
124.4829270793393
 30
0.0
 10
167.2025202015262
 20
125.5613603913798
 30
0.0
 10
168.5896340690451
 20
125.5617156668517
 30
0.0
 10
168.5896340690451
 20
125.5617156668517
 30
0.0
 10
221.3598949302829
 20
125.5698331730888
 30
0.0
 10
221.3598949302829
 20
125.5698331730888
 30
0.0
 10
227.2544533055453
 20
125.6209820751214
 30
0.0
 10
232.8763323731503
 20
126.3106686594217
 30
0.0
 10
238.608971260606
 20
127.6857892882825
 30
0.0
 10
244.6742771808562
 20
129.1392320098159
 30
0.0
 10
250.2636862235127
 20
131.3910217804389
 30
0.0
 10
255.642836782335
 20
134.5476766461862
 30
0.0
 10
265.1396085288214
 20
140.1518995994292
 30
0.0
 10
272.6470744828908
 20
148.2481539037745
 30
0.0
 10
277.5196452824539
 20
158.1403903141975
 30
0.0
  0
SPLINE
  5
B6
330
AC
100
AcDbEntity
  8
レイヤー 1
  6
AI-Linetype-9
 62
   112
370
    18
100
AcDbSpline
210
0.0
220
0.0
230
1.0
 70
     9
 71
     3
 72
    80
 73
    76
 74
     0
 42
0.0000000001
 43
0.0000000001
 40
0.0
 40
0.0
 40
0.0
 40
0.0
 40
1.0
 40
1.0
 40
1.0
 40
2.0
 40
2.0
 40
2.0
 40
3.0
 40
3.0
 40
3.0
 40
4.0
 40
4.0
 40
4.0
 40
5.0
 40
5.0
 40
5.0
 40
6.0
 40
6.0
 40
6.0
 40
7.0
 40
7.0
 40
7.0
 40
8.0
 40
8.0
 40
8.0
 40
9.0
 40
9.0
 40
9.0
 40
10.0
 40
10.0
 40
10.0
 40
11.0
 40
11.0
 40
11.0
 40
12.0
 40
12.0
 40
12.0
 40
13.0
 40
13.0
 40
13.0
 40
14.0
 40
14.0
 40
14.0
 40
15.0
 40
15.0
 40
15.0
 40
16.0
 40
16.0
 40
16.0
 40
17.0
 40
17.0
 40
17.0
 40
18.0
 40
18.0
 40
18.0
 40
19.0
 40
19.0
 40
19.0
 40
20.0
 40
20.0
 40
20.0
 40
21.0
 40
21.0
 40
21.0
 40
22.0
 40
22.0
 40
22.0
 40
23.0
 40
23.0
 40
23.0
 40
24.0
 40
24.0
 40
24.0
 40
25.0
 40
25.0
 40
25.0
 40
25.0
 10
237.3245535363178
 20
184.1915994819469
 30
0.0
 10
237.2236553022935
 20
183.2877786813916
 30
0.0
 10
237.0751286231857
 20
182.4315863259199
 30
0.0
 10
236.8652361807468
 20
181.5468212097674
 30
0.0
 10
236.6383981748899
 20
180.5943169036361
 30
0.0
 10
236.3533380553322
 20
179.7021448321903
 30
0.0
 10
235.9854018575076
 20
178.7944482992141
 30
0.0
 10
235.6396865255628
 20
177.9456628990357
 30
0.0
 10
235.2452661561952
 20
177.1624958019279
 30
0.0
 10
234.7693692786015
 20
176.3793287048201
 30
0.0
 10
233.6750562295587
 20
174.5882773916556
 30
0.0
 10
232.295704592805
 20
173.0769785978169
 30
0.0
 10
230.6118926425424
 20
171.8239112424444
 30
0.0
 10
229.8022521398151
 20
171.2192539210895
 30
0.0
 10
228.9820610321642
 20
170.706311501106
 30
0.0
 10
228.0835370659175
 20
170.2434629226627
 30
0.0
 10
227.2544963692389
 20
169.8141394296602
 30
0.0
 10
226.4360493411775
 20
169.4581857045701
 30
0.0
 10
225.556925568882
 20
169.1445635902551
 30
0.0
 10
224.5973803488528
 20
168.8006031038231
 30
0.0
 10
223.6614555647443
 20
168.5314334871911
 30
0.0
 10
222.6659306287411
 20
168.3130682630433
 30
0.0
 10
221.5786584935962
 20
168.0731819580359
 30
0.0
 10
220.5284426667646
 20
167.907020696413
 30
0.0
 10
219.4203707676276
 20
167.7997705675878
 30
0.0
 10
218.3800165266224
 20
167.6974727635227
 30
0.0
 10
217.3837810396753
 20
167.6484339824748
 30
0.0
 10
216.338496005757
 20
167.6484339824748
 30
0.0
 10
216.338496005757
 20
167.6484339824748
 30
0.0
 10
216.2845156658725
 20
167.6484339824748
 30
0.0
 10
216.2845156658725
 20
167.6484339824748
 30
0.0
 10
216.2845156658725
 20
167.6484339824748
 30
0.0
 10
181.6230439473785
 20
167.6484339824748
 30
0.0
 10
181.6230439473785
 20
167.6484339824748
 30
0.0
 10
181.6230439473785
 20
167.6484339824748
 30
0.0
 10
181.6230439473785
 20
206.4127022121229
 30
0.0
 10
181.6230439473785
 20
206.4127022121229
 30
0.0
 10
181.6230439473785
 20
206.4127022121229
 30
0.0
 10
216.2869918282525
 20
206.4127022121229
 30
0.0
 10
216.2869918282525
 20
206.4127022121229
 30
0.0
 10
216.2869918282525
 20
206.4127022121229
 30
0.0
 10
216.3705999893101
 20
206.4130682535183
 30
0.0
 10
216.3705999893101
 20
206.4130682535183
 30
0.0
 10
217.8427538856977
 20
206.4130682535183
 30
0.0
 10
219.2468025507113
 20
206.3135695895349
 30
0.0
 10
220.7041210046655
 20
206.1064978190246
 30
0.0
 10
221.7695167834791
 20
205.9537508979473
 30
0.0
 10
222.7766904485918
 20
205.7463130860417
 30
0.0
 10
223.8159680972578
 20
205.4658607816956
 30
0.0
 10
224.7691829543329
 20
205.2069187922855
 30
0.0
 10
225.6620655767225
 20
204.9017694596795
 30
0.0
 10
226.5743483930634
 20
204.5232395932377
 30
0.0
 10
227.4785137031673
 20
204.1464538063852
 30
0.0
 10
228.3142508041953
 20
203.7241927591276
 30
0.0
 10
229.153497596249
 20
203.2197231208531
 30
0.0
 10
229.9994623244988
 20
202.70995664827
 30
0.0
 10
230.7653501145634
 20
202.1564374630243
 30
0.0
 10
231.5150028921538
 20
201.5140348142591
 30
0.0
 10
233.2866432454435
 20
199.9882666193822
 30
0.0
 10
234.6670714745364
 20
198.159480744731
 30
0.0
 10
235.6481485413484
 20
196.0371512028896
 30
0.0
 10
236.0499543341624
 20
195.1724968316322
 30
0.0
 10
236.3685180073141
 20
194.3180700875967
 30
0.0
 10
236.6306251782013
 20
193.401200987891
 30
0.0
 10
236.8736981965324
 20
192.5577124220211
 30
0.0
 10
237.054673368742
 20
191.7382103334674
 30
0.0
 10
237.1887306468118
 20
190.8703692488861
 30
0.0
 10
237.3386568959605
 20
189.9115345798007
 30
0.0
 10
237.4268513403829
 20
188.989024136238
 30
0.0
 10
237.4610654449208
 20
188.0192297571401
 30
0.0
 10
237.4737692345226
 20
187.6830315014733
 30
0.0
 10
237.4801211293235
 20
187.3623577073369
 30
0.0
 10
237.4801211293235
 20
187.0258149421216
 30
0.0
 10
237.4801211293235
 20
186.0641380692609
 30
0.0
 10
237.4296720123115
 20
185.1472689695552
 30
0.0
 10
237.3245535363178
 20
184.1915994819469
 30
0.0
  0
SPLINE
  5
B8
330
AC
100
AcDbEntity
  8
レイヤー 1
  6
AI-Linetype-10
 62
   112
370
    18
100
AcDbSpline
210
0.0
220
0.0
230
1.0
 70
     9
 71
     3
 72
   116
 73
   112
 74
     0
 42
0.0000000001
 43
0.0000000001
 40
0.0
 40
0.0
 40
0.0
 40
0.0
 40
1.0
 40
1.0
 40
1.0
 40
2.0
 40
2.0
 40
2.0
 40
3.0
 40
3.0
 40
3.0
 40
4.0
 40
4.0
 40
4.0
 40
5.0
 40
5.0
 40
5.0
 40
6.0
 40
6.0
 40
6.0
 40
7.0
 40
7.0
 40
7.0
 40
8.0
 40
8.0
 40
8.0
 40
9.0
 40
9.0
 40
9.0
 40
10.0
 40
10.0
 40
10.0
 40
11.0
 40
11.0
 40
11.0
 40
12.0
 40
12.0
 40
12.0
 40
13.0
 40
13.0
 40
13.0
 40
14.0
 40
14.0
 40
14.0
 40
15.0
 40
15.0
 40
15.0
 40
16.0
 40
16.0
 40
16.0
 40
17.0
 40
17.0
 40
17.0
 40
18.0
 40
18.0
 40
18.0
 40
19.0
 40
19.0
 40
19.0
 40
20.0
 40
20.0
 40
20.0
 40
21.0
 40
21.0
 40
21.0
 40
22.0
 40
22.0
 40
22.0
 40
23.0
 40
23.0
 40
23.0
 40
24.0
 40
24.0
 40
24.0
 40
25.0
 40
25.0
 40
25.0
 40
26.0
 40
26.0
 40
26.0
 40
27.0
 40
27.0
 40
27.0
 40
28.0
 40
28.0
 40
28.0
 40
29.0
 40
29.0
 40
29.0
 40
30.0
 40
30.0
 40
30.0
 40
31.0
 40
31.0
 40
31.0
 40
32.0
 40
32.0
 40
32.0
 40
33.0
 40
33.0
 40
33.0
 40
34.0
 40
34.0
 40
34.0
 40
35.0
 40
35.0
 40
35.0
 40
36.0
 40
36.0
 40
36.0
 40
37.0
 40
37.0
 40
37.0
 40
37.0
 10
250.7399706743484
 20
114.9677779016237
 30
0.0
 10
254.0363241620226
 20
116.1594579618184
 30
0.0
 10
257.1037295228551
 20
117.5063611054704
 30
0.0
 10
260.2117008830266
 20
119.1270309150424
 30
0.0
 10
263.8650739222065
 20
121.0355599842539
 30
0.0
 10
267.1988282277424
 20
123.1451642046466
 30
0.0
 10
270.487408718728
 20
125.6297778345322
 30
0.0
 10
277.3697620969987
 20
130.838902165234
 30
0.0
 10
283.0586482717917
 20
137.0047510440365
 30
0.0
 10
287.6973401516
 20
144.2839578903613
 30
0.0
 10
289.9607463535623
 20
147.8329014726446
 30
0.0
 10
291.8350720841593
 20
151.4001901883869
 30
0.0
 10
293.4737102198716
 20
155.2779250710438
 30
0.0
 10
295.0509825922529
 20
159.0043233685876
 30
0.0
 10
296.2807740212532
 20
162.6753202243594
 30
0.0
 10
297.2660713300346
 20
166.6003282766279
 30
0.0
 10
298.2711348741627
 20
170.5934200284237
 30
0.0
 10
298.9452969969325
 20
174.4736203075372
 30
0.0
 10
299.3467582801981
 20
178.57184130125
 30
0.0
 10
299.6282656450365
 20
181.4317980842536
 30
0.0
 10
299.7626889645016
 20
184.1718332466003
 30
0.0
 10
299.7626889645016
 20
187.0459041551699
 30
0.0
 10
299.7626889645016
 20
187.7737021082757
 30
0.0
 10
299.754226948716
 20
188.4676089345454
 30
0.0
 10
299.7362263248056
 20
189.1950408462559
 30
0.0
 10
299.6317968679089
 20
193.5387894888332
 30
0.0
 10
299.219763447873
 20
197.6744113004078
 30
0.0
 10
298.4648138359741
 20
201.9536074663302
 30
0.0
 10
297.7483201024293
 20
206.0010133016356
 30
0.0
 10
296.7721953603773
 20
209.8099539338214
 30
0.0
 10
295.4534989360108
 20
213.7032132780086
 30
0.0
 10
294.1514035655138
 20
217.5375614893982
 30
0.0
 10
292.6217596382161
 20
221.0970772084519
 30
0.0
 10
290.7354622008079
 20
224.6802564271199
 30
0.0
 10
288.6960518009271
 20
228.5481081921034
 30
0.0
 10
286.4216858889523
 20
232.0652923003821
 30
0.0
 10
283.7310447831254
 20
235.5126486295441
 30
0.0
 10
278.6214083504835
 20
242.0482100835309
 30
0.0
 10
272.6495937089643
 20
247.4510026101208
 30
0.0
 10
265.6363697659477
 20
251.8829456971204
 30
0.0
 10
262.4582045852644
 20
253.8937833363204
 30
0.0
 10
259.2835490956066
 20
255.5842916909325
 30
0.0
 10
255.8411450912046
 20
257.0991217076436
 30
0.0
 10
252.8838105311258
 20
258.4026381800283
 30
0.0
 10
249.9882077757733
 20
259.4740198122474
 30
0.0
 10
246.8943397752447
 20
260.4095785549605
 30
0.0
 10
243.8639907227254
 20
261.3278687565539
 30
0.0
 10
240.9264008661465
 20
262.0429413882111
 30
0.0
 10
237.8131326716665
 20
262.619736499829
 30
0.0
 10
234.7760656829509
 20
263.1848828823375
 30
0.0
 10
231.8540218197492
 20
263.5789372103097
 30
0.0
 10
228.7763888316948
 20
263.8389342602122
 30
0.0
 10
225.9005307798422
 20
264.0834068485842
 30
0.0
 10
223.1492344616281
 20
264.2001740536874
 30
0.0
 10
220.2631487825536
 20
264.2001740536874
 30
0.0
 10
220.2631487825536
 20
264.2001740536874
 30
0.0
 10
220.1911893506054
 20
264.2001740536874
 30
0.0
 10
220.1911893506054
 20
264.2001740536874
 30
0.0
 10
220.1911893506054
 20
264.2001740536874
 30
0.0
 10
138.6046318555398
 20
264.2001740536874
 30
0.0
 10
138.6046318555398
 20
264.2001740536874
 30
0.0
 10
138.6046318555398
 20
264.2001740536874
 30
0.0
 10
138.6035767950474
 20
264.2001740536874
 30
0.0
 10
138.6035767950474
 20
264.2001740536874
 30
0.0
 10
128.4601498600562
 20
264.2001740536874
 30
0.0
 10
120.2372559988578
 20
255.9769249170171
 30
0.0
 10
120.2372559988578
 20
245.8338532574977
 30
0.0
 10
120.2372559988578
 20
245.8338532574977
 30
0.0
 10
120.2372559988578
 20
245.8327981970054
 30
0.0
 10
120.2372559988578
 20
245.8327981970054
 30
0.0
 10
120.2372559988578
 20
245.8327981970054
 30
0.0
 10
120.2372559988578
 20
51.16721486825746
 30
0.0
 10
120.2372559988578
 20
51.16721486825746
 30
0.0
 10
120.2372559988578
 20
51.16721486825746
 30
0.0
 10
120.2372559988578
 20
51.16615980776511
 30
0.0
 10
120.2372559988578
 20
51.16615980776511
 30
0.0
 10
120.2372559988578
 20
41.02308814824574
 30
0.0
 10
128.4605051355281
 20
32.79983901157543
 30
0.0
 10
138.6035767950474
 20
32.79983901157543
 30
0.0
 10
138.6035767950474
 20
32.79983901157543
 30
0.0
 10
138.6046318555398
 20
32.79983901157543
 30
0.0
 10
138.6046318555398
 20
32.79983901157543
 30
0.0
 10
138.6046318555398
 20
32.79983901157543
 30
0.0
 10
163.2556788566199
 20
32.79983901157543
 30
0.0
 10
163.2556788566199
 20
32.79983901157543
 30
0.0
 10
163.2556788566199
 20
32.79983901157543
 30
0.0
 10
163.2567446830356
 20
32.79983901157543
 30
0.0
 10
163.2567446830356
 20
32.79983901157543
 30
0.0
 10
173.4001608521035
 20
32.79983901157543
 30
0.0
 10
181.6230439473785
 20
41.02308814824574
 30
0.0
 10
181.6230439473785
 20
51.16615980776511
 30
0.0
 10
181.6230439473785
 20
51.16615980776511
 30
0.0
 10
181.6230439473785
 20
51.16721486825746
 30
0.0
 10
181.6230439473785
 20
51.16721486825746
 30
0.0
 10
181.6230439473785
 20
51.16721486825746
 30
0.0
 10
181.6230439473785
 20
109.8616726918542
 30
0.0
 10
181.6230439473785
 20
109.8616726918542
 30
0.0
 10
181.6230439473785
 20
109.8616726918542
 30
0.0
 10
220.190134290113
 20
109.8616726918542
 30
0.0
 10
220.190134290113
 20
109.8616726918542
 30
0.0
 10
220.2261140060872
 20
109.8616726918542
 30
0.0
 10
220.2603281106251
 20
109.8616726918542
 30
0.0
 10
220.2959633170506
 20
109.8616726918542
 30
0.0
 10
224.0541103226757
 20
109.8616726918542
 30
0.0
 10
227.6369019681016
 20
110.0638136694513
 30
0.0
 10
231.3707179868622
 20
110.4860854826324
 30
0.0
 10
234.7774867848386
 20
110.8737879158037
 30
0.0
 10
238.0047015124932
 20
111.427296335126
 30
0.0
 10
241.3462072828709
 20
112.1977704085554
 30
0.0
 10
244.5787188448341
 20
112.9460128501815
 30
0.0
 10
247.6186065054782
 20
113.8420606540481
 30
0.0
 10
250.7399706743484
 20
114.9677779016237
 30
0.0
  0
LWPOLYLINE
  5
BA
330
AC
100
AcDbEntity
  8
レイヤー 1
100
AcDbPolyline
 90
        4
 70
     1
 43
0.0
 10
0.0
 20
297.0000884267266
 10
419.9999449633593
 20
297.0000884267266
 10
419.9999449633593
 20
0.0
 10
0.0
 20
0.0
  0
ENDBLK
  5
AF
330
AC
100
AcDbEntity
  8
0
100
AcDbBlockEnd
  0
BLOCK
  5
C5
330
C3
100
AcDbEntity
  8
0
100
AcDbBlockBegin
  2
Block_5
 70
     0
 10
0.0
 20
0.0
 30
0.0
  3
Block_5
  1

  0
SPLINE
  5
C7
330
C3
100
AcDbEntity
  8
レイヤー 1
 62
   252
370
    18
100
AcDbSpline
210
0.0
220
0.0
230
1.0
 70
     9
 71
     3
 72
    17
 73
    13
 74
     0
 42
0.0000000001
 43
0.0000000001
 40
0.0
 40
0.0
 40
0.0
 40
0.0
 40
1.0
 40
1.0
 40
1.0
 40
2.0
 40
2.0
 40
2.0
 40
3.0
 40
3.0
 40
3.0
 40
4.0
 40
4.0
 40
4.0
 40
4.0
 10
154.9301534477312
 20
160.0763078925167
 30
0.0
 10
154.9301534477312
 20
162.2854000109694
 30
0.0
 10
153.1390913686434
 20
164.0764513241339
 30
0.0
 10
150.9299992501907
 20
164.0764513241339
 30
0.0
 10
148.7209071317379
 20
164.0764513241339
 30
0.0
 10
146.9302110940454
 20
162.2854000109694
 30
0.0
 10
146.9302110940454
 20
160.0763078925167
 30
0.0
 10
146.9302110940454
 20
157.8672050081406
 30
0.0
 10
148.7209071317379
 20
156.0761536949762
 30
0.0
 10
150.9299992501907
 20
156.0761536949762
 30
0.0
 10
153.1390913686434
 20
156.0761536949762
 30
0.0
 10
154.9301534477312
 20
157.8672050081406
 30
0.0
 10
154.9301534477312
 20
160.0763078925167
 30
0.0
  0
LWPOLYLINE
  5
C8
330
C3
100
AcDbEntity
  8
レイヤー 1
100
AcDbPolyline
 90
        4
 70
     1
 43
0.0
 10
0.0
 20
297.0000884267266
 10
419.9999449633593
 20
297.0000884267266
 10
419.9999449633593
 20
0.0
 10
0.0
 20
0.0
  0
ENDBLK
  5
C6
330
C3
100
AcDbEntity
  8
0
100
AcDbBlockEnd
  0
BLOCK
  5
D6
330
D4
100
AcDbEntity
  8
0
100
AcDbBlockBegin
  2
Block_6
 70
     0
 10
0.0
 20
0.0
 30
0.0
  3
Block_6
  1

  0
SPLINE
  5
D8
330
D4
100
AcDbEntity
  8
レイヤー 1
 62
   112
370
    18
100
AcDbSpline
210
0.0
220
0.0
230
1.0
 70
     9
 71
     3
 72
    65
 73
    61
 74
     0
 42
0.0000000001
 43
0.0000000001
 40
0.0
 40
0.0
 40
0.0
 40
0.0
 40
1.0
 40
1.0
 40
1.0
 40
2.0
 40
2.0
 40
2.0
 40
3.0
 40
3.0
 40
3.0
 40
4.0
 40
4.0
 40
4.0
 40
5.0
 40
5.0
 40
5.0
 40
6.0
 40
6.0
 40
6.0
 40
7.0
 40
7.0
 40
7.0
 40
8.0
 40
8.0
 40
8.0
 40
9.0
 40
9.0
 40
9.0
 40
10.0
 40
10.0
 40
10.0
 40
11.0
 40
11.0
 40
11.0
 40
12.0
 40
12.0
 40
12.0
 40
13.0
 40
13.0
 40
13.0
 40
14.0
 40
14.0
 40
14.0
 40
15.0
 40
15.0
 40
15.0
 40
16.0
 40
16.0
 40
16.0
 40
17.0
 40
17.0
 40
17.0
 40
18.0
 40
18.0
 40
18.0
 40
19.0
 40
19.0
 40
19.0
 40
20.0
 40
20.0
 40
20.0
 40
20.0
 10
364.0530153847897
 20
253.2064221914727
 30
0.0
 10
366.6529858838142
 20
253.9031496896709
 30
0.0
 10
368.5001168919245
 20
255.8102684229181
 30
0.0
 10
368.5001168919245
 20
258.5019645892374
 30
0.0
 10
368.5001168919245
 20
258.5019645892374
 30
0.0
 10
368.5001168919245
 20
264.205664674617
 30
0.0
 10
368.5001168919245
 20
264.205664674617
 30
0.0
 10
368.5001168919245
 20
264.205664674617
 30
0.0
 10
366.5001958990434
 20
264.205664674617
 30
0.0
 10
366.5001958990434
 20
264.205664674617
 30
0.0
 10
366.5001958990434
 20
264.205664674617
 30
0.0
 10
366.5001958990434
 20
258.5019645892374
 30
0.0
 10
366.5001958990434
 20
258.5019645892374
 30
0.0
 10
366.5001958990434
 20
257.1561165060777
 30
0.0
 10
365.576651926835
 20
255.952443207225
 30
0.0
 10
364.276645145476
 20
255.6042517129001
 30
0.0
 10
364.276645145476
 20
255.6042517129001
 30
0.0
 10
339.9473377649481
 20
249.6916927137273
 30
0.0
 10
339.9473377649481
 20
249.6916927137273
 30
0.0
 10
337.3473672659236
 20
248.9949436836823
 30
0.0
 10
335.5002362578133
 20
246.5875970859768
 30
0.0
 10
335.5002362578133
 20
243.8959009196576
 30
0.0
 10
335.5002362578133
 20
243.8959009196576
 30
0.0
 10
335.5002362578133
 20
53.11191744006404
 30
0.0
 10
335.5002362578133
 20
53.11191744006404
 30
0.0
 10
335.5002362578133
 20
50.42022127374477
 30
0.0
 10
337.3473672659236
 20
48.01287467603931
 30
0.0
 10
339.9473377649481
 20
47.3161471778411
 30
0.0
 10
339.9473377649481
 20
47.3161471778411
 30
0.0
 10
364.276645145476
 20
41.4035881786682
 30
0.0
 10
364.276645145476
 20
41.4035881786682
 30
0.0
 10
365.5763074172865
 20
41.05539668434335
 30
0.0
 10
366.5001958990434
 20
39.85172338549063
 30
0.0
 10
366.5001958990434
 20
38.505875302331
 30
0.0
 10
366.5001958990434
 20
38.505875302331
 30
0.0
 10
366.5001958990434
 20
32.80568490797697
 30
0.0
 10
366.5001958990434
 20
32.80568490797697
 30
0.0
 10
366.5001958990434
 20
32.80568490797697
 30
0.0
 10
368.5001168919245
 20
32.80568490797697
 30
0.0
 10
368.5001168919245
 20
32.80568490797697
 30
0.0
 10
368.5001168919245
 20
32.80568490797697
 30
0.0
 10
368.5001168919245
 20
38.505875302331
 30
0.0
 10
368.5001168919245
 20
38.505875302331
 30
0.0
 10
368.5001168919245
 20
41.19757146865025
 30
0.0
 10
366.6529858838142
 20
43.10466867005065
 30
0.0
 10
364.0530153847897
 20
43.80141770009565
 30
0.0
 10
364.0530153847897
 20
43.80141770009565
 30
0.0
 10
339.723686472415
 20
49.71397669926855
 30
0.0
 10
339.723686472415
 20
49.71397669926855
 30
0.0
 10
338.4240457324513
 20
50.06251270314193
 30
0.0
 10
337.5001357188476
 20
51.7660693569044
 30
0.0
 10
337.5001357188476
 20
53.11191744006404
 30
0.0
 10
337.5001357188476
 20
53.11191744006404
 30
0.0
 10
337.5001357188476
 20
243.8959009196576
 30
0.0
 10
337.5001357188476
 20
243.8959009196576
 30
0.0
 10
337.5001357188476
 20
245.2417490028172
 30
0.0
 10
338.4240457324513
 20
246.9453056565797
 30
0.0
 10
339.723686472415
 20
247.2938631922998
 30
0.0
 10
339.723686472415
 20
247.2938631922998
 30
0.0
 10
364.0530153847897
 20
253.2064221914727
 30
0.0
 10
364.0530153847897
 20
253.2064221914727
 30
0.0
  0
LWPOLYLINE
  5
D9
330
D4
100
AcDbEntity
  8
レイヤー 1
100
AcDbPolyline
 90
        4
 70
     1
 43
0.0
 10
0.0
 20
297.0000884267266
 10
419.9999449633593
 20
297.0000884267266
 10
419.9999449633593
 20
0.0
 10
0.0
 20
0.0
  0
ENDBLK
  5
D7
330
D4
100
AcDbEntity
  8
0
100
AcDbBlockEnd
  0
BLOCK
  5
EE
330
EC
100
AcDbEntity
  8
0
100
AcDbBlockBegin
  2
Block_7
 70
     0
 10
0.0
 20
0.0
 30
0.0
  3
Block_7
  1

  0
CIRCLE
  5
F0
330
EC
100
AcDbEntity
  8
レイヤー 1
 62
   252
370
    18
100
AcDbCircle
 10
15.14019914619443
 20
21.27267534465911
 30
0.0
 40
2.296229988425062
  0
SPLINE
  5
F1
330
EC
100
AcDbEntity
  8
レイヤー 1
100
AcDbSpline
210
0.0
220
0.0
230
1.0
 70
     9
 71
     3
 72
    17
 73
    13
 74
     0
 42
0.0000000001
 43
0.0000000001
 40
0.0
 40
0.0
 40
0.0
 40
0.0
 40
1.0
 40
1.0
 40
1.0
 40
2.0
 40
2.0
 40
2.0
 40
3.0
 40
3.0
 40
3.0
 40
4.0
 40
4.0
 40
4.0
 40
4.0
 10
15.1402701340018
 20
16.34818116944947
 30
0.0
 10
15.93296103608973
 20
16.34818116944947
 30
0.0
 10
16.57536906781661
 20
15.70577179198217
 30
0.0
 10
16.57536906781661
 20
14.91308088989423
 30
0.0
 10
16.57536906781661
 20
14.12038864206588
 30
0.0
 10
15.93296103608973
 20
13.477980610339
 30
0.0
 10
15.1402701340018
 20
13.477980610339
 30
0.0
 10
14.34757788617344
 20
13.477980610339
 30
0.0
 10
13.70516985444656
 20
14.12038864206588
 30
0.0
 10
13.70516985444656
 20
14.91308088989423
 30
0.0
 10
13.70516985444656
 20
15.70577179198217
 30
0.0
 10
14.34757788617344
 20
16.34818116944947
 30
0.0
 10
15.1402701340018
 20
16.34818116944947
 30
0.0
  0
CIRCLE
  5
F2
330
EC
100
AcDbEntity
  8
レイヤー 1
 62
    29
370
    18
100
AcDbCircle
 10
15.14026979756669
 20
14.91308088989423
 30
0.0
 40
1.435099774902663
  0
LWPOLYLINE
  5
F3
330
EC
100
AcDbEntity
  8
レイヤー 1
100
AcDbPolyline
 90
        4
 70
     1
 43
0.0
 10
0.0
 20
297.0000884267266
 10
419.9999449633593
 20
297.0000884267266
 10
419.9999449633593
 20
0.0
 10
0.0
 20
0.0
  0
ENDBLK
  5
EF
330
EC
100
AcDbEntity
  8
0
100
AcDbBlockEnd
  0
BLOCK
  5
F9
330
F7
100
AcDbEntity
  8
0
100
AcDbBlockBegin
  2
Block_8
 70
     0
 10
0.0
 20
0.0
 30
0.0
  3
Block_8
  1

  0
LWPOLYLINE
  5
FB
330
F7
100
AcDbEntity
  8
レイヤー 1
100
AcDbPolyline
 90
        4
 70
     1
 43
0.0
 10
224.9480480055577
 20
291.8615131920086
 10
194.853287203077
 20
291.8615131920086
 10
194.853287203077
 20
278.7082032248651
 10
224.9480480055577
 20
278.7082032248651
  0
LWPOLYLINE
  5
FC
330
F7
100
AcDbEntity
  8
レイヤー 1
100
AcDbPolyline
 90
        4
 70
     1
 43
0.0
 10
0.0
 20
297.0000884267266
 10
419.9999449633593
 20
297.0000884267266
 10
419.9999449633593
 20
0.0
 10
0.0
 20
0.0
  0
ENDBLK
  5
FA
330
F7
100
AcDbEntity
  8
0
100
AcDbBlockEnd
  0
ENDSEC
  0
SECTION
  2
ENTITIES
  0
INSERT
  5
7A
330
70
100
AcDbEntity
  8
レイヤー 1
100
AcDbBlockReference
  2
Block_0
 10
0.0
 20
0.0
 30
0.0
  0
LINE
  5
87
330
70
100
AcDbEntity
  8
レイヤー 1
  6
AI-Linetype-0
 62
    29
370
    25
100
AcDbLine
 10
3.347578760475802
 20
148.5000011496697
 30
0.0
 11
4.400267385336396
 21
148.5000011496697
 31
0.0
  0
LINE
  5
89
330
70
100
AcDbEntity
  8
レイヤー 1
  6
AI-Linetype-1
 62
    29
370
    25
100
AcDbLine
 10
4.750928986209355
 20
148.5000011496697
 30
0.0
 11
417.0031425281276
 21
148.5000011496697
 31
0.0
  0
INSERT
  5
8C
330
70
100
AcDbEntity
  8
レイヤー 1
100
AcDbBlockReference
  2
Block_1
 10
0.0
 20
0.0
 30
0.0
  0
LINE
  5
94
330
70
100
AcDbEntity
  8
レイヤー 1
  6
AI-Linetype-3
 62
    29
370
    25
100
AcDbLine
 10
1.057451368438419
 20
248.5000126535326
 30
0.0
 11
2.11437352445513
 21
248.5000126535326
 31
0.0
  0
LINE
  5
96
330
70
100
AcDbEntity
  8
レイヤー 1
  6
AI-Linetype-4
 62
    29
370
    25
100
AcDbLine
 10
2.46683387562222
 20
248.5000126535326
 30
0.0
 11
419.2949492359965
 21
248.5000126535326
 31
0.0
  0
INSERT
  5
99
330
70
100
AcDbEntity
  8
レイヤー 1
100
AcDbBlockReference
  2
Block_2
 10
0.0
 20
0.0
 30
0.0
  0
LINE
  5
9F
330
70
100
AcDbEntity
  8
レイヤー 1
  6
AI-Linetype-5
 62
    29
370
    25
100
AcDbLine
 10
1.057451368438419
 20
48.49999502876856
 30
0.0
 11
2.11437352445513
 21
48.49999502876856
 31
0.0
  0
LINE
  5
A1
330
70
100
AcDbEntity
  8
レイヤー 1
  6
AI-Linetype-6
 62
    29
370
    25
100
AcDbLine
 10
2.46683387562222
 20
48.49999502876856
 30
0.0
 11
419.2949492359965
 21
48.49999502876856
 31
0.0
  0
INSERT
  5
A4
330
70
100
AcDbEntity
  8
レイヤー 1
100
AcDbBlockReference
  2
Block_3
 10
0.0
 20
0.0
 30
0.0
  0
LWPOLYLINE
  5
AA
330
70
100
AcDbEntity
  8
レイヤー 1
100
AcDbPolyline
 90
        4
 70
     1
 43
0.0
 10
0.0
 20
29.41778608222482
 10
420.0002894729079
 20
29.41778608222482
 10
420.0002894729079
 20
29.59417497106961
 10
0.0
 20
29.59417497106961
  0
HATCH
  5
AB
330
70
100
AcDbEntity
  8
レイヤー 1
 62
    29
440
 33554687
100
AcDbHatch
 10
0.0
 20
0.0
 30
0.0
210
0.0
220
0.0
230
1.0
  2
SOLID
 70
     1
 71
     1
 91
        1
 92
        1
 93
        4
 72
     1
 10
0.0
 20
29.41778608222482
 11
420.0002894729079
 21
29.41778608222482
 72
     1
 10
420.0002894729079
 20
29.41778608222482
 11
420.0002894729079
 21
29.59417497106961
 72
     1
 10
420.0002894729079
 20
29.59417497106961
 11
0.0
 21
29.59417497106961
 72
     1
 10
0.0
 20
29.59417497106961
 11
0.0
 21
29.41778608222482
 97
        1
330
AA
 75
     2
 76
     1
 98
        1
 10
0.0
 20
0.0
450
        0
451
        0
460
0.0
461
0.0
452
        0
462
0.0
453
        0
470

  0
INSERT
  5
AD
330
70
100
AcDbEntity
  8
レイヤー 1
100
AcDbBlockReference
  2
Block_4
 10
0.0
 20
0.0
 30
0.0
  0
LINE
  5
BB
330
70
100
AcDbEntity
  8
レイヤー 1
 62
   252
370
    18
100
AcDbLine
 10
145.9301214065242
 20
58.27000052796723
 30
0.0
 11
155.9299524553209
 21
58.27000052796723
 31
0.0
  0
LINE
  5
BC
330
70
100
AcDbEntity
  8
レイヤー 1
 62
   252
370
    18
100
AcDbLine
 10
150.9301499731181
 20
53.27000964210514
 30
0.0
 11
150.9301499731181
 21
63.26984607386354
 31
0.0
  0
LINE
  5
BD
330
70
100
AcDbEntity
  8
レイヤー 1
 62
   252
370
    18
100
AcDbLine
 10
145.9301214065242
 20
235.3064381329052
 30
0.0
 11
155.9299524553209
 21
235.3064381329052
 31
0.0
  0
LINE
  5
BE
330
70
100
AcDbEntity
  8
レイヤー 1
 62
   252
370
    18
100
AcDbLine
 10
150.9301499731181
 20
230.3064633959282
 30
0.0
 11
150.9301499731181
 21
240.3062836788015
 31
0.0
  0
LINE
  5
BF
330
70
100
AcDbEntity
  8
レイヤー 1
 62
   252
370
    18
100
AcDbLine
 10
263.5458212299578
 20
189.7159823473193
 30
0.0
 11
273.545641512831
 21
189.7159823473193
 31
0.0
  0
LINE
  5
C0
330
70
100
AcDbEntity
  8
レイヤー 1
 62
   252
370
    18
100
AcDbLine
 10
268.5457959669347
 20
184.7159860784955
 30
0.0
 11
268.5457959669347
 21
194.7158063613688
 31
0.0
  0
LINE
  5
C1
330
70
100
AcDbEntity
  8
レイヤー 1
 62
   252
370
    18
100
AcDbLine
 10
145.9301214065242
 20
160.0763078925167
 30
0.0
 11
155.9299524553209
 21
160.0763078925167
 31
0.0
  0
LINE
  5
C2
330
70
100
AcDbEntity
  8
レイヤー 1
 62
   252
370
    18
100
AcDbLine
 10
150.9301499731181
 20
155.0762793259228
 30
0.0
 11
150.9301499731181
 21
165.0761103747195
 31
0.0
  0
INSERT
  5
C4
330
70
100
AcDbEntity
  8
レイヤー 1
100
AcDbBlockReference
  2
Block_5
 10
0.0
 20
0.0
 30
0.0
  0
LWPOLYLINE
  5
C9
330
70
100
AcDbEntity
  8
レイヤー 1
 62
   140
370
    18
100
AcDbPolyline
 90
        4
 70
     1
 43
0.0
 10
365.999881907198
 20
267.5057431717846
 10
364.9997706878299
 20
267.5057431717846
 10
364.9997706878299
 20
261.4058571056012
 10
365.999881907198
 20
261.4058571056012
  0
LWPOLYLINE
  5
CA
330
70
100
AcDbEntity
  8
レイヤー 1
 62
   140
370
    18
100
AcDbPolyline
 90
        4
 70
     1
 43
0.0
 10
415.0000348219228
 20
267.5057431717846
 10
365.9999249708915
 20
267.5057431717846
 10
365.9999249708915
 20
267.0058598168749
 10
415.0000348219228
 20
267.0058598168749
  0
LWPOLYLINE
  5
CB
330
70
100
AcDbEntity
  8
レイヤー 1
 62
     1
370
    18
100
AcDbPolyline
 90
        4
 70
     1
 43
0.0
 10
370.0000253388151
 20
266.2057579222724
 10
368.9999141194471
 20
266.2057579222724
 10
368.9999141194471
 20
260.4057458862332
 10
370.0000253388151
 20
260.4057458862332
  0
LWPOLYLINE
  5
CC
330
70
100
AcDbEntity
  8
レイヤー 1
 62
     1
370
    18
100
AcDbPolyline
 90
        4
 70
     1
 43
0.0
 10
413.9998805388611
 20
266.2057579222724
 10
370.0000253388151
 20
266.2057579222724
 10
370.0000253388151
 20
265.7058745673626
 10
413.9998805388611
 20
265.7058745673626
  0
LWPOLYLINE
  5
CD
330
70
100
AcDbEntity
  8
レイヤー 1
 62
     1
370
    18
100
AcDbPolyline
 90
        7
 70
     0
 43
0.0
 10
414.9999917582292
 20
266.205693326732
 10
413.9998374751675
 20
266.205693326732
 10
413.9998374751675
 20
185.3860571503766
 10
413.9998374751675
 20
30.80554859662804
 10
414.9999917582292
 20
30.80554859662804
 10
414.9999917582292
 20
185.3860571503766
 10
414.9999917582292
 20
266.205693326732
  0
LINE
  5
CE
330
70
100
AcDbEntity
  8
レイヤー 1
 62
   133
370
    18
100
AcDbLine
 10
390.4999798964071
 20
274.3765770120266
 30
0.0
 11
390.4999798964071
 21
262.5257069249285
 31
0.0
  0
LWPOLYLINE
  5
CF
330
70
100
AcDbEntity
  8
レイヤー 1
 62
   140
370
    18
100
AcDbPolyline
 90
        4
 70
     1
 43
0.0
 10
365.999881907198
 20
29.50562794265615
 10
364.9997706878299
 20
29.50562794265615
 10
364.9997706878299
 20
35.60550862587781
 10
365.999881907198
 20
35.60550862587781
  0
LWPOLYLINE
  5
D0
330
70
100
AcDbEntity
  8
レイヤー 1
 62
   140
370
    18
100
AcDbPolyline
 90
        4
 70
     1
 43
0.0
 10
415.0000348219228
 20
29.50562794265615
 10
365.9999249708915
 20
29.50562794265615
 10
365.9999249708915
 20
30.00551398904675
 10
415.0000348219228
 20
30.00551398904675
  0
LWPOLYLINE
  5
D1
330
70
100
AcDbEntity
  8
レイヤー 1
 62
     1
370
    18
100
AcDbPolyline
 90
        4
 70
     1
 43
0.0
 10
370.0000253388151
 20
30.80561319216839
 10
368.9999141194471
 20
30.80561319216839
 10
368.9999141194471
 20
36.60563330265008
 10
370.0000253388151
 20
36.60563330265008
  0
LWPOLYLINE
  5
D2
330
70
100
AcDbEntity
  8
レイヤー 1
 62
     1
370
    18
100
AcDbPolyline
 90
        4
 70
     1
 43
0.0
 10
413.9998805388611
 20
30.80561319216839
 10
370.0000253388151
 20
30.80561319216839
 10
370.0000253388151
 20
31.30549923855899
 10
413.9998805388611
 20
31.30549923855899
  0
LINE
  5
D3
330
70
100
AcDbEntity
  8
レイヤー 1
 62
   133
370
    18
100
AcDbLine
 10
390.4999798964071
 20
22.63475103872066
 30
0.0
 11
390.4999798964071
 21
34.48561305137616
 31
0.0
  0
INSERT
  5
D5
330
70
100
AcDbEntity
  8
レイヤー 1
100
AcDbBlockReference
  2
Block_6
 10
0.0
 20
0.0
 30
0.0
  0
LINE
  5
DA
330
70
100
AcDbEntity
  8
レイヤー 1
 62
    29
370
    35
100
AcDbLine
 10
72.19847851113875
 20
48.49999502876856
 30
0.0
 11
72.19847851113875
 21
248.4999480579922
 31
0.0
  0
LINE
  5
DB
330
70
100
AcDbEntity
  8
レイヤー 1
 62
    29
370
    35
100
AcDbLine
 10
72.19847851113875
 20
248.4999911216858
 30
0.0
 11
69.62637560481292
 21
240.9537032478671
 31
0.0
  0
LINE
  5
DC
330
70
100
AcDbEntity
  8
レイヤー 1
 62
    29
370
    35
100
AcDbLine
 10
72.19847851113875
 20
248.4999911216858
 30
0.0
 11
74.7705760345029
 21
240.9537032478671
 31
0.0
  0
LINE
  5
DD
330
70
100
AcDbEntity
  8
レイヤー 1
 62
    29
370
    35
100
AcDbLine
 10
72.19847851113875
 20
48.49999502876856
 30
0.0
 11
74.7705760345029
 21
56.04626137074049
 31
0.0
  0
LINE
  5
DE
330
70
100
AcDbEntity
  8
レイヤー 1
 62
    29
370
    35
100
AcDbLine
 10
72.19847851113875
 20
48.49999502876856
 30
0.0
 11
69.62637560481292
 21
56.04626137074049
 31
0.0
  0
MTEXT
  5
DF
330
70
100
AcDbEntity
  8
レイヤー 1
100
AcDbMText
 10
69.10411527813413
 20
109.3990071341086
 30
0.0
 40
0.2
 41
0.0
 46
0.0
 71
     7
 72
     1
  1
\C29;\FMS UI Gothic|b0|i0|c128;\H5.696928;\W1.000000;TOP面 H200(基準寸)
 11
-0.0000000000000002
 21
1.0
 31
0.0
 73
     1
 44
1.0
  0
MTEXT
  5
E0
330
70
100
AcDbEntity
  8
レイヤー 1
100
AcDbMText
 10
332.2202039100005
 20
16.17920192737817
 30
0.0
 40
0.2
 41
0.0
 46
0.0
 71
     7
 72
     1
  1
\C29;\FKozuka Gothic Pr6N R|b0|i0|c128;\H3.102177;\W1.000000;※成型文字の断面は
 73
     1
 44
1.0
  0
MTEXT
  5
E1
330
70
100
AcDbEntity
  8
レイヤー 1
100
AcDbMText
 10
332.2202039100005
 20
8.511452905857606
 30
0.0
 40
0.2
 41
0.0
 46
0.0
 71
     7
 72
     1
  1
\C29;\FKozuka Gothic Pr6N R|b0|i0|c128;\H3.102177;\W1.000000;　実際のものと異なる場合があります
 73
     1
 44
1.0
  0
MTEXT
  5
E2
330
70
100
AcDbEntity
  8
レイヤー 1
100
AcDbMText
 10
20.53139105389461
 20
40.79992132226466
 30
0.0
 40
0.2
 41
0.0
 46
0.0
 71
     7
 72
     1
  1
\C29;\FKozuka Gothic Pr6N R|b0|i0|c128;\H2.497667;\W1.000000;材質：アクリル
 73
     1
 44
1.0
  0
MTEXT
  5
E3
330
70
100
AcDbEntity
  8
レイヤー 1
100
AcDbMText
 10
20.53139105389461
 20
34.62631021269695
 30
0.0
 40
0.2
 41
0.0
 46
0.0
 71
     7
 72
     1
  1
\C29;\FKozuka Gothic Pr6N R|b0|i0|c128;\H2.497667;\W1.000000;色：乳白色
 73
     1
 44
1.0
  0
SPLINE
  5
E4
330
70
100
AcDbEntity
  8
レイヤー 1
100
AcDbSpline
210
0.0
220
0.0
230
1.0
 70
    11
 71
     3
 72
    17
 73
    13
 74
     0
 42
0.0000000001
 43
0.0000000001
 40
0.0
 40
0.0
 40
0.0
 40
0.0
 40
1.0
 40
1.0
 40
1.0
 40
2.0
 40
2.0
 40
2.0
 40
3.0
 40
3.0
 40
3.0
 40
4.0
 40
4.0
 40
4.0
 40
4.0
 10
61.45600330087949
 20
10.50819189550697
 30
0.0
 10
61.45600330087949
 20
10.50819189550697
 30
0.0
 10
10.38471819300115
 20
10.50819189550697
 30
0.0
 10
10.38471819300115
 20
10.50819189550697
 30
0.0
 10
10.38471819300115
 20
10.50819189550697
 30
0.0
 10
10.38471819300115
 20
29.41778608222482
 30
0.0
 10
10.38471819300115
 20
29.41778608222482
 30
0.0
 10
10.38471819300115
 20
29.41778608222482
 30
0.0
 10
61.45600330087949
 20
29.41778608222482
 30
0.0
 10
61.45600330087949
 20
29.41778608222482
 30
0.0
 10
61.45600330087949
 20
29.41778608222482
 30
0.0
 10
61.45600330087949
 20
10.50819189550697
 30
0.0
 10
61.45600330087949
 20
10.50819189550697
 30
0.0
  0
SPLINE
  5
E5
330
70
100
AcDbEntity
  8
レイヤー 1
100
AcDbSpline
210
0.0
220
0.0
230
1.0
 70
    11
 71
     3
 72
    17
 73
    13
 74
     0
 42
0.0000000001
 43
0.0000000001
 40
0.0
 40
0.0
 40
0.0
 40
0.0
 40
1.0
 40
1.0
 40
1.0
 40
2.0
 40
2.0
 40
2.0
 40
3.0
 40
3.0
 40
3.0
 40
4.0
 40
4.0
 40
4.0
 40
4.0
 10
61.45600330087949
 20
29.59382238707854
 30
0.0
 10
61.45600330087949
 20
29.59382238707854
 30
0.0
 10
10.38471819300115
 20
29.59382238707854
 30
0.0
 10
10.38471819300115
 20
29.59382238707854
 30
0.0
 10
10.38471819300115
 20
29.59382238707854
 30
0.0
 10
10.38471819300115
 20
32.50812016840021
 30
0.0
 10
10.38471819300115
 20
32.50812016840021
 30
0.0
 10
10.38471819300115
 20
32.50812016840021
 30
0.0
 10
61.45600330087949
 20
32.50812016840021
 30
0.0
 10
61.45600330087949
 20
32.50812016840021
 30
0.0
 10
61.45600330087949
 20
32.50812016840021
 30
0.0
 10
61.45600330087949
 20
29.59382238707854
 30
0.0
 10
61.45600330087949
 20
29.59382238707854
 30
0.0
  0
LWPOLYLINE
  5
E6
330
70
100
AcDbEntity
  8
レイヤー 1
100
AcDbPolyline
 90
        4
 70
     1
 43
0.0
 10
10.3843669547505
 20
29.41778608222482
 10
61.45600868384119
 20
29.41778608222482
 10
61.45600868384119
 20
29.59417497106961
 10
10.3843669547505
 20
29.59417497106961
  0
HATCH
  5
E7
330
70
100
AcDbEntity
  8
レイヤー 1
 62
   255
440
 33554687
100
AcDbHatch
 10
0.0
 20
0.0
 30
0.0
210
0.0
220
0.0
230
1.0
  2
SOLID
 70
     1
 71
     1
 91
        1
 92
        1
 93
        4
 72
     1
 10
10.3843669547505
 20
29.41778608222482
 11
61.45600868384119
 21
29.41778608222482
 72
     1
 10
61.45600868384119
 20
29.41778608222482
 11
61.45600868384119
 21
29.59417497106961
 72
     1
 10
61.45600868384119
 20
29.59417497106961
 11
10.3843669547505
 21
29.59417497106961
 72
     1
 10
10.3843669547505
 20
29.59417497106961
 11
10.3843669547505
 21
29.41778608222482
 97
        1
330
E6
 75
     2
 76
     1
 98
        1
 10
0.0
 20
0.0
450
        0
451
        0
460
0.0
461
0.0
452
        0
462
0.0
453
        0
470

  0
LINE
  5
E8
330
70
100
AcDbEntity
  8
レイヤー 1
 62
   252
370
    18
100
AcDbLine
 10
12.26999959638929
 20
27.94384504255424
 30
0.0
 11
18.0103993688698
 21
27.94384504255424
 31
0.0
  0
LINE
  5
E9
330
70
100
AcDbEntity
  8
レイヤー 1
 62
   252
370
    18
100
AcDbLine
 10
15.14023379901035
 20
25.07357450494173
 30
0.0
 11
15.14023379901035
 21
30.81397293168182
 31
0.0
  0
LINE
  5
EA
330
70
100
AcDbEntity
  8
レイヤー 1
 62
   252
370
    18
100
AcDbLine
 10
12.26999959638929
 20
21.27267601752933
 30
0.0
 11
18.0103993688698
 21
21.27267601752933
 31
0.0
  0
LINE
  5
EB
330
70
100
AcDbEntity
  8
レイヤー 1
 62
   252
370
    18
100
AcDbLine
 10
15.14023379901035
 20
18.40240547991681
 30
0.0
 11
15.14023379901035
 21
24.1428039066569
 31
0.0
  0
INSERT
  5
ED
330
70
100
AcDbEntity
  8
レイヤー 1
100
AcDbBlockReference
  2
Block_7
 10
0.0
 20
0.0
 30
0.0
  0
MTEXT
  5
F4
330
70
100
AcDbEntity
  8
レイヤー 1
100
AcDbMText
 10
20.84076062847005
 20
26.58407931192973
 30
0.0
 40
0.2
 41
0.0
 46
0.0
 71
     7
 72
     1
  1
\C29;\FKozuka Gothic Pr6N R|b0|i0|c128;\H2.437423;\W1.000000;ベース仮固定穴位置
 73
     1
 44
1.0
  0
MTEXT
  5
F5
330
70
100
AcDbEntity
  8
レイヤー 1
100
AcDbMText
 10
20.84076062847005
 20
19.95709363650314
 30
0.0
 40
0.2
 41
0.0
 46
0.0
 71
     7
 72
     1
  1
\C29;\FKozuka Gothic Pr6N R|b0|i0|c128;\H2.437423;\W1.000000;ベース電源穴位置 
 73
     1
 44
1.0
  0
MTEXT
  5
F6
330
70
100
AcDbEntity
  8
レイヤー 1
100
AcDbMText
 10
20.84076062847005
 20
13.65704752262676
 30
0.0
 40
0.2
 41
0.0
 46
0.0
 71
     7
 72
     1
  1
\C29;\FKozuka Gothic Pr6N R|b0|i0|c128;\H2.437423;\W1.000000;本体/ベース仮固定穴位置
 73
     1
 44
1.0
  0
INSERT
  5
F8
330
70
100
AcDbEntity
  8
レイヤー 1
100
AcDbBlockReference
  2
Block_8
 10
0.0
 20
0.0
 30
0.0
  0
MTEXT
  5
FD
330
70
100
AcDbEntity
  8
レイヤー 1
100
AcDbMText
 10
197.823067170596
 20
282.325230506675
 30
0.0
 40
0.2
 41
0.0
 46
0.0
 71
     7
 72
     1
  1
\C29;\FA-OTF Shin Go Pro B|b0|i0|c128;\H5.696928;\W1.000000;↑上↑
 73
     1
 44
1.0
  0
ENDSEC
  0
SECTION
  2
OBJECTS
  0
DICTIONARY
  5
C
330
0
100
AcDbDictionary
281
     1
  3
ACAD_COLOR
350
63
  3
ACAD_DETAILVIEWSTYLE
350
6A
  3
ACAD_GROUP
350
D
  3
ACAD_LAYOUT
350
62
  3
ACAD_MATERIAL
350
10
  3
ACAD_MLEADERSTYLE
350
66
  3
ACAD_MLINESTYLE
350
5F
  3
ACAD_PLOTSETTINGS
350
61
  3
ACAD_PLOTSTYLENAME
350
E
  3
ACAD_SCALELIST
350
42
  3
ACAD_SECTIONVIEWSTYLE
350
68
  3
ACAD_TABLESTYLE
350
64
  3
ACAD_VISUALSTYLE
350
29
  3
ACDB_RECOMPOSE_DATA
350
109
  3
AcDbVariableDictionary
350
FE
  0
DICTIONARY
  5
63
102
{ACAD_REACTORS
330
C
102
}
330
C
100
AcDbDictionary
281
     1
  0
DICTIONARY
  5
6A
102
{ACAD_REACTORS
330
C
102
}
330
C
100
AcDbDictionary
281
     1
  3
Imperial24
350
6B
  0
DICTIONARY
  5
D
102
{ACAD_REACTORS
330
C
102
}
330
C
100
AcDbDictionary
281
     1
  0
DICTIONARY
  5
62
102
{ACAD_REACTORS
330
C
102
}
330
C
100
AcDbDictionary
281
     1
  3
Layout1
350
6F
  3
Layout2
350
77
  3
Model
350
73
  0
DICTIONARY
  5
10
102
{ACAD_REACTORS
330
C
102
}
330
C
100
AcDbDictionary
281
     1
  3
ByBlock
350
19
  3
ByLayer
350
11
  3
Global
350
21
  0
DICTIONARY
  5
66
102
{ACAD_REACTORS
330
C
102
}
330
C
100
AcDbDictionary
281
     1
  3
Standard
350
67
  0
DICTIONARY
  5
5F
102
{ACAD_REACTORS
330
C
102
}
330
C
100
AcDbDictionary
281
     1
  3
Standard
350
60
  0
DICTIONARY
  5
61
102
{ACAD_REACTORS
330
C
102
}
330
C
100
AcDbDictionary
281
     1
  0
ACDBDICTIONARYWDFLT
  5
E
102
{ACAD_REACTORS
330
C
102
}
330
C
100
AcDbDictionary
281
     1
  3
Normal
350
F
100
AcDbDictionaryWithDefault
340
F
  0
DICTIONARY
  5
42
102
{ACAD_REACTORS
330
C
102
}
330
C
100
AcDbDictionary
281
     1
  3
A0
350
43
  3
A1
350
44
  3
A2
350
45
  3
A3
350
46
  3
A4
350
47
  3
A5
350
48
  3
A6
350
49
  3
A7
350
4A
  3
A8
350
4B
  3
A9
350
4C
  3
B0
350
4D
  3
B1
350
4E
  3
B2
350
4F
  3
B3
350
50
  3
B4
350
51
  3
B5
350
52
  3
B6
350
53
  0
DICTIONARY
  5
68
102
{ACAD_REACTORS
330
C
102
}
330
C
100
AcDbDictionary
281
     1
  3
Imperial24
350
69
  0
DICTIONARY
  5
64
102
{ACAD_REACTORS
330
C
102
}
330
C
100
AcDbDictionary
281
     1
  3
Standard
350
65
  0
DICTIONARY
  5
29
102
{ACAD_REACTORS
330
C
102
}
330
C
100
AcDbDictionary
281
     1
  3
2dWireframe
350
2F
  3
Basic
350
2E
  3
Brighten
350
35
  3
ColorChange
350
39
  3
Conceptual
350
32
  3
Dim
350
34
  3
EdgeColorOff
350
41
  3
Facepattern
350
38
  3
Flat
350
2A
  3
FlatWithEdges
350
2B
  3
Gouraud
350
2C
  3
GouraudWithEdges
350
2D
  3
Hidden
350
31
  3
JitterOff
350
3F
  3
Linepattern
350
37
  3
OverhangOff
350
40
  3
Realistic
350
33
  3
Shaded
350
3E
  3
Shaded with edges
350
3D
  3
Shades of Gray
350
3A
  3
Sketchy
350
3B
  3
Thicken
350
36
  3
Wireframe
350
30
  3
X-Ray
350
3C
  0
XRECORD
  5
109
102
{ACAD_REACTORS
330
C
102
}
330
C
100
AcDbXrecord
280
     1
 90
        1
330
65
  0
DICTIONARY
  5
FE
102
{ACAD_REACTORS
330
C
102
}
330
C
100
AcDbDictionary
281
     1
  3
CANNOSCALE
350
103
  3
CMLEADERSTYLE
350
100
  3
CTABLESTYLE
350
FF
  3
CVIEWDETAILSTYLE
350
101
  3
CVIEWSECTIONSTYLE
350
102
  0
ACDBDETAILVIEWSTYLE
  5
6B
102
{ACAD_XDICTIONARY
360
13E
102
}
102
{ACAD_REACTORS
330
6A
102
}
330
6A
100
AcDbModelDocViewStyle
 70
     0
  3
Imperial24
290
     0
100
AcDbDetailViewStyle
 70
     0
 71
     0
 90
        3
 71
     1
340
55
 62
   256
 40
0.24
340
0
 62
   256
 40
0.24
300

 40
0.36
280
     3
 71
     2
340
5D
 90
       25
 62
   256
 71
     3
340
55
 62
   256
 40
0.24
 90
        1
 40
0.75
 90
        1
300
%<\AcVar ViewType \f "%tc1">% %<\AcVar ViewDetailId>%\PSCALE %<\AcVar ViewScale \f "%sn">%
 71
     4
340
5D
 90
       25
 62
   256
340
5D
 90
       25
 62
   256
280
     0
  0
LAYOUT
  5
6F
102
{ACAD_REACTORS
330
62
102
}
330
62
100
AcDbPlotSettings
  1

  2

  4

  6

 40
0.0
 41
0.0
 42
0.0
 43
0.0
 44
0.0
 45
0.0
 46
0.0
 47
0.0
 48
0.0
 49
0.0
140
0.0
141
0.0
142
1.0
143
1.0
 70
   688
 72
     0
 73
     0
 74
     5
  7

 75
    16
147
1.0
 76
     0
 77
     2
 78
   300
148
0.0
149
0.0
100
AcDbLayout
  1
Layout1
 70
     1
 71
     1
 10
0.0
 20
0.0
 11
12.0
 21
9.0
 12
0.0
 22
0.0
 32
0.0
 14
0.0
 24
0.0
 34
0.0
 15
0.0
 25
0.0
 35
0.0
146
0.0
 13
0.0
 23
0.0
 33
0.0
 16
1.0
 26
0.0
 36
0.0
 17
0.0
 27
1.0
 37
0.0
 76
     0
330
6C
  0
LAYOUT
  5
77
102
{ACAD_REACTORS
330
62
102
}
330
62
100
AcDbPlotSettings
  1

  2

  4

  6

 40
0.0
 41
0.0
 42
0.0
 43
0.0
 44
0.0
 45
0.0
 46
0.0
 47
0.0
 48
0.0
 49
0.0
140
0.0
141
0.0
142
1.0
143
1.0
 70
   688
 72
     0
 73
     0
 74
     5
  7

 75
    16
147
1.0
 76
     0
 77
     2
 78
   300
148
0.0
149
0.0
100
AcDbLayout
  1
Layout2
 70
     1
 71
     2
 10
0.0
 20
0.0
 11
12.0
 21
9.0
 12
0.0
 22
0.0
 32
0.0
 14
0.0
 24
0.0
 34
0.0
 15
0.0
 25
0.0
 35
0.0
146
0.0
 13
0.0
 23
0.0
 33
0.0
 16
1.0
 26
0.0
 36
0.0
 17
0.0
 27
1.0
 37
0.0
 76
     0
330
74
  0
LAYOUT
  5
73
102
{ACAD_REACTORS
330
62
102
}
330
62
100
AcDbPlotSettings
  1

  2

  4

  6

 40
0.0
 41
0.0
 42
0.0
 43
0.0
 44
0.0
 45
0.0
 46
0.0
 47
0.0
 48
0.0
 49
0.0
140
0.0
141
0.0
142
1.0
143
1.0
 70
  1712
 72
     0
 73
     0
 74
     0
  7

 75
     0
147
1.0
 76
     0
 77
     2
 78
   300
148
0.0
149
0.0
100
AcDbLayout
  1
Model
 70
     1
 71
     0
 10
0.0
 20
0.0
 11
12.0
 21
9.0
 12
0.0
 22
0.0
 32
0.0
 14
0.0
 24
0.0
 34
0.0
 15
0.0
 25
0.0
 35
0.0
146
0.0
 13
0.0
 23
0.0
 33
0.0
 16
1.0
 26
0.0
 36
0.0
 17
0.0
 27
1.0
 37
0.0
 76
     0
330
70
  0
MATERIAL
  5
19
102
{ACAD_XDICTIONARY
360
1A
102
}
102
{ACAD_REACTORS
330
10
102
}
330
10
100
AcDbMaterial
  1
ByBlock
 72
     0
 43
0.0208333333333333
 43
0.0
 43
0.0
 43
0.0
 43
0.0
 43
0.0208333333333333
 43
0.0
 43
0.0
 43
0.0
 43
0.0
 43
1.0
 43
0.0
 43
0.0
 43
0.0
 43
0.0
 43
1.0
 77
     0
 47
0.0208333333333333
 47
0.0
 47
0.0
 47
0.0
 47
0.0
 47
0.0208333333333333
 47
0.0
 47
0.0
 47
0.0
 47
0.0
 47
1.0
 47
0.0
 47
0.0
 47
0.0
 47
0.0
 47
1.0
171
     0
 49
0.0208333333333333
 49
0.0
 49
0.0
 49
0.0
 49
0.0
 49
0.0208333333333333
 49
0.0
 49
0.0
 49
0.0
 49
0.0
 49
1.0
 49
0.0
 49
0.0
 49
0.0
 49
0.0
 49
1.0
175
     0
142
0.0208333333333333
142
0.0
142
0.0
142
0.0
142
0.0
142
0.0208333333333333
142
0.0
142
0.0
142
0.0
142
0.0
142
1.0
142
0.0
142
0.0
142
0.0
142
0.0
142
1.0
179
     0
144
0.0208333333333333
144
0.0
144
0.0
144
0.0
144
0.0
144
0.0208333333333333
144
0.0
144
0.0
144
0.0
144
0.0
144
1.0
144
0.0
144
0.0
144
0.0
144
0.0
144
1.0
147
0.0208333333333333
147
0.0
147
0.0
147
0.0
147
0.0
147
0.0208333333333333
147
0.0
147
0.0
147
0.0
147
0.0
147
1.0
147
0.0
147
0.0
147
0.0
147
0.0
147
1.0
  0
MATERIAL
  5
11
102
{ACAD_XDICTIONARY
360
12
102
}
102
{ACAD_REACTORS
330
10
102
}
330
10
100
AcDbMaterial
  1
ByLayer
 72
     0
 43
0.0208333333333333
 43
0.0
 43
0.0
 43
0.0
 43
0.0
 43
0.0208333333333333
 43
0.0
 43
0.0
 43
0.0
 43
0.0
 43
1.0
 43
0.0
 43
0.0
 43
0.0
 43
0.0
 43
1.0
 77
     0
 47
0.0208333333333333
 47
0.0
 47
0.0
 47
0.0
 47
0.0
 47
0.0208333333333333
 47
0.0
 47
0.0
 47
0.0
 47
0.0
 47
1.0
 47
0.0
 47
0.0
 47
0.0
 47
0.0
 47
1.0
171
     0
 49
0.0208333333333333
 49
0.0
 49
0.0
 49
0.0
 49
0.0
 49
0.0208333333333333
 49
0.0
 49
0.0
 49
0.0
 49
0.0
 49
1.0
 49
0.0
 49
0.0
 49
0.0
 49
0.0
 49
1.0
175
     0
142
0.0208333333333333
142
0.0
142
0.0
142
0.0
142
0.0
142
0.0208333333333333
142
0.0
142
0.0
142
0.0
142
0.0
142
1.0
142
0.0
142
0.0
142
0.0
142
0.0
142
1.0
179
     0
144
0.0208333333333333
144
0.0
144
0.0
144
0.0
144
0.0
144
0.0208333333333333
144
0.0
144
0.0
144
0.0
144
0.0
144
1.0
144
0.0
144
0.0
144
0.0
144
0.0
144
1.0
147
0.0208333333333333
147
0.0
147
0.0
147
0.0
147
0.0
147
0.0208333333333333
147
0.0
147
0.0
147
0.0
147
0.0
147
1.0
147
0.0
147
0.0
147
0.0
147
0.0
147
1.0
  0
MATERIAL
  5
21
102
{ACAD_XDICTIONARY
360
22
102
}
102
{ACAD_REACTORS
330
10
102
}
330
10
100
AcDbMaterial
  1
Global
 72
     0
 43
0.0208333333333333
 43
0.0
 43
0.0
 43
0.0
 43
0.0
 43
0.0208333333333333
 43
0.0
 43
0.0
 43
0.0
 43
0.0
 43
1.0
 43
0.0
 43
0.0
 43
0.0
 43
0.0
 43
1.0
 77
     0
 47
0.0208333333333333
 47
0.0
 47
0.0
 47
0.0
 47
0.0
 47
0.0208333333333333
 47
0.0
 47
0.0
 47
0.0
 47
0.0
 47
1.0
 47
0.0
 47
0.0
 47
0.0
 47
0.0
 47
1.0
171
     0
 49
0.0208333333333333
 49
0.0
 49
0.0
 49
0.0
 49
0.0
 49
0.0208333333333333
 49
0.0
 49
0.0
 49
0.0
 49
0.0
 49
1.0
 49
0.0
 49
0.0
 49
0.0
 49
0.0
 49
1.0
175
     0
142
0.0208333333333333
142
0.0
142
0.0
142
0.0
142
0.0
142
0.0208333333333333
142
0.0
142
0.0
142
0.0
142
0.0
142
1.0
142
0.0
142
0.0
142
0.0
142
0.0
142
1.0
179
     0
144
0.0208333333333333
144
0.0
144
0.0
144
0.0
144
0.0
144
0.0208333333333333
144
0.0
144
0.0
144
0.0
144
0.0
144
1.0
144
0.0
144
0.0
144
0.0
144
0.0
144
1.0
147
0.0208333333333333
147
0.0
147
0.0
147
0.0
147
0.0
147
0.0208333333333333
147
0.0
147
0.0
147
0.0
147
0.0
147
1.0
147
0.0
147
0.0
147
0.0
147
0.0
147
1.0
  0
MLEADERSTYLE
  5
67
102
{ACAD_XDICTIONARY
360
13A
102
}
102
{ACAD_REACTORS
330
66
102
}
330
66
100
AcDbMLeaderStyle
179
     2
170
     2
171
     1
172
     0
 90
        2
 40
0.0
 41
0.0
173
     1
 91
-1056964608
340
5B
 92
       -2
290
     1
 42
0.09
291
     1
 43
0.36
  3
Standard
 44
0.18
300

342
55
174
     1
178
     6
175
     1
176
     0
 93
-1056964608
 45
0.18
292
     0
297
     0
 46
0.18
 94
-1056964608
 47
1.0
 49
1.0
140
1.0
293
     1
141
0.0
294
     1
177
     0
142
1.0
295
     0
296
     0
143
0.125
271
     0
272
     9
273
     9
  0
MLINESTYLE
  5
60
102
{ACAD_REACTORS
330
5F
102
}
330
5F
100
AcDbMlineStyle
  2
STANDARD
 70
     0
  3

 62
   256
 51
90.0
 52
90.0
 71
     2
 49
0.5
 62
   256
  6
BYLAYER
 49
-0.5
 62
   256
  6
BYLAYER
  0
ACDBPLACEHOLDER
  5
F
102
{ACAD_REACTORS
330
E
102
}
330
E
  0
SCALE
  5
43
102
{ACAD_REACTORS
330
42
102
}
330
42
100
AcDbScale
 70
     0
300
1:1
140
1.0
141
1.0
290
     1
  0
SCALE
  5
44
102
{ACAD_REACTORS
330
42
102
}
330
42
100
AcDbScale
 70
     0
300
1/128" = 1'-0"
140
0.0078125
141
12.0
290
     0
  0
SCALE
  5
45
102
{ACAD_REACTORS
330
42
102
}
330
42
100
AcDbScale
 70
     0
300
1/64" = 1'-0"
140
0.015625
141
12.0
290
     0
  0
SCALE
  5
46
102
{ACAD_REACTORS
330
42
102
}
330
42
100
AcDbScale
 70
     0
300
1/32" = 1'-0"
140
0.03125
141
12.0
290
     0
  0
SCALE
  5
47
102
{ACAD_REACTORS
330
42
102
}
330
42
100
AcDbScale
 70
     0
300
1/16" = 1'-0"
140
0.0625
141
12.0
290
     0
  0
SCALE
  5
48
102
{ACAD_REACTORS
330
42
102
}
330
42
100
AcDbScale
 70
     0
300
3/32" = 1'-0"
140
0.09375
141
12.0
290
     0
  0
SCALE
  5
49
102
{ACAD_REACTORS
330
42
102
}
330
42
100
AcDbScale
 70
     0
300
1/8" = 1'-0"
140
0.125
141
12.0
290
     0
  0
SCALE
  5
4A
102
{ACAD_REACTORS
330
42
102
}
330
42
100
AcDbScale
 70
     0
300
3/16" = 1'-0"
140
0.1875
141
12.0
290
     0
  0
SCALE
  5
4B
102
{ACAD_REACTORS
330
42
102
}
330
42
100
AcDbScale
 70
     0
300
1/4" = 1'-0"
140
0.25
141
12.0
290
     0
  0
SCALE
  5
4C
102
{ACAD_REACTORS
330
42
102
}
330
42
100
AcDbScale
 70
     0
300
3/8" = 1'-0"
140
0.375
141
12.0
290
     0
  0
SCALE
  5
4D
102
{ACAD_REACTORS
330
42
102
}
330
42
100
AcDbScale
 70
     0
300
1/2" = 1'-0"
140
0.5
141
12.0
290
     0
  0
SCALE
  5
4E
102
{ACAD_REACTORS
330
42
102
}
330
42
100
AcDbScale
 70
     0
300
3/4" = 1'-0"
140
0.75
141
12.0
290
     0
  0
SCALE
  5
4F
102
{ACAD_REACTORS
330
42
102
}
330
42
100
AcDbScale
 70
     0
300
1" = 1'-0"
140
1.0
141
12.0
290
     0
  0
SCALE
  5
50
102
{ACAD_REACTORS
330
42
102
}
330
42
100
AcDbScale
 70
     0
300
1-1/2" = 1'-0"
140
1.5
141
12.0
290
     0
  0
SCALE
  5
51
102
{ACAD_REACTORS
330
42
102
}
330
42
100
AcDbScale
 70
     0
300
3" = 1'-0"
140
3.0
141
12.0
290
     0
  0
SCALE
  5
52
102
{ACAD_REACTORS
330
42
102
}
330
42
100
AcDbScale
 70
     0
300
6" = 1'-0"
140
6.0
141
12.0
290
     0
  0
SCALE
  5
53
102
{ACAD_REACTORS
330
42
102
}
330
42
100
AcDbScale
 70
     0
300
1'-0" = 1'-0"
140
12.0
141
12.0
290
     0
  0
ACDBSECTIONVIEWSTYLE
  5
69
102
{ACAD_XDICTIONARY
360
13C
102
}
102
{ACAD_REACTORS
330
68
102
}
330
68
100
AcDbModelDocViewStyle
 70
     0
  3
Imperial24
290
     0
100
AcDbSectionViewStyle
 70
     0
 71
     0
 90
       78
 71
     1
340
55
 62
   256
 40
0.24
340
0
340
0
 62
   256
 40
0.24
300
I, O, Q, S, X, Z
 40
0.48
 90
        3
 40
0.18
 90
        1
 71
     2
340
5D
 90
       25
 62
   256
340
5D
 90
       50
 62
   256
 40
0.24
 40
0.0
 40
0.24
 71
     3
340
55
 62
   256
 40
0.24
 90
        1
 40
0.75
 90
        1
300
%<\AcVar ViewType \f "%tc1">% %<\AcVar ViewSectionStartId>%-%<\AcVar ViewSectionEndId>%\PSCALE %<\AcVar ViewScale \f "%sn">%
 71
     4
 62
   256
 62
   257
300
ANSI31
 40
1.0
 90
        0
290
     0
290
     0
 90
        6
 40
0.0
 40
1.570796326794896
 40
0.2617993877991494
 40
1.308996938995747
 40
-0.2617993877991494
 40
1.832595714594046
  0
TABLESTYLE
  5
65
102
{ACAD_XDICTIONARY
360
104
102
}
102
{ACAD_REACTORS
330
64
102
}
330
64
100
AcDbTableStyle
280
     0
  3
Standard
 70
     0
 71
     0
 40
0.06
 41
0.06
280
     0
281
     0
  7
Standard
140
0.18
170
     2
 62
     0
 63
     7
283
     0
 90
      512
 91
        0
  1

274
    -2
284
     1
 64
     0
275
    -2
285
     1
 65
     0
276
    -2
286
     1
 66
     0
277
    -2
287
     1
 67
     0
278
    -2
288
     1
 68
     0
279
    -2
289
     1
 69
     0
  7
Standard
140
0.25
170
     5
 62
     0
 63
     7
283
     0
 90
      512
 91
        0
  1

274
    -2
284
     1
 64
     0
275
    -2
285
     1
 65
     0
276
    -2
286
     1
 66
     0
277
    -2
287
     1
 67
     0
278
    -2
288
     1
 68
     0
279
    -2
289
     1
 69
     0
  7
Standard
140
0.18
170
     5
 62
     0
 63
     7
283
     0
 90
      512
 91
        0
  1

274
    -2
284
     1
 64
     0
275
    -2
285
     1
 65
     0
276
    -2
286
     1
 66
     0
277
    -2
287
     1
 67
     0
278
    -2
288
     1
 68
     0
279
    -2
289
     1
 69
     0
  0
VISUALSTYLE
  5
2F
102
{ACAD_XDICTIONARY
360
114
102
}
102
{ACAD_REACTORS
330
29
102
}
330
29
100
AcDbVisualStyle
  2
2dWireframe
 70
     4
177
     2
291
     0
 71
     0
176
     1
 72
     2
176
     1
 73
     0
176
     1
 90
        0
176
     1
 40
0.6
176
     1
 41
30.0
176
     1
 63
     7
421
 16777215
176
     1
 74
     1
176
     1
 91
        4
176
     1
 64
     7
176
     1
 65
   257
176
     1
 75
     1
176
     1
175
     1
176
     1
 42
1.0
176
     1
 92
        0
176
     1
 66
   257
176
     1
 43
1.0
176
     1
 76
     1
176
     1
 77
     6
176
     1
 78
     2
176
     1
 67
     7
176
     1
 79
     5
176
     1
170
     0
176
     1
171
     0
176
     1
290
     0
176
     1
 93
        1
176
     1
 44
0.0
176
     1
173
     0
176
     1
1001
ACAD
1000
AcDbSavedByObjectVersion
1070
     0
  0
VISUALSTYLE
  5
2E
102
{ACAD_XDICTIONARY
360
112
102
}
102
{ACAD_REACTORS
330
29
102
}
330
29
100
AcDbVisualStyle
  2
Basic
 70
     7
177
     2
291
     1
 71
     1
176
     1
 72
     0
176
     1
 73
     1
176
     1
 90
        0
176
     1
 40
0.6
176
     1
 41
30.0
176
     1
 63
     7
421
 16777215
176
     1
 74
     0
176
     1
 91
        4
176
     1
 64
     7
176
     1
 65
   257
176
     1
 75
     1
176
     1
175
     1
176
     1
 42
1.0
176
     1
 92
        8
176
     1
 66
     7
176
     1
 43
1.0
176
     1
 76
     1
176
     1
 77
     6
176
     1
 78
     2
176
     1
 67
     7
176
     1
 79
     5
176
     1
170
     0
176
     1
171
     0
176
     1
290
     0
176
     1
 93
        1
176
     1
 44
0.0
176
     1
173
     0
176
     1
1001
ACAD
1000
AcDbSavedByObjectVersion
1070
     0
  0
VISUALSTYLE
  5
35
102
{ACAD_XDICTIONARY
360
120
102
}
102
{ACAD_REACTORS
330
29
102
}
330
29
100
AcDbVisualStyle
  2
Brighten
 70
    12
177
     2
291
     1
 71
     2
176
     1
 72
     2
176
     1
 73
     0
176
     1
 90
        0
176
     1
 40
0.6
176
     1
 41
30.0
176
     1
 63
     7
421
 16777215
176
     1
 74
     1
176
     1
 91
        4
176
     1
 64
     7
176
     1
 65
   257
176
     1
 75
     1
176
     1
175
     1
176
     1
 42
1.0
176
     1
 92
        8
176
     1
 66
     7
176
     1
 43
1.0
176
     1
 76
     1
176
     1
 77
     6
176
     1
 78
     2
176
     1
 67
     7
176
     1
 79
     5
176
     1
170
     0
176
     1
171
     0
176
     1
290
     0
176
     1
 93
        1
176
     1
 44
50.0
176
     1
173
     0
176
     1
1001
ACAD
1000
AcDbSavedByObjectVersion
1070
     0
  0
VISUALSTYLE
  5
39
102
{ACAD_XDICTIONARY
360
128
102
}
102
{ACAD_REACTORS
330
29
102
}
330
29
100
AcDbVisualStyle
  2
ColorChange
 70
    16
177
     2
291
     1
 71
     2
176
     1
 72
     2
176
     1
 73
     3
176
     1
 90
        0
176
     1
 40
0.6
176
     1
 41
30.0
176
     1
 63
     8
421
  8421504
176
     1
 74
     1
176
     1
 91
        4
176
     1
 64
     7
176
     1
 65
   257
176
     1
 75
     1
176
     1
175
     1
176
     1
 42
1.0
176
     1
 92
        8
176
     1
 66
     8
424
  8421504
176
     1
 43
1.0
176
     1
 76
     1
176
     1
 77
     6
176
     1
 78
     2
176
     1
 67
     7
176
     1
 79
     5
176
     1
170
     0
176
     1
171
     0
176
     1
290
     0
176
     1
 93
        1
176
     1
 44
0.0
176
     1
173
     0
176
     1
1001
ACAD
1000
AcDbSavedByObjectVersion
1070
     0
  0
VISUALSTYLE
  5
32
102
{ACAD_XDICTIONARY
360
11A
102
}
102
{ACAD_REACTORS
330
29
102
}
330
29
100
AcDbVisualStyle
  2
Conceptual
 70
     9
177
     2
291
     0
 71
     3
176
     1
 72
     2
176
     1
 73
     0
176
     1
 90
        0
176
     1
 40
0.6
176
     1
 41
30.0
176
     1
 63
     7
421
 16777215
176
     1
 74
     2
176
     1
 91
        2
176
     1
 64
     7
176
     1
 65
   257
176
     1
 75
     1
176
     1
175
     1
176
     1
 42
179.0
176
     1
 92
        8
176
     1
 66
     7
176
     1
 43
1.0
176
     1
 76
     1
176
     1
 77
     6
176
     1
 78
     2
176
     1
 67
     7
176
     1
 79
     3
176
     1
170
     0
176
     1
171
     0
176
     1
290
     0
176
     1
 93
        1
176
     1
 44
0.0
176
     1
173
     0
176
     1
1001
ACAD
1000
AcDbSavedByObjectVersion
1070
     0
  0
VISUALSTYLE
  5
34
102
{ACAD_XDICTIONARY
360
11E
102
}
102
{ACAD_REACTORS
330
29
102
}
330
29
100
AcDbVisualStyle
  2
Dim
 70
    11
177
     2
291
     1
 71
     2
176
     1
 72
     2
176
     1
 73
     0
176
     1
 90
        0
176
     1
 40
0.6
176
     1
 41
30.0
176
     1
 63
     7
421
 16777215
176
     1
 74
     1
176
     1
 91
        4
176
     1
 64
     7
176
     1
 65
   257
176
     1
 75
     1
176
     1
175
     1
176
     1
 42
1.0
176
     1
 92
        8
176
     1
 66
     7
176
     1
 43
1.0
176
     1
 76
     1
176
     1
 77
     6
176
     1
 78
     2
176
     1
 67
     7
176
     1
 79
     5
176
     1
170
     0
176
     1
171
     0
176
     1
290
     0
176
     1
 93
        1
176
     1
 44
-50.0
176
     1
173
     0
176
     1
1001
ACAD
1000
AcDbSavedByObjectVersion
1070
     0
  0
VISUALSTYLE
  5
41
102
{ACAD_XDICTIONARY
360
138
102
}
102
{ACAD_REACTORS
330
29
102
}
330
29
100
AcDbVisualStyle
  2
EdgeColorOff
 70
    22
177
     2
291
     1
 71
     2
176
     0
 72
     2
176
     0
 73
     0
176
     0
 90
        0
176
     0
 40
0.6
176
     0
 41
30.0
176
     0
 63
     7
421
 16777215
176
     0
 74
     1
176
     0
 91
        4
176
     0
 64
     7
176
     0
 65
   257
176
     0
 75
     1
176
     0
175
     1
176
     0
 42
1.0
176
     0
 92
        8
176
     2
 66
     7
176
     0
 43
1.0
176
     0
 76
     1
176
     0
 77
     6
176
     0
 78
     2
176
     0
 67
     7
176
     0
 79
     5
176
     0
170
     0
176
     0
171
     0
176
     0
290
     0
176
     0
 93
        1
176
     0
 44
0.0
176
     0
173
     0
176
     0
1001
ACAD
1000
AcDbSavedByObjectVersion
1070
     0
  0
VISUALSTYLE
  5
38
102
{ACAD_XDICTIONARY
360
126
102
}
102
{ACAD_REACTORS
330
29
102
}
330
29
100
AcDbVisualStyle
  2
Facepattern
 70
    15
177
     2
291
     1
 71
     2
176
     1
 72
     2
176
     1
 73
     0
176
     1
 90
        0
176
     1
 40
0.6
176
     1
 41
30.0
176
     1
 63
     7
421
 16777215
176
     1
 74
     1
176
     1
 91
        4
176
     1
 64
     7
176
     1
 65
   257
176
     1
 75
     1
176
     1
175
     1
176
     1
 42
1.0
176
     1
 92
        8
176
     1
 66
     7
176
     1
 43
1.0
176
     1
 76
     1
176
     1
 77
     6
176
     1
 78
     2
176
     1
 67
     7
176
     1
 79
     5
176
     1
170
     0
176
     1
171
     0
176
     1
290
     0
176
     1
 93
        1
176
     1
 44
0.0
176
     1
173
     0
176
     1
1001
ACAD
1000
AcDbSavedByObjectVersion
1070
     0
  0
VISUALSTYLE
  5
2A
102
{ACAD_XDICTIONARY
360
10A
102
}
102
{ACAD_REACTORS
330
29
102
}
330
29
100
AcDbVisualStyle
  2
Flat
 70
     0
177
     2
291
     1
 71
     2
176
     1
 72
     1
176
     1
 73
     1
176
     1
 90
        2
176
     1
 40
0.6
176
     1
 41
30.0
176
     1
 63
     7
421
 16777215
176
     1
 74
     0
176
     1
 91
        0
176
     1
 64
     7
176
     1
 65
   257
176
     1
 75
     1
176
     1
175
     1
176
     1
 42
1.0
176
     1
 92
        8
176
     1
 66
     7
176
     1
 43
1.0
176
     1
 76
     1
176
     1
 77
     6
176
     1
 78
     2
176
     1
 67
     7
176
     1
 79
     5
176
     1
170
     0
176
     1
171
     0
176
     1
290
     0
176
     1
 93
       13
176
     1
 44
0.0
176
     1
173
     0
176
     1
1001
ACAD
1000
AcDbSavedByObjectVersion
1070
     0
  0
VISUALSTYLE
  5
2B
102
{ACAD_XDICTIONARY
360
10C
102
}
102
{ACAD_REACTORS
330
29
102
}
330
29
100
AcDbVisualStyle
  2
FlatWithEdges
 70
     1
177
     2
291
     1
 71
     2
176
     1
 72
     1
176
     1
 73
     1
176
     1
 90
        2
176
     1
 40
0.6
176
     1
 41
30.0
176
     1
 63
     7
421
 16777215
176
     1
 74
     1
176
     1
 91
        0
176
     1
 64
     7
176
     1
 65
   257
176
     1
 75
     1
176
     1
175
     1
176
     1
 42
1.0
176
     1
 92
        0
176
     1
 66
   257
176
     1
 43
1.0
176
     1
 76
     1
176
     1
 77
     6
176
     1
 78
     2
176
     1
 67
     7
176
     1
 79
     5
176
     1
170
     0
176
     1
171
     0
176
     1
290
     0
176
     1
 93
       13
176
     1
 44
0.0
176
     1
173
     0
176
     1
1001
ACAD
1000
AcDbSavedByObjectVersion
1070
     0
  0
VISUALSTYLE
  5
2C
102
{ACAD_XDICTIONARY
360
10E
102
}
102
{ACAD_REACTORS
330
29
102
}
330
29
100
AcDbVisualStyle
  2
Gouraud
 70
     2
177
     2
291
     1
 71
     2
176
     1
 72
     2
176
     1
 73
     1
176
     1
 90
        2
176
     1
 40
0.6
176
     1
 41
30.0
176
     1
 63
     7
421
 16777215
176
     1
 74
     0
176
     1
 91
        0
176
     1
 64
     7
176
     1
 65
   257
176
     1
 75
     1
176
     1
175
     1
176
     1
 42
1.0
176
     1
 92
        0
176
     1
 66
     7
176
     1
 43
1.0
176
     1
 76
     1
176
     1
 77
     6
176
     1
 78
     2
176
     1
 67
     7
176
     1
 79
     5
176
     1
170
     0
176
     1
171
     0
176
     1
290
     0
176
     1
 93
       13
176
     1
 44
0.0
176
     1
173
     0
176
     1
1001
ACAD
1000
AcDbSavedByObjectVersion
1070
     0
  0
VISUALSTYLE
  5
2D
102
{ACAD_XDICTIONARY
360
110
102
}
102
{ACAD_REACTORS
330
29
102
}
330
29
100
AcDbVisualStyle
  2
GouraudWithEdges
 70
     3
177
     2
291
     1
 71
     2
176
     1
 72
     2
176
     1
 73
     1
176
     1
 90
        2
176
     1
 40
0.6
176
     1
 41
30.0
176
     1
 63
     7
421
 16777215
176
     1
 74
     1
176
     1
 91
        0
176
     1
 64
     7
176
     1
 65
   257
176
     1
 75
     1
176
     1
175
     1
176
     1
 42
1.0
176
     1
 92
        0
176
     1
 66
   257
176
     1
 43
1.0
176
     1
 76
     1
176
     1
 77
     6
176
     1
 78
     2
176
     1
 67
     7
176
     1
 79
     5
176
     1
170
     0
176
     1
171
     0
176
     1
290
     0
176
     1
 93
       13
176
     1
 44
0.0
176
     1
173
     0
176
     1
1001
ACAD
1000
AcDbSavedByObjectVersion
1070
     0
  0
VISUALSTYLE
  5
31
102
{ACAD_XDICTIONARY
360
118
102
}
102
{ACAD_REACTORS
330
29
102
}
330
29
100
AcDbVisualStyle
  2
Hidden
 70
     6
177
     2
291
     0
 71
     1
176
     1
 72
     2
176
     1
 73
     2
176
     1
 90
        0
176
     1
 40
0.6
176
     1
 41
30.0
176
     1
 63
     7
421
 16777215
176
     1
 74
     2
176
     1
 91
        2
176
     1
 64
     7
176
     1
 65
   257
176
     1
 75
     2
176
     1
175
     1
176
     1
 42
40.0
176
     1
 92
        0
176
     1
 66
   257
176
     1
 43
1.0
176
     1
 76
     1
176
     1
 77
     6
176
     1
 78
     2
176
     1
 67
     7
176
     1
 79
     3
176
     1
170
     0
176
     1
171
     0
176
     1
290
     0
176
     1
 93
        1
176
     1
 44
0.0
176
     1
173
     0
176
     1
1001
ACAD
1000
AcDbSavedByObjectVersion
1070
     0
  0
VISUALSTYLE
  5
3F
102
{ACAD_XDICTIONARY
360
134
102
}
102
{ACAD_REACTORS
330
29
102
}
330
29
100
AcDbVisualStyle
  2
JitterOff
 70
    20
177
     2
291
     1
 71
     2
176
     0
 72
     2
176
     0
 73
     0
176
     0
 90
        0
176
     0
 40
0.6
176
     0
 41
30.0
176
     0
 63
     7
421
 16777215
176
     0
 74
     1
176
     0
 91
        4
176
     0
 64
     7
176
     0
 65
   257
176
     0
 75
     1
176
     0
175
     1
176
     0
 42
1.0
176
     0
 92
       10
176
     2
 66
     7
176
     0
 43
1.0
176
     0
 76
     1
176
     0
 77
     6
176
     0
 78
     2
176
     0
 67
     7
176
     0
 79
     5
176
     0
170
     0
176
     0
171
     0
176
     0
290
     0
176
     0
 93
        1
176
     0
 44
0.0
176
     0
173
     0
176
     0
1001
ACAD
1000
AcDbSavedByObjectVersion
1070
     0
  0
VISUALSTYLE
  5
37
102
{ACAD_XDICTIONARY
360
124
102
}
102
{ACAD_REACTORS
330
29
102
}
330
29
100
AcDbVisualStyle
  2
Linepattern
 70
    14
177
     2
291
     1
 71
     2
176
     1
 72
     2
176
     1
 73
     0
176
     1
 90
        0
176
     1
 40
0.6
176
     1
 41
30.0
176
     1
 63
     7
421
 16777215
176
     1
 74
     1
176
     1
 91
        4
176
     1
 64
     7
176
     1
 65
   257
176
     1
 75
     7
176
     1
175
     7
176
     1
 42
1.0
176
     1
 92
        8
176
     1
 66
     7
176
     1
 43
1.0
176
     1
 76
     1
176
     1
 77
     6
176
     1
 78
     2
176
     1
 67
     7
176
     1
 79
     5
176
     1
170
     0
176
     1
171
     0
176
     1
290
     0
176
     1
 93
        1
176
     1
 44
0.0
176
     1
173
     0
176
     1
1001
ACAD
1000
AcDbSavedByObjectVersion
1070
     0
  0
VISUALSTYLE
  5
40
102
{ACAD_XDICTIONARY
360
136
102
}
102
{ACAD_REACTORS
330
29
102
}
330
29
100
AcDbVisualStyle
  2
OverhangOff
 70
    21
177
     2
291
     1
 71
     2
176
     0
 72
     2
176
     0
 73
     0
176
     0
 90
        0
176
     0
 40
0.6
176
     0
 41
30.0
176
     0
 63
     7
421
 16777215
176
     0
 74
     1
176
     0
 91
        4
176
     0
 64
     7
176
     0
 65
   257
176
     0
 75
     1
176
     0
175
     1
176
     0
 42
1.0
176
     0
 92
        9
176
     2
 66
     7
176
     0
 43
1.0
176
     0
 76
     1
176
     0
 77
     6
176
     0
 78
     2
176
     0
 67
     7
176
     0
 79
     5
176
     0
170
     0
176
     0
171
     0
176
     0
290
     0
176
     0
 93
        1
176
     0
 44
0.0
176
     0
173
     0
176
     0
1001
ACAD
1000
AcDbSavedByObjectVersion
1070
     0
  0
VISUALSTYLE
  5
33
102
{ACAD_XDICTIONARY
360
11C
102
}
102
{ACAD_REACTORS
330
29
102
}
330
29
100
AcDbVisualStyle
  2
Realistic
 70
     8
177
     2
291
     0
 71
     2
176
     1
 72
     3
176
     1
 73
     0
176
     1
 90
        2
176
     1
 40
0.6
176
     1
 41
30.0
176
     1
 63
     7
421
 16777215
176
     1
 74
     0
176
     1
 91
        0
176
     1
 64
     7
176
     1
 65
   257
176
     1
 75
     1
176
     1
175
     1
176
     1
 42
1.0
176
     1
 92
        8
176
     1
 66
   257
176
     1
 43
1.0
176
     1
 76
     1
176
     1
 77
     6
176
     1
 78
     2
176
     1
 67
     7
176
     1
 79
     3
176
     1
170
     0
176
     1
171
     0
176
     1
290
     0
176
     1
 93
       13
176
     1
 44
0.0
176
     1
173
     0
176
     1
1001
ACAD
1000
AcDbSavedByObjectVersion
1070
     0
  0
VISUALSTYLE
  5
3E
102
{ACAD_XDICTIONARY
360
132
102
}
102
{ACAD_REACTORS
330
29
102
}
330
29
100
AcDbVisualStyle
  2
Shaded
 70
    27
177
     2
291
     0
 71
     2
176
     1
 72
     2
176
     1
 73
     1
176
     1
 90
        2
176
     1
 40
0.6
176
     1
 41
30.0
176
     1
 63
     7
421
 16777215
176
     1
 74
     0
176
     1
 91
        4
176
     1
 64
     7
176
     1
 65
   257
176
     1
 75
     1
176
     1
175
     1
176
     1
 42
1.0
176
     1
 92
        8
176
     1
 66
   257
176
     1
 43
1.0
176
     1
 76
     1
176
     1
 77
     6
176
     1
 78
     2
176
     1
 67
     8
425
  7895160
176
     1
 79
     3
176
     1
170
     0
176
     1
171
     0
176
     1
290
     0
176
     1
 93
        5
176
     1
 44
0.0
176
     1
173
     0
176
     1
1001
ACAD
1000
AcDbSavedByObjectVersion
1070
     0
  0
VISUALSTYLE
  5
3D
102
{ACAD_XDICTIONARY
360
130
102
}
102
{ACAD_REACTORS
330
29
102
}
330
29
100
AcDbVisualStyle
  2
Shaded with edges
 70
    26
177
     2
291
     0
 71
     2
176
     1
 72
     2
176
     1
 73
     1
176
     1
 90
        2
176
     1
 40
0.6
176
     1
 41
30.0
176
     1
 63
     7
421
 16777215
176
     1
 74
     1
176
     1
 91
        2
176
     1
 64
     7
176
     1
 65
   257
176
     1
 75
     2
176
     1
175
     1
176
     1
 42
1.0
176
     1
 92
        8
176
     1
 66
   257
176
     1
 43
1.0
176
     1
 76
     1
176
     1
 77
     6
176
     1
 78
     2
176
     1
 67
     7
176
     1
 79
     3
176
     1
170
     0
176
     1
171
     0
176
     1
290
     0
176
     1
 93
        5
176
     1
 44
0.0
176
     1
173
     0
176
     1
1001
ACAD
1000
AcDbSavedByObjectVersion
1070
     0
  0
VISUALSTYLE
  5
3A
102
{ACAD_XDICTIONARY
360
12A
102
}
102
{ACAD_REACTORS
330
29
102
}
330
29
100
AcDbVisualStyle
  2
Shades of Gray
 70
    23
177
     2
291
     0
 71
     2
176
     1
 72
     2
176
     1
 73
     3
176
     1
 90
        0
176
     1
 40
0.6
176
     1
 41
30.0
176
     1
 63
     7
421
 16777215
176
     1
 74
     2
176
     1
 91
        2
176
     1
 64
     7
176
     1
 65
     7
176
     1
 75
     1
176
     1
175
     1
176
     1
 42
40.0
176
     1
 92
        8
176
     1
 66
     7
176
     1
 43
1.0
176
     1
 76
     1
176
     1
 77
     6
176
     1
 78
     2
176
     1
 67
     7
176
     1
 79
     3
176
     1
170
     0
176
     1
171
     0
176
     1
290
     0
176
     1
 93
        1
176
     1
 44
0.0
176
     1
173
     0
176
     1
1001
ACAD
1000
AcDbSavedByObjectVersion
1070
     0
  0
VISUALSTYLE
  5
3B
102
{ACAD_XDICTIONARY
360
12C
102
}
102
{ACAD_REACTORS
330
29
102
}
330
29
100
AcDbVisualStyle
  2
Sketchy
 70
    24
177
     2
291
     0
 71
     1
176
     1
 72
     2
176
     1
 73
     2
176
     1
 90
        0
176
     1
 40
0.6
176
     1
 41
30.0
176
     1
 63
     7
421
 16777215
176
     1
 74
     2
176
     1
 91
        2
176
     1
 64
     7
176
     1
 65
     7
176
     1
 75
     1
176
     1
175
     1
176
     1
 42
40.0
176
     1
 92
       11
176
     1
 66
     7
176
     1
 43
1.0
176
     1
 76
     1
176
     1
 77
     6
176
     1
 78
     2
176
     1
 67
     7
176
     1
 79
     6
176
     1
170
     0
176
     1
171
     0
176
     1
290
     0
176
     1
 93
        1
176
     1
 44
0.0
176
     1
173
     0
176
     1
1001
ACAD
1000
AcDbSavedByObjectVersion
1070
     0
  0
VISUALSTYLE
  5
36
102
{ACAD_XDICTIONARY
360
122
102
}
102
{ACAD_REACTORS
330
29
102
}
330
29
100
AcDbVisualStyle
  2
Thicken
 70
    13
177
     2
291
     1
 71
     2
176
     1
 72
     2
176
     1
 73
     0
176
     1
 90
        0
176
     1
 40
0.6
176
     1
 41
30.0
176
     1
 63
     7
421
 16777215
176
     1
 74
     1
176
     1
 91
        4
176
     1
 64
     7
176
     1
 65
   257
176
     1
 75
     1
176
     1
175
     1
176
     1
 42
1.0
176
     1
 92
       12
176
     1
 66
     7
176
     1
 43
1.0
176
     1
 76
     1
176
     1
 77
     6
176
     1
 78
     2
176
     1
 67
     7
176
     1
 79
     5
176
     1
170
     0
176
     1
171
     0
176
     1
290
     0
176
     1
 93
        1
176
     1
 44
0.0
176
     1
173
     0
176
     1
1001
ACAD
1000
AcDbSavedByObjectVersion
1070
     0
  0
VISUALSTYLE
  5
30
102
{ACAD_XDICTIONARY
360
116
102
}
102
{ACAD_REACTORS
330
29
102
}
330
29
100
AcDbVisualStyle
  2
Wireframe
 70
     5
177
     2
291
     0
 71
     0
176
     1
 72
     2
176
     1
 73
     0
176
     1
 90
        0
176
     1
 40
0.6
176
     1
 41
30.0
176
     1
 63
     7
421
 16777215
176
     1
 74
     1
176
     1
 91
        4
176
     1
 64
     7
176
     1
 65
   257
176
     1
 75
     1
176
     1
175
     1
176
     1
 42
1.0
176
     1
 92
        0
176
     1
 66
   257
176
     1
 43
1.0
176
     1
 76
     1
176
     1
 77
     6
176
     1
 78
     2
176
     1
 67
     7
176
     1
 79
     3
176
     1
170
     0
176
     1
171
     0
176
     1
290
     0
176
     1
 93
        1
176
     1
 44
0.0
176
     1
173
     0
176
     1
1001
ACAD
1000
AcDbSavedByObjectVersion
1070
     0
  0
VISUALSTYLE
  5
3C
102
{ACAD_XDICTIONARY
360
12E
102
}
102
{ACAD_REACTORS
330
29
102
}
330
29
100
AcDbVisualStyle
  2
X-Ray
 70
    25
177
     2
291
     0
 71
     2
176
     1
 72
     2
176
     1
 73
     1
176
     1
 90
        1
176
     1
 40
0.5
176
     1
 41
30.0
176
     1
 63
     7
421
 16777215
176
     1
 74
     1
176
     1
 91
        0
176
     1
 64
     7
176
     1
 65
   257
176
     1
 75
     1
176
     1
175
     1
176
     1
 42
1.0
176
     1
 92
        8
176
     1
 66
     7
176
     1
 43
1.0
176
     1
 76
     1
176
     1
 77
     6
176
     1
 78
     2
176
     1
 67
     7
176
     1
 79
     3
176
     1
170
     0
176
     1
171
     0
176
     1
290
     0
176
     1
 93
       13
176
     1
 44
0.0
176
     1
173
     0
176
     1
1001
ACAD
1000
AcDbSavedByObjectVersion
1070
     0
  0
DICTIONARYVAR
  5
103
102
{ACAD_REACTORS
330
FE
102
}
330
FE
100
DictionaryVariables
280
     0
  1
1:1
  0
DICTIONARYVAR
  5
100
102
{ACAD_REACTORS
330
FE
102
}
330
FE
100
DictionaryVariables
280
     0
  1
STANDARD
  0
DICTIONARYVAR
  5
FF
102
{ACAD_REACTORS
330
FE
102
}
330
FE
100
DictionaryVariables
280
     0
  1
STANDARD
  0
DICTIONARYVAR
  5
101
102
{ACAD_REACTORS
330
FE
102
}
330
FE
100
DictionaryVariables
280
     0
  1
Imperial24
  0
DICTIONARYVAR
  5
102
102
{ACAD_REACTORS
330
FE
102
}
330
FE
100
DictionaryVariables
280
     0
  1
Imperial24
  0
DICTIONARY
  5
13E
330
6B
100
AcDbDictionary
280
     1
281
     1
  3
ACAD_XREC_ROUNDTRIP
360
13F
  0
DICTIONARY
  5
1A
330
19
100
AcDbDictionary
280
     1
281
     1
  3
BUMPTILE
360
1C
  3
DIFFUSETILE
360
1B
  3
OPACITYTILE
360
1F
  3
REFLECTIONTILE
360
1E
  3
REFRACTIONTILE
360
20
  3
SPECULARTILE
360
1D
  0
DICTIONARY
  5
12
330
11
100
AcDbDictionary
280
     1
281
     1
  3
BUMPTILE
360
14
  3
DIFFUSETILE
360
13
  3
OPACITYTILE
360
17
  3
REFLECTIONTILE
360
16
  3
REFRACTIONTILE
360
18
  3
SPECULARTILE
360
15
  0
DICTIONARY
  5
22
330
21
100
AcDbDictionary
280
     1
281
     1
  3
BUMPTILE
360
24
  3
DIFFUSETILE
360
23
  3
OPACITYTILE
360
27
  3
REFLECTIONTILE
360
26
  3
REFRACTIONTILE
360
28
  3
SPECULARTILE
360
25
  0
DICTIONARY
  5
13A
330
67
100
AcDbDictionary
280
     1
281
     1
  3
ACAD_XREC_ROUNDTRIP
360
13B
  0
DICTIONARY
  5
13C
330
69
100
AcDbDictionary
280
     1
281
     1
  3
ACAD_XREC_ROUNDTRIP
360
13D
  0
DICTIONARY
  5
104
330
65
100
AcDbDictionary
280
     1
281
     1
  3
ACAD_ROUNDTRIP_2008_TABLESTYLE_CELLSTYLEMAP
360
105
  0
DICTIONARY
  5
114
330
2F
100
AcDbDictionary
280
     1
281
     1
  3
ACAD_XREC_ROUNDTRIP
360
115
  0
DICTIONARY
  5
112
330
2E
100
AcDbDictionary
280
     1
281
     1
  3
ACAD_XREC_ROUNDTRIP
360
113
  0
DICTIONARY
  5
120
330
35
100
AcDbDictionary
280
     1
281
     1
  3
ACAD_XREC_ROUNDTRIP
360
121
  0
DICTIONARY
  5
128
330
39
100
AcDbDictionary
280
     1
281
     1
  3
ACAD_XREC_ROUNDTRIP
360
129
  0
DICTIONARY
  5
11A
330
32
100
AcDbDictionary
280
     1
281
     1
  3
ACAD_XREC_ROUNDTRIP
360
11B
  0
DICTIONARY
  5
11E
330
34
100
AcDbDictionary
280
     1
281
     1
  3
ACAD_XREC_ROUNDTRIP
360
11F
  0
DICTIONARY
  5
138
330
41
100
AcDbDictionary
280
     1
281
     1
  3
ACAD_XREC_ROUNDTRIP
360
139
  0
DICTIONARY
  5
126
330
38
100
AcDbDictionary
280
     1
281
     1
  3
ACAD_XREC_ROUNDTRIP
360
127
  0
DICTIONARY
  5
10A
330
2A
100
AcDbDictionary
280
     1
281
     1
  3
ACAD_XREC_ROUNDTRIP
360
10B
  0
DICTIONARY
  5
10C
330
2B
100
AcDbDictionary
280
     1
281
     1
  3
ACAD_XREC_ROUNDTRIP
360
10D
  0
DICTIONARY
  5
10E
330
2C
100
AcDbDictionary
280
     1
281
     1
  3
ACAD_XREC_ROUNDTRIP
360
10F
  0
DICTIONARY
  5
110
330
2D
100
AcDbDictionary
280
     1
281
     1
  3
ACAD_XREC_ROUNDTRIP
360
111
  0
DICTIONARY
  5
118
330
31
100
AcDbDictionary
280
     1
281
     1
  3
ACAD_XREC_ROUNDTRIP
360
119
  0
DICTIONARY
  5
134
330
3F
100
AcDbDictionary
280
     1
281
     1
  3
ACAD_XREC_ROUNDTRIP
360
135
  0
DICTIONARY
  5
124
330
37
100
AcDbDictionary
280
     1
281
     1
  3
ACAD_XREC_ROUNDTRIP
360
125
  0
DICTIONARY
  5
136
330
40
100
AcDbDictionary
280
     1
281
     1
  3
ACAD_XREC_ROUNDTRIP
360
137
  0
DICTIONARY
  5
11C
330
33
100
AcDbDictionary
280
     1
281
     1
  3
ACAD_XREC_ROUNDTRIP
360
11D
  0
DICTIONARY
  5
132
330
3E
100
AcDbDictionary
280
     1
281
     1
  3
ACAD_XREC_ROUNDTRIP
360
133
  0
DICTIONARY
  5
130
330
3D
100
AcDbDictionary
280
     1
281
     1
  3
ACAD_XREC_ROUNDTRIP
360
131
  0
DICTIONARY
  5
12A
330
3A
100
AcDbDictionary
280
     1
281
     1
  3
ACAD_XREC_ROUNDTRIP
360
12B
  0
DICTIONARY
  5
12C
330
3B
100
AcDbDictionary
280
     1
281
     1
  3
ACAD_XREC_ROUNDTRIP
360
12D
  0
DICTIONARY
  5
122
330
36
100
AcDbDictionary
280
     1
281
     1
  3
ACAD_XREC_ROUNDTRIP
360
123
  0
DICTIONARY
  5
116
330
30
100
AcDbDictionary
280
     1
281
     1
  3
ACAD_XREC_ROUNDTRIP
360
117
  0
DICTIONARY
  5
12E
330
3C
100
AcDbDictionary
280
     1
281
     1
  3
ACAD_XREC_ROUNDTRIP
360
12F
  0
XRECORD
  5
13F
102
{ACAD_REACTORS
330
13E
102
}
330
13E
100
AcDbXrecord
280
     1
102
DISPLAYNAME
  1
Imperial24
102
FLAGS
 90
        0
  0
XRECORD
  5
1C
102
{ACAD_REACTORS
330
1A
102
}
330
1A
100
AcDbXrecord
280
     1
270
     1
271
     1
  0
XRECORD
  5
1B
102
{ACAD_REACTORS
330
1A
102
}
330
1A
100
AcDbXrecord
280
     1
270
     1
271
     1
  0
XRECORD
  5
1F
102
{ACAD_REACTORS
330
1A
102
}
330
1A
100
AcDbXrecord
280
     1
270
     1
271
     1
  0
XRECORD
  5
1E
102
{ACAD_REACTORS
330
1A
102
}
330
1A
100
AcDbXrecord
280
     1
270
     1
271
     1
  0
XRECORD
  5
20
102
{ACAD_REACTORS
330
1A
102
}
330
1A
100
AcDbXrecord
280
     1
270
     1
271
     1
  0
XRECORD
  5
1D
102
{ACAD_REACTORS
330
1A
102
}
330
1A
100
AcDbXrecord
280
     1
270
     1
271
     1
  0
XRECORD
  5
14
102
{ACAD_REACTORS
330
12
102
}
330
12
100
AcDbXrecord
280
     1
270
     1
271
     1
  0
XRECORD
  5
13
102
{ACAD_REACTORS
330
12
102
}
330
12
100
AcDbXrecord
280
     1
270
     1
271
     1
  0
XRECORD
  5
17
102
{ACAD_REACTORS
330
12
102
}
330
12
100
AcDbXrecord
280
     1
270
     1
271
     1
  0
XRECORD
  5
16
102
{ACAD_REACTORS
330
12
102
}
330
12
100
AcDbXrecord
280
     1
270
     1
271
     1
  0
XRECORD
  5
18
102
{ACAD_REACTORS
330
12
102
}
330
12
100
AcDbXrecord
280
     1
270
     1
271
     1
  0
XRECORD
  5
15
102
{ACAD_REACTORS
330
12
102
}
330
12
100
AcDbXrecord
280
     1
270
     1
271
     1
  0
XRECORD
  5
24
102
{ACAD_REACTORS
330
22
102
}
330
22
100
AcDbXrecord
280
     1
270
     1
271
     1
  0
XRECORD
  5
23
102
{ACAD_REACTORS
330
22
102
}
330
22
100
AcDbXrecord
280
     1
270
     1
271
     1
  0
XRECORD
  5
27
102
{ACAD_REACTORS
330
22
102
}
330
22
100
AcDbXrecord
280
     1
270
     1
271
     1
  0
XRECORD
  5
26
102
{ACAD_REACTORS
330
22
102
}
330
22
100
AcDbXrecord
280
     1
270
     1
271
     1
  0
XRECORD
  5
28
102
{ACAD_REACTORS
330
22
102
}
330
22
100
AcDbXrecord
280
     1
270
     1
271
     1
  0
XRECORD
  5
25
102
{ACAD_REACTORS
330
22
102
}
330
22
100
AcDbXrecord
280
     1
270
     1
271
     1
  0
XRECORD
  5
13B
102
{ACAD_REACTORS
330
13A
102
}
330
13A
100
AcDbXrecord
280
     1
102
ACAD_ROUNDTRIP_2012_MLEADER_STYLE
298
     1
  0
XRECORD
  5
13D
102
{ACAD_REACTORS
330
13C
102
}
330
13C
100
AcDbXrecord
280
     1
102
DISPLAYNAME
  1
Imperial24
102
FLAGS
 90
        0
  0
CELLSTYLEMAP
  5
105
102
{ACAD_REACTORS
330
104
102
}
330
104
100
AcDbCellStyleMap
 90
        3
300
CELLSTYLE
  1
TABLEFORMAT_BEGIN
 90
        5
170
     1
 91
        0
 92
    32768
 62
   257
 93
        1
300
CONTENTFORMAT
  1
CONTENTFORMAT_BEGIN
 90
        0
 91
        0
 92
      512
 93
        0
300

 40
0.0
140
1.0
 94
        5
 62
     0
340
55
144
0.25
309
CONTENTFORMAT_END
171
     0
 94
        0
309
TABLEFORMAT_END
  1
CELLSTYLE_BEGIN
 90
        1
 91
        1
300
_TITLE
309
CELLSTYLE_END
300
CELLSTYLE
  1
TABLEFORMAT_BEGIN
 90
        5
170
     1
 91
        0
 92
        0
 62
   257
 93
        1
300
CONTENTFORMAT
  1
CONTENTFORMAT_BEGIN
 90
        0
 91
        0
 92
      512
 93
        0
300

 40
0.0
140
1.0
 94
        5
 62
     0
340
55
144
0.18
309
CONTENTFORMAT_END
171
     0
 94
        0
309
TABLEFORMAT_END
  1
CELLSTYLE_BEGIN
 90
        2
 91
        1
300
_HEADER
309
CELLSTYLE_END
300
CELLSTYLE
  1
TABLEFORMAT_BEGIN
 90
        5
170
     1
 91
        0
 92
        0
 62
   257
 93
        1
300
CONTENTFORMAT
  1
CONTENTFORMAT_BEGIN
 90
        0
 91
        0
 92
      512
 93
        0
300

 40
0.0
140
1.0
 94
        2
 62
     0
340
55
144
0.18
309
CONTENTFORMAT_END
171
     0
 94
        0
309
TABLEFORMAT_END
  1
CELLSTYLE_BEGIN
 90
        3
 91
        2
300
_DATA
309
CELLSTYLE_END
  0
XRECORD
  5
115
102
{ACAD_REACTORS
330
114
102
}
330
114
100
AcDbXrecord
280
     1
102
RTVSPost2010Prop28
280
     1
102
RTVSPost2010PropOp28
 70
     1
102
RTVSPost2010Prop29
280
     1
102
RTVSPost2010PropOp29
 70
     1
102
RTVSPost2010Prop30
280
     0
102
RTVSPost2010PropOp30
 70
     1
102
RTVSPost2010Prop31
280
     0
102
RTVSPost2010PropOp31
 70
     1
102
RTVSPost2010Prop32
280
     0
102
RTVSPost2010PropOp32
 70
     1
102
RTVSPost2010Prop33
280
     0
102
RTVSPost2010PropOp33
 70
     1
102
RTVSPost2010Prop34
280
     0
102
RTVSPost2010PropOp34
 70
     1
102
RTVSPost2010Prop35
280
     0
102
RTVSPost2010PropOp35
 70
     1
102
RTVSPost2010Prop36
280
     0
102
RTVSPost2010PropOp36
 70
     1
102
RTVSPost2010Prop37
 90
       50
102
RTVSPost2010PropOp37
 70
     1
102
RTVSPost2010Prop38
140
0.0
102
RTVSPost2010PropOp38
 70
     1
102
RTVSPost2010Prop39
140
1.0
102
RTVSPost2010PropOp39
 70
     1
102
RTVSPost2010Prop40
 90
        0
102
RTVSPost2010PropOp40
 70
     1
102
RTVSPost2010Prop41ColorIndex
 90
       18
102
RTVSPost2010Prop41ColorRGB
 90
        0
102
RTVSPost2010PropOp41
 70
     1
102
RTVSPost2010Prop42
 90
       50
102
RTVSPost2010PropOp42
 70
     1
102
RTVSPost2010Prop43
 90
        3
102
RTVSPost2010PropOp43
 70
     1
102
RTVSPost2010Prop44ColorIndex
 90
        5
102
RTVSPost2010Prop44ColorRGB
 90
      255
102
RTVSPost2010PropOp44
 70
     1
102
RTVSPost2010Prop45
280
     0
102
RTVSPost2010PropOp45
 70
     1
102
RTVSPost2010Prop46
 90
       50
102
RTVSPost2010PropOp46
 70
     1
102
RTVSPost2010Prop47
 90
       50
102
RTVSPost2010PropOp47
 70
     1
102
RTVSPost2010Prop48
 90
       50
102
RTVSPost2010PropOp48
 70
     1
102
RTVSPost2010Prop49
280
     0
102
RTVSPost2010PropOp49
 70
     1
102
RTVSPost2010Prop50
 90
       50
102
RTVSPost2010PropOp50
 70
     1
102
RTVSPost2010Prop51ColorIndex
 90
      256
102
RTVSPost2010Prop51ColorRGB
 90
-16777216
102
RTVSPost2010PropOp51
 70
     0
102
RTVSPost2010Prop52
140
1.0
102
RTVSPost2010PropOp52
 70
     0
102
RTVSPost2010Prop53
 90
        2
102
RTVSPost2010PropOp53
 70
     1
102
RTVSPost2010Prop54
  1
strokes_ogs.tif
102
RTVSPost2010PropOp54
 70
     1
102
RTVSPost2010Prop55
280
     0
102
RTVSPost2010PropOp55
 70
     1
102
RTVSPost2010Prop56
140
1.0
102
RTVSPost2010PropOp56
 70
     1
102
RTVSPost2010Prop57
140
1.0
102
RTVSPost2010PropOp57
 70
     1
  0
XRECORD
  5
113
102
{ACAD_REACTORS
330
112
102
}
330
112
100
AcDbXrecord
280
     1
102
RTVSPost2010Prop28
280
     0
102
RTVSPost2010PropOp28
 70
     1
102
RTVSPost2010Prop29
280
     1
102
RTVSPost2010PropOp29
 70
     1
102
RTVSPost2010Prop30
280
     1
102
RTVSPost2010PropOp30
 70
     1
102
RTVSPost2010Prop31
280
     0
102
RTVSPost2010PropOp31
 70
     1
102
RTVSPost2010Prop32
280
     0
102
RTVSPost2010PropOp32
 70
     1
102
RTVSPost2010Prop33
280
     0
102
RTVSPost2010PropOp33
 70
     1
102
RTVSPost2010Prop34
280
     0
102
RTVSPost2010PropOp34
 70
     1
102
RTVSPost2010Prop35
280
     0
102
RTVSPost2010PropOp35
 70
     1
102
RTVSPost2010Prop36
280
     0
102
RTVSPost2010PropOp36
 70
     1
102
RTVSPost2010Prop37
 90
       50
102
RTVSPost2010PropOp37
 70
     1
102
RTVSPost2010Prop38
140
0.0
102
RTVSPost2010PropOp38
 70
     1
102
RTVSPost2010Prop39
140
1.0
102
RTVSPost2010PropOp39
 70
     1
102
RTVSPost2010Prop40
 90
        0
102
RTVSPost2010PropOp40
 70
     1
102
RTVSPost2010Prop41ColorIndex
 90
       18
102
RTVSPost2010Prop41ColorRGB
 90
        0
102
RTVSPost2010PropOp41
 70
     1
102
RTVSPost2010Prop42
 90
       50
102
RTVSPost2010PropOp42
 70
     1
102
RTVSPost2010Prop43
 90
        3
102
RTVSPost2010PropOp43
 70
     1
102
RTVSPost2010Prop44ColorIndex
 90
        5
102
RTVSPost2010Prop44ColorRGB
 90
      255
102
RTVSPost2010PropOp44
 70
     1
102
RTVSPost2010Prop45
280
     0
102
RTVSPost2010PropOp45
 70
     1
102
RTVSPost2010Prop46
 90
       50
102
RTVSPost2010PropOp46
 70
     1
102
RTVSPost2010Prop47
 90
       50
102
RTVSPost2010PropOp47
 70
     1
102
RTVSPost2010Prop48
 90
       50
102
RTVSPost2010PropOp48
 70
     1
102
RTVSPost2010Prop49
280
     0
102
RTVSPost2010PropOp49
 70
     1
102
RTVSPost2010Prop50
 90
       50
102
RTVSPost2010PropOp50
 70
     1
102
RTVSPost2010Prop51ColorIndex
 90
      256
102
RTVSPost2010Prop51ColorRGB
 90
-16777216
102
RTVSPost2010PropOp51
 70
     0
102
RTVSPost2010Prop52
140
1.0
102
RTVSPost2010PropOp52
 70
     0
102
RTVSPost2010Prop53
 90
        2
102
RTVSPost2010PropOp53
 70
     1
102
RTVSPost2010Prop54
  1
strokes_ogs.tif
102
RTVSPost2010PropOp54
 70
     1
102
RTVSPost2010Prop55
280
     0
102
RTVSPost2010PropOp55
 70
     1
102
RTVSPost2010Prop56
140
1.0
102
RTVSPost2010PropOp56
 70
     1
102
RTVSPost2010Prop57
140
1.0
102
RTVSPost2010PropOp57
 70
     1
  0
XRECORD
  5
121
102
{ACAD_REACTORS
330
120
102
}
330
120
100
AcDbXrecord
280
     1
102
RTVSPost2010Prop28
280
     0
102
RTVSPost2010PropOp28
 70
     1
102
RTVSPost2010Prop29
280
     1
102
RTVSPost2010PropOp29
 70
     1
102
RTVSPost2010Prop30
280
     1
102
RTVSPost2010PropOp30
 70
     1
102
RTVSPost2010Prop31
280
     0
102
RTVSPost2010PropOp31
 70
     1
102
RTVSPost2010Prop32
280
     0
102
RTVSPost2010PropOp32
 70
     1
102
RTVSPost2010Prop33
280
     0
102
RTVSPost2010PropOp33
 70
     1
102
RTVSPost2010Prop34
280
     0
102
RTVSPost2010PropOp34
 70
     1
102
RTVSPost2010Prop35
280
     0
102
RTVSPost2010PropOp35
 70
     1
102
RTVSPost2010Prop36
280
     0
102
RTVSPost2010PropOp36
 70
     1
102
RTVSPost2010Prop37
 90
       50
102
RTVSPost2010PropOp37
 70
     1
102
RTVSPost2010Prop38
140
0.0
102
RTVSPost2010PropOp38
 70
     1
102
RTVSPost2010Prop39
140
1.0
102
RTVSPost2010PropOp39
 70
     1
102
RTVSPost2010Prop40
 90
        0
102
RTVSPost2010PropOp40
 70
     1
102
RTVSPost2010Prop41ColorIndex
 90
       18
102
RTVSPost2010Prop41ColorRGB
 90
        0
102
RTVSPost2010PropOp41
 70
     1
102
RTVSPost2010Prop42
 90
       50
102
RTVSPost2010PropOp42
 70
     1
102
RTVSPost2010Prop43
 90
        3
102
RTVSPost2010PropOp43
 70
     1
102
RTVSPost2010Prop44ColorIndex
 90
        5
102
RTVSPost2010Prop44ColorRGB
 90
      255
102
RTVSPost2010PropOp44
 70
     1
102
RTVSPost2010Prop45
280
     0
102
RTVSPost2010PropOp45
 70
     1
102
RTVSPost2010Prop46
 90
       50
102
RTVSPost2010PropOp46
 70
     1
102
RTVSPost2010Prop47
 90
       50
102
RTVSPost2010PropOp47
 70
     1
102
RTVSPost2010Prop48
 90
       50
102
RTVSPost2010PropOp48
 70
     1
102
RTVSPost2010Prop49
280
     0
102
RTVSPost2010PropOp49
 70
     1
102
RTVSPost2010Prop50
 90
       50
102
RTVSPost2010PropOp50
 70
     1
102
RTVSPost2010Prop51ColorIndex
 90
      256
102
RTVSPost2010Prop51ColorRGB
 90
-16777216
102
RTVSPost2010PropOp51
 70
     0
102
RTVSPost2010Prop52
140
1.0
102
RTVSPost2010PropOp52
 70
     0
102
RTVSPost2010Prop53
 90
        2
102
RTVSPost2010PropOp53
 70
     1
102
RTVSPost2010Prop54
  1
strokes_ogs.tif
102
RTVSPost2010PropOp54
 70
     1
102
RTVSPost2010Prop55
280
     0
102
RTVSPost2010PropOp55
 70
     1
102
RTVSPost2010Prop56
140
1.0
102
RTVSPost2010PropOp56
 70
     1
102
RTVSPost2010Prop57
140
1.0
102
RTVSPost2010PropOp57
 70
     1
  0
XRECORD
  5
129
102
{ACAD_REACTORS
330
128
102
}
330
128
100
AcDbXrecord
280
     1
102
RTVSPost2010Prop28
280
     0
102
RTVSPost2010PropOp28
 70
     1
102
RTVSPost2010Prop29
280
     1
102
RTVSPost2010PropOp29
 70
     1
102
RTVSPost2010Prop30
280
     1
102
RTVSPost2010PropOp30
 70
     1
102
RTVSPost2010Prop31
280
     0
102
RTVSPost2010PropOp31
 70
     1
102
RTVSPost2010Prop32
280
     0
102
RTVSPost2010PropOp32
 70
     1
102
RTVSPost2010Prop33
280
     0
102
RTVSPost2010PropOp33
 70
     1
102
RTVSPost2010Prop34
280
     0
102
RTVSPost2010PropOp34
 70
     1
102
RTVSPost2010Prop35
280
     0
102
RTVSPost2010PropOp35
 70
     1
102
RTVSPost2010Prop36
280
     0
102
RTVSPost2010PropOp36
 70
     1
102
RTVSPost2010Prop37
 90
       50
102
RTVSPost2010PropOp37
 70
     1
102
RTVSPost2010Prop38
140
0.0
102
RTVSPost2010PropOp38
 70
     1
102
RTVSPost2010Prop39
140
1.0
102
RTVSPost2010PropOp39
 70
     1
102
RTVSPost2010Prop40
 90
        0
102
RTVSPost2010PropOp40
 70
     1
102
RTVSPost2010Prop41ColorIndex
 90
       18
102
RTVSPost2010Prop41ColorRGB
 90
        0
102
RTVSPost2010PropOp41
 70
     1
102
RTVSPost2010Prop42
 90
       50
102
RTVSPost2010PropOp42
 70
     1
102
RTVSPost2010Prop43
 90
        3
102
RTVSPost2010PropOp43
 70
     1
102
RTVSPost2010Prop44ColorIndex
 90
        5
102
RTVSPost2010Prop44ColorRGB
 90
      255
102
RTVSPost2010PropOp44
 70
     1
102
RTVSPost2010Prop45
280
     0
102
RTVSPost2010PropOp45
 70
     1
102
RTVSPost2010Prop46
 90
       50
102
RTVSPost2010PropOp46
 70
     1
102
RTVSPost2010Prop47
 90
       50
102
RTVSPost2010PropOp47
 70
     1
102
RTVSPost2010Prop48
 90
       50
102
RTVSPost2010PropOp48
 70
     1
102
RTVSPost2010Prop49
280
     0
102
RTVSPost2010PropOp49
 70
     1
102
RTVSPost2010Prop50
 90
       50
102
RTVSPost2010PropOp50
 70
     1
102
RTVSPost2010Prop51ColorIndex
 90
      256
102
RTVSPost2010Prop51ColorRGB
 90
-16777216
102
RTVSPost2010PropOp51
 70
     0
102
RTVSPost2010Prop52
140
1.0
102
RTVSPost2010PropOp52
 70
     0
102
RTVSPost2010Prop53
 90
        2
102
RTVSPost2010PropOp53
 70
     1
102
RTVSPost2010Prop54
  1
strokes_ogs.tif
102
RTVSPost2010PropOp54
 70
     1
102
RTVSPost2010Prop55
280
     0
102
RTVSPost2010PropOp55
 70
     1
102
RTVSPost2010Prop56
140
1.0
102
RTVSPost2010PropOp56
 70
     1
102
RTVSPost2010Prop57
140
1.0
102
RTVSPost2010PropOp57
 70
     1
  0
XRECORD
  5
11B
102
{ACAD_REACTORS
330
11A
102
}
330
11A
100
AcDbXrecord
280
     1
102
RTVSPost2010Prop28
280
     0
102
RTVSPost2010PropOp28
 70
     1
102
RTVSPost2010Prop29
280
     1
102
RTVSPost2010PropOp29
 70
     1
102
RTVSPost2010Prop30
280
     1
102
RTVSPost2010PropOp30
 70
     1
102
RTVSPost2010Prop31
280
     0
102
RTVSPost2010PropOp31
 70
     1
102
RTVSPost2010Prop32
280
     0
102
RTVSPost2010PropOp32
 70
     1
102
RTVSPost2010Prop33
280
     0
102
RTVSPost2010PropOp33
 70
     1
102
RTVSPost2010Prop34
280
     0
102
RTVSPost2010PropOp34
 70
     1
102
RTVSPost2010Prop35
280
     0
102
RTVSPost2010PropOp35
 70
     1
102
RTVSPost2010Prop36
280
     0
102
RTVSPost2010PropOp36
 70
     1
102
RTVSPost2010Prop37
 90
       50
102
RTVSPost2010PropOp37
 70
     1
102
RTVSPost2010Prop38
140
0.0
102
RTVSPost2010PropOp38
 70
     1
102
RTVSPost2010Prop39
140
1.0
102
RTVSPost2010PropOp39
 70
     1
102
RTVSPost2010Prop40
 90
        0
102
RTVSPost2010PropOp40
 70
     1
102
RTVSPost2010Prop41ColorIndex
 90
       18
102
RTVSPost2010Prop41ColorRGB
 90
        0
102
RTVSPost2010PropOp41
 70
     1
102
RTVSPost2010Prop42
 90
       50
102
RTVSPost2010PropOp42
 70
     1
102
RTVSPost2010Prop43
 90
        3
102
RTVSPost2010PropOp43
 70
     1
102
RTVSPost2010Prop44ColorIndex
 90
        5
102
RTVSPost2010Prop44ColorRGB
 90
      255
102
RTVSPost2010PropOp44
 70
     1
102
RTVSPost2010Prop45
280
     0
102
RTVSPost2010PropOp45
 70
     1
102
RTVSPost2010Prop46
 90
       50
102
RTVSPost2010PropOp46
 70
     1
102
RTVSPost2010Prop47
 90
       50
102
RTVSPost2010PropOp47
 70
     1
102
RTVSPost2010Prop48
 90
       50
102
RTVSPost2010PropOp48
 70
     1
102
RTVSPost2010Prop49
280
     0
102
RTVSPost2010PropOp49
 70
     1
102
RTVSPost2010Prop50
 90
       50
102
RTVSPost2010PropOp50
 70
     1
102
RTVSPost2010Prop51ColorIndex
 90
      256
102
RTVSPost2010Prop51ColorRGB
 90
-16777216
102
RTVSPost2010PropOp51
 70
     0
102
RTVSPost2010Prop52
140
1.0
102
RTVSPost2010PropOp52
 70
     0
102
RTVSPost2010Prop53
 90
        2
102
RTVSPost2010PropOp53
 70
     1
102
RTVSPost2010Prop54
  1
strokes_ogs.tif
102
RTVSPost2010PropOp54
 70
     1
102
RTVSPost2010Prop55
280
     0
102
RTVSPost2010PropOp55
 70
     1
102
RTVSPost2010Prop56
140
1.0
102
RTVSPost2010PropOp56
 70
     1
102
RTVSPost2010Prop57
140
1.0
102
RTVSPost2010PropOp57
 70
     1
  0
XRECORD
  5
11F
102
{ACAD_REACTORS
330
11E
102
}
330
11E
100
AcDbXrecord
280
     1
102
RTVSPost2010Prop28
280
     0
102
RTVSPost2010PropOp28
 70
     1
102
RTVSPost2010Prop29
280
     1
102
RTVSPost2010PropOp29
 70
     1
102
RTVSPost2010Prop30
280
     1
102
RTVSPost2010PropOp30
 70
     1
102
RTVSPost2010Prop31
280
     0
102
RTVSPost2010PropOp31
 70
     1
102
RTVSPost2010Prop32
280
     0
102
RTVSPost2010PropOp32
 70
     1
102
RTVSPost2010Prop33
280
     0
102
RTVSPost2010PropOp33
 70
     1
102
RTVSPost2010Prop34
280
     0
102
RTVSPost2010PropOp34
 70
     1
102
RTVSPost2010Prop35
280
     0
102
RTVSPost2010PropOp35
 70
     1
102
RTVSPost2010Prop36
280
     0
102
RTVSPost2010PropOp36
 70
     1
102
RTVSPost2010Prop37
 90
       50
102
RTVSPost2010PropOp37
 70
     1
102
RTVSPost2010Prop38
140
0.0
102
RTVSPost2010PropOp38
 70
     1
102
RTVSPost2010Prop39
140
1.0
102
RTVSPost2010PropOp39
 70
     1
102
RTVSPost2010Prop40
 90
        0
102
RTVSPost2010PropOp40
 70
     1
102
RTVSPost2010Prop41ColorIndex
 90
       18
102
RTVSPost2010Prop41ColorRGB
 90
        0
102
RTVSPost2010PropOp41
 70
     1
102
RTVSPost2010Prop42
 90
       50
102
RTVSPost2010PropOp42
 70
     1
102
RTVSPost2010Prop43
 90
        3
102
RTVSPost2010PropOp43
 70
     1
102
RTVSPost2010Prop44ColorIndex
 90
        5
102
RTVSPost2010Prop44ColorRGB
 90
      255
102
RTVSPost2010PropOp44
 70
     1
102
RTVSPost2010Prop45
280
     0
102
RTVSPost2010PropOp45
 70
     1
102
RTVSPost2010Prop46
 90
       50
102
RTVSPost2010PropOp46
 70
     1
102
RTVSPost2010Prop47
 90
       50
102
RTVSPost2010PropOp47
 70
     1
102
RTVSPost2010Prop48
 90
       50
102
RTVSPost2010PropOp48
 70
     1
102
RTVSPost2010Prop49
280
     0
102
RTVSPost2010PropOp49
 70
     1
102
RTVSPost2010Prop50
 90
       50
102
RTVSPost2010PropOp50
 70
     1
102
RTVSPost2010Prop51ColorIndex
 90
      256
102
RTVSPost2010Prop51ColorRGB
 90
-16777216
102
RTVSPost2010PropOp51
 70
     0
102
RTVSPost2010Prop52
140
1.0
102
RTVSPost2010PropOp52
 70
     0
102
RTVSPost2010Prop53
 90
        2
102
RTVSPost2010PropOp53
 70
     1
102
RTVSPost2010Prop54
  1
strokes_ogs.tif
102
RTVSPost2010PropOp54
 70
     1
102
RTVSPost2010Prop55
280
     0
102
RTVSPost2010PropOp55
 70
     1
102
RTVSPost2010Prop56
140
1.0
102
RTVSPost2010PropOp56
 70
     1
102
RTVSPost2010Prop57
140
1.0
102
RTVSPost2010PropOp57
 70
     1
  0
XRECORD
  5
139
102
{ACAD_REACTORS
330
138
102
}
330
138
100
AcDbXrecord
280
     1
102
RTVSPost2010Prop28
280
     0
102
RTVSPost2010PropOp28
 70
     0
102
RTVSPost2010Prop29
280
     1
102
RTVSPost2010PropOp29
 70
     0
102
RTVSPost2010Prop30
280
     1
102
RTVSPost2010PropOp30
 70
     0
102
RTVSPost2010Prop31
280
     0
102
RTVSPost2010PropOp31
 70
     0
102
RTVSPost2010Prop32
280
     0
102
RTVSPost2010PropOp32
 70
     0
102
RTVSPost2010Prop33
280
     0
102
RTVSPost2010PropOp33
 70
     0
102
RTVSPost2010Prop34
280
     0
102
RTVSPost2010PropOp34
 70
     0
102
RTVSPost2010Prop35
280
     0
102
RTVSPost2010PropOp35
 70
     0
102
RTVSPost2010Prop36
280
     0
102
RTVSPost2010PropOp36
 70
     0
102
RTVSPost2010Prop37
 90
       50
102
RTVSPost2010PropOp37
 70
     0
102
RTVSPost2010Prop38
140
0.0
102
RTVSPost2010PropOp38
 70
     0
102
RTVSPost2010Prop39
140
1.0
102
RTVSPost2010PropOp39
 70
     0
102
RTVSPost2010Prop40
 90
        0
102
RTVSPost2010PropOp40
 70
     0
102
RTVSPost2010Prop41ColorIndex
 90
       18
102
RTVSPost2010Prop41ColorRGB
 90
        0
102
RTVSPost2010PropOp41
 70
     0
102
RTVSPost2010Prop42
 90
       50
102
RTVSPost2010PropOp42
 70
     0
102
RTVSPost2010Prop43
 90
        3
102
RTVSPost2010PropOp43
 70
     0
102
RTVSPost2010Prop44ColorIndex
 90
        5
102
RTVSPost2010Prop44ColorRGB
 90
      255
102
RTVSPost2010PropOp44
 70
     0
102
RTVSPost2010Prop45
280
     0
102
RTVSPost2010PropOp45
 70
     0
102
RTVSPost2010Prop46
 90
       50
102
RTVSPost2010PropOp46
 70
     0
102
RTVSPost2010Prop47
 90
       50
102
RTVSPost2010PropOp47
 70
     0
102
RTVSPost2010Prop48
 90
       50
102
RTVSPost2010PropOp48
 70
     0
102
RTVSPost2010Prop49
280
     0
102
RTVSPost2010PropOp49
 70
     0
102
RTVSPost2010Prop50
 90
       50
102
RTVSPost2010PropOp50
 70
     0
102
RTVSPost2010Prop51ColorIndex
 90
      256
102
RTVSPost2010Prop51ColorRGB
 90
-16777216
102
RTVSPost2010PropOp51
 70
     0
102
RTVSPost2010Prop52
140
1.0
102
RTVSPost2010PropOp52
 70
     0
102
RTVSPost2010Prop53
 90
        2
102
RTVSPost2010PropOp53
 70
     0
102
RTVSPost2010Prop54
  1
strokes_ogs.tif
102
RTVSPost2010PropOp54
 70
     0
102
RTVSPost2010Prop55
280
     0
102
RTVSPost2010PropOp55
 70
     0
102
RTVSPost2010Prop56
140
1.0
102
RTVSPost2010PropOp56
 70
     0
102
RTVSPost2010Prop57
140
1.0
102
RTVSPost2010PropOp57
 70
     0
  0
XRECORD
  5
127
102
{ACAD_REACTORS
330
126
102
}
330
126
100
AcDbXrecord
280
     1
102
RTVSPost2010Prop28
280
     0
102
RTVSPost2010PropOp28
 70
     1
102
RTVSPost2010Prop29
280
     1
102
RTVSPost2010PropOp29
 70
     1
102
RTVSPost2010Prop30
280
     1
102
RTVSPost2010PropOp30
 70
     1
102
RTVSPost2010Prop31
280
     0
102
RTVSPost2010PropOp31
 70
     1
102
RTVSPost2010Prop32
280
     0
102
RTVSPost2010PropOp32
 70
     1
102
RTVSPost2010Prop33
280
     0
102
RTVSPost2010PropOp33
 70
     1
102
RTVSPost2010Prop34
280
     0
102
RTVSPost2010PropOp34
 70
     1
102
RTVSPost2010Prop35
280
     0
102
RTVSPost2010PropOp35
 70
     1
102
RTVSPost2010Prop36
280
     0
102
RTVSPost2010PropOp36
 70
     1
102
RTVSPost2010Prop37
 90
       50
102
RTVSPost2010PropOp37
 70
     1
102
RTVSPost2010Prop38
140
0.0
102
RTVSPost2010PropOp38
 70
     1
102
RTVSPost2010Prop39
140
1.0
102
RTVSPost2010PropOp39
 70
     1
102
RTVSPost2010Prop40
 90
        0
102
RTVSPost2010PropOp40
 70
     1
102
RTVSPost2010Prop41ColorIndex
 90
       18
102
RTVSPost2010Prop41ColorRGB
 90
        0
102
RTVSPost2010PropOp41
 70
     1
102
RTVSPost2010Prop42
 90
       50
102
RTVSPost2010PropOp42
 70
     1
102
RTVSPost2010Prop43
 90
        3
102
RTVSPost2010PropOp43
 70
     1
102
RTVSPost2010Prop44ColorIndex
 90
        5
102
RTVSPost2010Prop44ColorRGB
 90
      255
102
RTVSPost2010PropOp44
 70
     1
102
RTVSPost2010Prop45
280
     0
102
RTVSPost2010PropOp45
 70
     1
102
RTVSPost2010Prop46
 90
       50
102
RTVSPost2010PropOp46
 70
     1
102
RTVSPost2010Prop47
 90
       50
102
RTVSPost2010PropOp47
 70
     1
102
RTVSPost2010Prop48
 90
       50
102
RTVSPost2010PropOp48
 70
     1
102
RTVSPost2010Prop49
280
     0
102
RTVSPost2010PropOp49
 70
     1
102
RTVSPost2010Prop50
 90
       50
102
RTVSPost2010PropOp50
 70
     1
102
RTVSPost2010Prop51ColorIndex
 90
      256
102
RTVSPost2010Prop51ColorRGB
 90
-16777216
102
RTVSPost2010PropOp51
 70
     0
102
RTVSPost2010Prop52
140
1.0
102
RTVSPost2010PropOp52
 70
     0
102
RTVSPost2010Prop53
 90
        2
102
RTVSPost2010PropOp53
 70
     1
102
RTVSPost2010Prop54
  1
strokes_ogs.tif
102
RTVSPost2010PropOp54
 70
     1
102
RTVSPost2010Prop55
280
     0
102
RTVSPost2010PropOp55
 70
     1
102
RTVSPost2010Prop56
140
1.0
102
RTVSPost2010PropOp56
 70
     1
102
RTVSPost2010Prop57
140
1.0
102
RTVSPost2010PropOp57
 70
     1
  0
XRECORD
  5
10B
102
{ACAD_REACTORS
330
10A
102
}
330
10A
100
AcDbXrecord
280
     1
102
RTVSPost2010Prop28
280
     0
102
RTVSPost2010PropOp28
 70
     1
102
RTVSPost2010Prop29
280
     1
102
RTVSPost2010PropOp29
 70
     1
102
RTVSPost2010Prop30
280
     1
102
RTVSPost2010PropOp30
 70
     1
102
RTVSPost2010Prop31
280
     0
102
RTVSPost2010PropOp31
 70
     1
102
RTVSPost2010Prop32
280
     0
102
RTVSPost2010PropOp32
 70
     1
102
RTVSPost2010Prop33
280
     0
102
RTVSPost2010PropOp33
 70
     1
102
RTVSPost2010Prop34
280
     0
102
RTVSPost2010PropOp34
 70
     1
102
RTVSPost2010Prop35
280
     0
102
RTVSPost2010PropOp35
 70
     1
102
RTVSPost2010Prop36
280
     0
102
RTVSPost2010PropOp36
 70
     1
102
RTVSPost2010Prop37
 90
       50
102
RTVSPost2010PropOp37
 70
     1
102
RTVSPost2010Prop38
140
0.0
102
RTVSPost2010PropOp38
 70
     1
102
RTVSPost2010Prop39
140
1.0
102
RTVSPost2010PropOp39
 70
     1
102
RTVSPost2010Prop40
 90
        0
102
RTVSPost2010PropOp40
 70
     1
102
RTVSPost2010Prop41ColorIndex
 90
       18
102
RTVSPost2010Prop41ColorRGB
 90
        0
102
RTVSPost2010PropOp41
 70
     1
102
RTVSPost2010Prop42
 90
       50
102
RTVSPost2010PropOp42
 70
     1
102
RTVSPost2010Prop43
 90
        3
102
RTVSPost2010PropOp43
 70
     1
102
RTVSPost2010Prop44ColorIndex
 90
        5
102
RTVSPost2010Prop44ColorRGB
 90
      255
102
RTVSPost2010PropOp44
 70
     1
102
RTVSPost2010Prop45
280
     0
102
RTVSPost2010PropOp45
 70
     1
102
RTVSPost2010Prop46
 90
       50
102
RTVSPost2010PropOp46
 70
     1
102
RTVSPost2010Prop47
 90
       50
102
RTVSPost2010PropOp47
 70
     1
102
RTVSPost2010Prop48
 90
       50
102
RTVSPost2010PropOp48
 70
     1
102
RTVSPost2010Prop49
280
     0
102
RTVSPost2010PropOp49
 70
     1
102
RTVSPost2010Prop50
 90
       50
102
RTVSPost2010PropOp50
 70
     1
102
RTVSPost2010Prop51ColorIndex
 90
      256
102
RTVSPost2010Prop51ColorRGB
 90
-16777216
102
RTVSPost2010PropOp51
 70
     0
102
RTVSPost2010Prop52
140
1.0
102
RTVSPost2010PropOp52
 70
     0
102
RTVSPost2010Prop53
 90
        2
102
RTVSPost2010PropOp53
 70
     1
102
RTVSPost2010Prop54
  1
strokes_ogs.tif
102
RTVSPost2010PropOp54
 70
     1
102
RTVSPost2010Prop55
280
     0
102
RTVSPost2010PropOp55
 70
     1
102
RTVSPost2010Prop56
140
1.0
102
RTVSPost2010PropOp56
 70
     1
102
RTVSPost2010Prop57
140
1.0
102
RTVSPost2010PropOp57
 70
     1
  0
XRECORD
  5
10D
102
{ACAD_REACTORS
330
10C
102
}
330
10C
100
AcDbXrecord
280
     1
102
RTVSPost2010Prop28
280
     0
102
RTVSPost2010PropOp28
 70
     1
102
RTVSPost2010Prop29
280
     1
102
RTVSPost2010PropOp29
 70
     1
102
RTVSPost2010Prop30
280
     1
102
RTVSPost2010PropOp30
 70
     1
102
RTVSPost2010Prop31
280
     0
102
RTVSPost2010PropOp31
 70
     1
102
RTVSPost2010Prop32
280
     0
102
RTVSPost2010PropOp32
 70
     1
102
RTVSPost2010Prop33
280
     0
102
RTVSPost2010PropOp33
 70
     1
102
RTVSPost2010Prop34
280
     0
102
RTVSPost2010PropOp34
 70
     1
102
RTVSPost2010Prop35
280
     0
102
RTVSPost2010PropOp35
 70
     1
102
RTVSPost2010Prop36
280
     0
102
RTVSPost2010PropOp36
 70
     1
102
RTVSPost2010Prop37
 90
       50
102
RTVSPost2010PropOp37
 70
     1
102
RTVSPost2010Prop38
140
0.0
102
RTVSPost2010PropOp38
 70
     1
102
RTVSPost2010Prop39
140
1.0
102
RTVSPost2010PropOp39
 70
     1
102
RTVSPost2010Prop40
 90
        0
102
RTVSPost2010PropOp40
 70
     1
102
RTVSPost2010Prop41ColorIndex
 90
       18
102
RTVSPost2010Prop41ColorRGB
 90
        0
102
RTVSPost2010PropOp41
 70
     1
102
RTVSPost2010Prop42
 90
       50
102
RTVSPost2010PropOp42
 70
     1
102
RTVSPost2010Prop43
 90
        3
102
RTVSPost2010PropOp43
 70
     1
102
RTVSPost2010Prop44ColorIndex
 90
        5
102
RTVSPost2010Prop44ColorRGB
 90
      255
102
RTVSPost2010PropOp44
 70
     1
102
RTVSPost2010Prop45
280
     0
102
RTVSPost2010PropOp45
 70
     1
102
RTVSPost2010Prop46
 90
       50
102
RTVSPost2010PropOp46
 70
     1
102
RTVSPost2010Prop47
 90
       50
102
RTVSPost2010PropOp47
 70
     1
102
RTVSPost2010Prop48
 90
       50
102
RTVSPost2010PropOp48
 70
     1
102
RTVSPost2010Prop49
280
     0
102
RTVSPost2010PropOp49
 70
     1
102
RTVSPost2010Prop50
 90
       50
102
RTVSPost2010PropOp50
 70
     1
102
RTVSPost2010Prop51ColorIndex
 90
      256
102
RTVSPost2010Prop51ColorRGB
 90
-16777216
102
RTVSPost2010PropOp51
 70
     0
102
RTVSPost2010Prop52
140
1.0
102
RTVSPost2010PropOp52
 70
     0
102
RTVSPost2010Prop53
 90
        2
102
RTVSPost2010PropOp53
 70
     1
102
RTVSPost2010Prop54
  1
strokes_ogs.tif
102
RTVSPost2010PropOp54
 70
     1
102
RTVSPost2010Prop55
280
     0
102
RTVSPost2010PropOp55
 70
     1
102
RTVSPost2010Prop56
140
1.0
102
RTVSPost2010PropOp56
 70
     1
102
RTVSPost2010Prop57
140
1.0
102
RTVSPost2010PropOp57
 70
     1
  0
XRECORD
  5
10F
102
{ACAD_REACTORS
330
10E
102
}
330
10E
100
AcDbXrecord
280
     1
102
RTVSPost2010Prop28
280
     0
102
RTVSPost2010PropOp28
 70
     1
102
RTVSPost2010Prop29
280
     1
102
RTVSPost2010PropOp29
 70
     1
102
RTVSPost2010Prop30
280
     1
102
RTVSPost2010PropOp30
 70
     1
102
RTVSPost2010Prop31
280
     0
102
RTVSPost2010PropOp31
 70
     1
102
RTVSPost2010Prop32
280
     0
102
RTVSPost2010PropOp32
 70
     1
102
RTVSPost2010Prop33
280
     0
102
RTVSPost2010PropOp33
 70
     1
102
RTVSPost2010Prop34
280
     0
102
RTVSPost2010PropOp34
 70
     1
102
RTVSPost2010Prop35
280
     0
102
RTVSPost2010PropOp35
 70
     1
102
RTVSPost2010Prop36
280
     0
102
RTVSPost2010PropOp36
 70
     1
102
RTVSPost2010Prop37
 90
       50
102
RTVSPost2010PropOp37
 70
     1
102
RTVSPost2010Prop38
140
0.0
102
RTVSPost2010PropOp38
 70
     1
102
RTVSPost2010Prop39
140
1.0
102
RTVSPost2010PropOp39
 70
     1
102
RTVSPost2010Prop40
 90
        0
102
RTVSPost2010PropOp40
 70
     1
102
RTVSPost2010Prop41ColorIndex
 90
       18
102
RTVSPost2010Prop41ColorRGB
 90
        0
102
RTVSPost2010PropOp41
 70
     1
102
RTVSPost2010Prop42
 90
       50
102
RTVSPost2010PropOp42
 70
     1
102
RTVSPost2010Prop43
 90
        3
102
RTVSPost2010PropOp43
 70
     1
102
RTVSPost2010Prop44ColorIndex
 90
        5
102
RTVSPost2010Prop44ColorRGB
 90
      255
102
RTVSPost2010PropOp44
 70
     1
102
RTVSPost2010Prop45
280
     0
102
RTVSPost2010PropOp45
 70
     1
102
RTVSPost2010Prop46
 90
       50
102
RTVSPost2010PropOp46
 70
     1
102
RTVSPost2010Prop47
 90
       50
102
RTVSPost2010PropOp47
 70
     1
102
RTVSPost2010Prop48
 90
       50
102
RTVSPost2010PropOp48
 70
     1
102
RTVSPost2010Prop49
280
     0
102
RTVSPost2010PropOp49
 70
     1
102
RTVSPost2010Prop50
 90
       50
102
RTVSPost2010PropOp50
 70
     1
102
RTVSPost2010Prop51ColorIndex
 90
      256
102
RTVSPost2010Prop51ColorRGB
 90
-16777216
102
RTVSPost2010PropOp51
 70
     0
102
RTVSPost2010Prop52
140
1.0
102
RTVSPost2010PropOp52
 70
     0
102
RTVSPost2010Prop53
 90
        2
102
RTVSPost2010PropOp53
 70
     1
102
RTVSPost2010Prop54
  1
strokes_ogs.tif
102
RTVSPost2010PropOp54
 70
     1
102
RTVSPost2010Prop55
280
     0
102
RTVSPost2010PropOp55
 70
     1
102
RTVSPost2010Prop56
140
1.0
102
RTVSPost2010PropOp56
 70
     1
102
RTVSPost2010Prop57
140
1.0
102
RTVSPost2010PropOp57
 70
     1
  0
XRECORD
  5
111
102
{ACAD_REACTORS
330
110
102
}
330
110
100
AcDbXrecord
280
     1
102
RTVSPost2010Prop28
280
     0
102
RTVSPost2010PropOp28
 70
     1
102
RTVSPost2010Prop29
280
     1
102
RTVSPost2010PropOp29
 70
     1
102
RTVSPost2010Prop30
280
     1
102
RTVSPost2010PropOp30
 70
     1
102
RTVSPost2010Prop31
280
     0
102
RTVSPost2010PropOp31
 70
     1
102
RTVSPost2010Prop32
280
     0
102
RTVSPost2010PropOp32
 70
     1
102
RTVSPost2010Prop33
280
     0
102
RTVSPost2010PropOp33
 70
     1
102
RTVSPost2010Prop34
280
     0
102
RTVSPost2010PropOp34
 70
     1
102
RTVSPost2010Prop35
280
     0
102
RTVSPost2010PropOp35
 70
     1
102
RTVSPost2010Prop36
280
     0
102
RTVSPost2010PropOp36
 70
     1
102
RTVSPost2010Prop37
 90
       50
102
RTVSPost2010PropOp37
 70
     1
102
RTVSPost2010Prop38
140
0.0
102
RTVSPost2010PropOp38
 70
     1
102
RTVSPost2010Prop39
140
1.0
102
RTVSPost2010PropOp39
 70
     1
102
RTVSPost2010Prop40
 90
        0
102
RTVSPost2010PropOp40
 70
     1
102
RTVSPost2010Prop41ColorIndex
 90
       18
102
RTVSPost2010Prop41ColorRGB
 90
        0
102
RTVSPost2010PropOp41
 70
     1
102
RTVSPost2010Prop42
 90
       50
102
RTVSPost2010PropOp42
 70
     1
102
RTVSPost2010Prop43
 90
        3
102
RTVSPost2010PropOp43
 70
     1
102
RTVSPost2010Prop44ColorIndex
 90
        5
102
RTVSPost2010Prop44ColorRGB
 90
      255
102
RTVSPost2010PropOp44
 70
     1
102
RTVSPost2010Prop45
280
     0
102
RTVSPost2010PropOp45
 70
     1
102
RTVSPost2010Prop46
 90
       50
102
RTVSPost2010PropOp46
 70
     1
102
RTVSPost2010Prop47
 90
       50
102
RTVSPost2010PropOp47
 70
     1
102
RTVSPost2010Prop48
 90
       50
102
RTVSPost2010PropOp48
 70
     1
102
RTVSPost2010Prop49
280
     0
102
RTVSPost2010PropOp49
 70
     1
102
RTVSPost2010Prop50
 90
       50
102
RTVSPost2010PropOp50
 70
     1
102
RTVSPost2010Prop51ColorIndex
 90
      256
102
RTVSPost2010Prop51ColorRGB
 90
-16777216
102
RTVSPost2010PropOp51
 70
     0
102
RTVSPost2010Prop52
140
1.0
102
RTVSPost2010PropOp52
 70
     0
102
RTVSPost2010Prop53
 90
        2
102
RTVSPost2010PropOp53
 70
     1
102
RTVSPost2010Prop54
  1
strokes_ogs.tif
102
RTVSPost2010PropOp54
 70
     1
102
RTVSPost2010Prop55
280
     0
102
RTVSPost2010PropOp55
 70
     1
102
RTVSPost2010Prop56
140
1.0
102
RTVSPost2010PropOp56
 70
     1
102
RTVSPost2010Prop57
140
1.0
102
RTVSPost2010PropOp57
 70
     1
  0
XRECORD
  5
119
102
{ACAD_REACTORS
330
118
102
}
330
118
100
AcDbXrecord
280
     1
102
RTVSPost2010Prop28
280
     0
102
RTVSPost2010PropOp28
 70
     1
102
RTVSPost2010Prop29
280
     1
102
RTVSPost2010PropOp29
 70
     1
102
RTVSPost2010Prop30
280
     1
102
RTVSPost2010PropOp30
 70
     1
102
RTVSPost2010Prop31
280
     0
102
RTVSPost2010PropOp31
 70
     1
102
RTVSPost2010Prop32
280
     0
102
RTVSPost2010PropOp32
 70
     1
102
RTVSPost2010Prop33
280
     0
102
RTVSPost2010PropOp33
 70
     1
102
RTVSPost2010Prop34
280
     0
102
RTVSPost2010PropOp34
 70
     1
102
RTVSPost2010Prop35
280
     0
102
RTVSPost2010PropOp35
 70
     1
102
RTVSPost2010Prop36
280
     0
102
RTVSPost2010PropOp36
 70
     1
102
RTVSPost2010Prop37
 90
       50
102
RTVSPost2010PropOp37
 70
     1
102
RTVSPost2010Prop38
140
0.0
102
RTVSPost2010PropOp38
 70
     1
102
RTVSPost2010Prop39
140
1.0
102
RTVSPost2010PropOp39
 70
     1
102
RTVSPost2010Prop40
 90
        0
102
RTVSPost2010PropOp40
 70
     1
102
RTVSPost2010Prop41ColorIndex
 90
       18
102
RTVSPost2010Prop41ColorRGB
 90
        0
102
RTVSPost2010PropOp41
 70
     1
102
RTVSPost2010Prop42
 90
       50
102
RTVSPost2010PropOp42
 70
     1
102
RTVSPost2010Prop43
 90
        3
102
RTVSPost2010PropOp43
 70
     1
102
RTVSPost2010Prop44ColorIndex
 90
        5
102
RTVSPost2010Prop44ColorRGB
 90
      255
102
RTVSPost2010PropOp44
 70
     1
102
RTVSPost2010Prop45
280
     0
102
RTVSPost2010PropOp45
 70
     1
102
RTVSPost2010Prop46
 90
       50
102
RTVSPost2010PropOp46
 70
     1
102
RTVSPost2010Prop47
 90
       50
102
RTVSPost2010PropOp47
 70
     1
102
RTVSPost2010Prop48
 90
       50
102
RTVSPost2010PropOp48
 70
     1
102
RTVSPost2010Prop49
280
     0
102
RTVSPost2010PropOp49
 70
     1
102
RTVSPost2010Prop50
 90
       50
102
RTVSPost2010PropOp50
 70
     1
102
RTVSPost2010Prop51ColorIndex
 90
      256
102
RTVSPost2010Prop51ColorRGB
 90
-16777216
102
RTVSPost2010PropOp51
 70
     0
102
RTVSPost2010Prop52
140
1.0
102
RTVSPost2010PropOp52
 70
     0
102
RTVSPost2010Prop53
 90
        2
102
RTVSPost2010PropOp53
 70
     1
102
RTVSPost2010Prop54
  1
strokes_ogs.tif
102
RTVSPost2010PropOp54
 70
     1
102
RTVSPost2010Prop55
280
     0
102
RTVSPost2010PropOp55
 70
     1
102
RTVSPost2010Prop56
140
1.0
102
RTVSPost2010PropOp56
 70
     1
102
RTVSPost2010Prop57
140
1.0
102
RTVSPost2010PropOp57
 70
     1
  0
XRECORD
  5
135
102
{ACAD_REACTORS
330
134
102
}
330
134
100
AcDbXrecord
280
     1
102
RTVSPost2010Prop28
280
     0
102
RTVSPost2010PropOp28
 70
     0
102
RTVSPost2010Prop29
280
     1
102
RTVSPost2010PropOp29
 70
     0
102
RTVSPost2010Prop30
280
     1
102
RTVSPost2010PropOp30
 70
     0
102
RTVSPost2010Prop31
280
     0
102
RTVSPost2010PropOp31
 70
     0
102
RTVSPost2010Prop32
280
     0
102
RTVSPost2010PropOp32
 70
     0
102
RTVSPost2010Prop33
280
     0
102
RTVSPost2010PropOp33
 70
     0
102
RTVSPost2010Prop34
280
     0
102
RTVSPost2010PropOp34
 70
     0
102
RTVSPost2010Prop35
280
     0
102
RTVSPost2010PropOp35
 70
     0
102
RTVSPost2010Prop36
280
     0
102
RTVSPost2010PropOp36
 70
     0
102
RTVSPost2010Prop37
 90
       50
102
RTVSPost2010PropOp37
 70
     0
102
RTVSPost2010Prop38
140
0.0
102
RTVSPost2010PropOp38
 70
     0
102
RTVSPost2010Prop39
140
1.0
102
RTVSPost2010PropOp39
 70
     0
102
RTVSPost2010Prop40
 90
        0
102
RTVSPost2010PropOp40
 70
     0
102
RTVSPost2010Prop41ColorIndex
 90
       18
102
RTVSPost2010Prop41ColorRGB
 90
        0
102
RTVSPost2010PropOp41
 70
     0
102
RTVSPost2010Prop42
 90
       50
102
RTVSPost2010PropOp42
 70
     0
102
RTVSPost2010Prop43
 90
        3
102
RTVSPost2010PropOp43
 70
     0
102
RTVSPost2010Prop44ColorIndex
 90
        5
102
RTVSPost2010Prop44ColorRGB
 90
      255
102
RTVSPost2010PropOp44
 70
     0
102
RTVSPost2010Prop45
280
     0
102
RTVSPost2010PropOp45
 70
     0
102
RTVSPost2010Prop46
 90
       50
102
RTVSPost2010PropOp46
 70
     0
102
RTVSPost2010Prop47
 90
       50
102
RTVSPost2010PropOp47
 70
     0
102
RTVSPost2010Prop48
 90
       50
102
RTVSPost2010PropOp48
 70
     0
102
RTVSPost2010Prop49
280
     0
102
RTVSPost2010PropOp49
 70
     0
102
RTVSPost2010Prop50
 90
       50
102
RTVSPost2010PropOp50
 70
     0
102
RTVSPost2010Prop51ColorIndex
 90
      256
102
RTVSPost2010Prop51ColorRGB
 90
-16777216
102
RTVSPost2010PropOp51
 70
     0
102
RTVSPost2010Prop52
140
1.0
102
RTVSPost2010PropOp52
 70
     0
102
RTVSPost2010Prop53
 90
        2
102
RTVSPost2010PropOp53
 70
     0
102
RTVSPost2010Prop54
  1
strokes_ogs.tif
102
RTVSPost2010PropOp54
 70
     0
102
RTVSPost2010Prop55
280
     0
102
RTVSPost2010PropOp55
 70
     0
102
RTVSPost2010Prop56
140
1.0
102
RTVSPost2010PropOp56
 70
     0
102
RTVSPost2010Prop57
140
1.0
102
RTVSPost2010PropOp57
 70
     0
  0
XRECORD
  5
125
102
{ACAD_REACTORS
330
124
102
}
330
124
100
AcDbXrecord
280
     1
102
RTVSPost2010Prop28
280
     0
102
RTVSPost2010PropOp28
 70
     1
102
RTVSPost2010Prop29
280
     1
102
RTVSPost2010PropOp29
 70
     1
102
RTVSPost2010Prop30
280
     1
102
RTVSPost2010PropOp30
 70
     1
102
RTVSPost2010Prop31
280
     0
102
RTVSPost2010PropOp31
 70
     1
102
RTVSPost2010Prop32
280
     0
102
RTVSPost2010PropOp32
 70
     1
102
RTVSPost2010Prop33
280
     0
102
RTVSPost2010PropOp33
 70
     1
102
RTVSPost2010Prop34
280
     0
102
RTVSPost2010PropOp34
 70
     1
102
RTVSPost2010Prop35
280
     0
102
RTVSPost2010PropOp35
 70
     1
102
RTVSPost2010Prop36
280
     0
102
RTVSPost2010PropOp36
 70
     1
102
RTVSPost2010Prop37
 90
       50
102
RTVSPost2010PropOp37
 70
     1
102
RTVSPost2010Prop38
140
0.0
102
RTVSPost2010PropOp38
 70
     1
102
RTVSPost2010Prop39
140
1.0
102
RTVSPost2010PropOp39
 70
     1
102
RTVSPost2010Prop40
 90
        0
102
RTVSPost2010PropOp40
 70
     1
102
RTVSPost2010Prop41ColorIndex
 90
       18
102
RTVSPost2010Prop41ColorRGB
 90
        0
102
RTVSPost2010PropOp41
 70
     1
102
RTVSPost2010Prop42
 90
       50
102
RTVSPost2010PropOp42
 70
     1
102
RTVSPost2010Prop43
 90
        3
102
RTVSPost2010PropOp43
 70
     1
102
RTVSPost2010Prop44ColorIndex
 90
        5
102
RTVSPost2010Prop44ColorRGB
 90
      255
102
RTVSPost2010PropOp44
 70
     1
102
RTVSPost2010Prop45
280
     0
102
RTVSPost2010PropOp45
 70
     1
102
RTVSPost2010Prop46
 90
       50
102
RTVSPost2010PropOp46
 70
     1
102
RTVSPost2010Prop47
 90
       50
102
RTVSPost2010PropOp47
 70
     1
102
RTVSPost2010Prop48
 90
       50
102
RTVSPost2010PropOp48
 70
     1
102
RTVSPost2010Prop49
280
     0
102
RTVSPost2010PropOp49
 70
     1
102
RTVSPost2010Prop50
 90
       50
102
RTVSPost2010PropOp50
 70
     1
102
RTVSPost2010Prop51ColorIndex
 90
      256
102
RTVSPost2010Prop51ColorRGB
 90
-16777216
102
RTVSPost2010PropOp51
 70
     0
102
RTVSPost2010Prop52
140
1.0
102
RTVSPost2010PropOp52
 70
     0
102
RTVSPost2010Prop53
 90
        2
102
RTVSPost2010PropOp53
 70
     1
102
RTVSPost2010Prop54
  1
strokes_ogs.tif
102
RTVSPost2010PropOp54
 70
     1
102
RTVSPost2010Prop55
280
     0
102
RTVSPost2010PropOp55
 70
     1
102
RTVSPost2010Prop56
140
1.0
102
RTVSPost2010PropOp56
 70
     1
102
RTVSPost2010Prop57
140
1.0
102
RTVSPost2010PropOp57
 70
     1
  0
XRECORD
  5
137
102
{ACAD_REACTORS
330
136
102
}
330
136
100
AcDbXrecord
280
     1
102
RTVSPost2010Prop28
280
     0
102
RTVSPost2010PropOp28
 70
     0
102
RTVSPost2010Prop29
280
     1
102
RTVSPost2010PropOp29
 70
     0
102
RTVSPost2010Prop30
280
     1
102
RTVSPost2010PropOp30
 70
     0
102
RTVSPost2010Prop31
280
     0
102
RTVSPost2010PropOp31
 70
     0
102
RTVSPost2010Prop32
280
     0
102
RTVSPost2010PropOp32
 70
     0
102
RTVSPost2010Prop33
280
     0
102
RTVSPost2010PropOp33
 70
     0
102
RTVSPost2010Prop34
280
     0
102
RTVSPost2010PropOp34
 70
     0
102
RTVSPost2010Prop35
280
     0
102
RTVSPost2010PropOp35
 70
     0
102
RTVSPost2010Prop36
280
     0
102
RTVSPost2010PropOp36
 70
     0
102
RTVSPost2010Prop37
 90
       50
102
RTVSPost2010PropOp37
 70
     0
102
RTVSPost2010Prop38
140
0.0
102
RTVSPost2010PropOp38
 70
     0
102
RTVSPost2010Prop39
140
1.0
102
RTVSPost2010PropOp39
 70
     0
102
RTVSPost2010Prop40
 90
        0
102
RTVSPost2010PropOp40
 70
     0
102
RTVSPost2010Prop41ColorIndex
 90
       18
102
RTVSPost2010Prop41ColorRGB
 90
        0
102
RTVSPost2010PropOp41
 70
     0
102
RTVSPost2010Prop42
 90
       50
102
RTVSPost2010PropOp42
 70
     0
102
RTVSPost2010Prop43
 90
        3
102
RTVSPost2010PropOp43
 70
     0
102
RTVSPost2010Prop44ColorIndex
 90
        5
102
RTVSPost2010Prop44ColorRGB
 90
      255
102
RTVSPost2010PropOp44
 70
     0
102
RTVSPost2010Prop45
280
     0
102
RTVSPost2010PropOp45
 70
     0
102
RTVSPost2010Prop46
 90
       50
102
RTVSPost2010PropOp46
 70
     0
102
RTVSPost2010Prop47
 90
       50
102
RTVSPost2010PropOp47
 70
     0
102
RTVSPost2010Prop48
 90
       50
102
RTVSPost2010PropOp48
 70
     0
102
RTVSPost2010Prop49
280
     0
102
RTVSPost2010PropOp49
 70
     0
102
RTVSPost2010Prop50
 90
       50
102
RTVSPost2010PropOp50
 70
     0
102
RTVSPost2010Prop51ColorIndex
 90
      256
102
RTVSPost2010Prop51ColorRGB
 90
-16777216
102
RTVSPost2010PropOp51
 70
     0
102
RTVSPost2010Prop52
140
1.0
102
RTVSPost2010PropOp52
 70
     0
102
RTVSPost2010Prop53
 90
        2
102
RTVSPost2010PropOp53
 70
     0
102
RTVSPost2010Prop54
  1
strokes_ogs.tif
102
RTVSPost2010PropOp54
 70
     0
102
RTVSPost2010Prop55
280
     0
102
RTVSPost2010PropOp55
 70
     0
102
RTVSPost2010Prop56
140
1.0
102
RTVSPost2010PropOp56
 70
     0
102
RTVSPost2010Prop57
140
1.0
102
RTVSPost2010PropOp57
 70
     0
  0
XRECORD
  5
11D
102
{ACAD_REACTORS
330
11C
102
}
330
11C
100
AcDbXrecord
280
     1
102
RTVSPost2010Prop28
280
     0
102
RTVSPost2010PropOp28
 70
     1
102
RTVSPost2010Prop29
280
     1
102
RTVSPost2010PropOp29
 70
     1
102
RTVSPost2010Prop30
280
     1
102
RTVSPost2010PropOp30
 70
     1
102
RTVSPost2010Prop31
280
     0
102
RTVSPost2010PropOp31
 70
     1
102
RTVSPost2010Prop32
280
     0
102
RTVSPost2010PropOp32
 70
     1
102
RTVSPost2010Prop33
280
     0
102
RTVSPost2010PropOp33
 70
     1
102
RTVSPost2010Prop34
280
     0
102
RTVSPost2010PropOp34
 70
     1
102
RTVSPost2010Prop35
280
     0
102
RTVSPost2010PropOp35
 70
     1
102
RTVSPost2010Prop36
280
     0
102
RTVSPost2010PropOp36
 70
     1
102
RTVSPost2010Prop37
 90
       50
102
RTVSPost2010PropOp37
 70
     1
102
RTVSPost2010Prop38
140
0.0
102
RTVSPost2010PropOp38
 70
     1
102
RTVSPost2010Prop39
140
1.0
102
RTVSPost2010PropOp39
 70
     1
102
RTVSPost2010Prop40
 90
        0
102
RTVSPost2010PropOp40
 70
     1
102
RTVSPost2010Prop41ColorIndex
 90
       18
102
RTVSPost2010Prop41ColorRGB
 90
        0
102
RTVSPost2010PropOp41
 70
     1
102
RTVSPost2010Prop42
 90
       50
102
RTVSPost2010PropOp42
 70
     1
102
RTVSPost2010Prop43
 90
        3
102
RTVSPost2010PropOp43
 70
     1
102
RTVSPost2010Prop44ColorIndex
 90
        5
102
RTVSPost2010Prop44ColorRGB
 90
      255
102
RTVSPost2010PropOp44
 70
     1
102
RTVSPost2010Prop45
280
     0
102
RTVSPost2010PropOp45
 70
     1
102
RTVSPost2010Prop46
 90
       50
102
RTVSPost2010PropOp46
 70
     1
102
RTVSPost2010Prop47
 90
       50
102
RTVSPost2010PropOp47
 70
     1
102
RTVSPost2010Prop48
 90
       50
102
RTVSPost2010PropOp48
 70
     1
102
RTVSPost2010Prop49
280
     0
102
RTVSPost2010PropOp49
 70
     1
102
RTVSPost2010Prop50
 90
       50
102
RTVSPost2010PropOp50
 70
     1
102
RTVSPost2010Prop51ColorIndex
 90
      256
102
RTVSPost2010Prop51ColorRGB
 90
-16777216
102
RTVSPost2010PropOp51
 70
     0
102
RTVSPost2010Prop52
140
1.0
102
RTVSPost2010PropOp52
 70
     0
102
RTVSPost2010Prop53
 90
        2
102
RTVSPost2010PropOp53
 70
     1
102
RTVSPost2010Prop54
  1
strokes_ogs.tif
102
RTVSPost2010PropOp54
 70
     1
102
RTVSPost2010Prop55
280
     0
102
RTVSPost2010PropOp55
 70
     1
102
RTVSPost2010Prop56
140
1.0
102
RTVSPost2010PropOp56
 70
     1
102
RTVSPost2010Prop57
140
1.0
102
RTVSPost2010PropOp57
 70
     1
  0
XRECORD
  5
133
102
{ACAD_REACTORS
330
132
102
}
330
132
100
AcDbXrecord
280
     1
102
RTVSPost2010Prop28
280
     0
102
RTVSPost2010PropOp28
 70
     1
102
RTVSPost2010Prop29
280
     1
102
RTVSPost2010PropOp29
 70
     1
102
RTVSPost2010Prop30
280
     1
102
RTVSPost2010PropOp30
 70
     1
102
RTVSPost2010Prop31
280
     0
102
RTVSPost2010PropOp31
 70
     1
102
RTVSPost2010Prop32
280
     0
102
RTVSPost2010PropOp32
 70
     1
102
RTVSPost2010Prop33
280
     0
102
RTVSPost2010PropOp33
 70
     1
102
RTVSPost2010Prop34
280
     0
102
RTVSPost2010PropOp34
 70
     1
102
RTVSPost2010Prop35
280
     0
102
RTVSPost2010PropOp35
 70
     1
102
RTVSPost2010Prop36
280
     0
102
RTVSPost2010PropOp36
 70
     1
102
RTVSPost2010Prop37
 90
       50
102
RTVSPost2010PropOp37
 70
     1
102
RTVSPost2010Prop38
140
0.0
102
RTVSPost2010PropOp38
 70
     1
102
RTVSPost2010Prop39
140
1.0
102
RTVSPost2010PropOp39
 70
     1
102
RTVSPost2010Prop40
 90
        0
102
RTVSPost2010PropOp40
 70
     1
102
RTVSPost2010Prop41ColorIndex
 90
       18
102
RTVSPost2010Prop41ColorRGB
 90
        0
102
RTVSPost2010PropOp41
 70
     1
102
RTVSPost2010Prop42
 90
       50
102
RTVSPost2010PropOp42
 70
     1
102
RTVSPost2010Prop43
 90
        3
102
RTVSPost2010PropOp43
 70
     1
102
RTVSPost2010Prop44ColorIndex
 90
        5
102
RTVSPost2010Prop44ColorRGB
 90
      255
102
RTVSPost2010PropOp44
 70
     1
102
RTVSPost2010Prop45
280
     0
102
RTVSPost2010PropOp45
 70
     1
102
RTVSPost2010Prop46
 90
       50
102
RTVSPost2010PropOp46
 70
     1
102
RTVSPost2010Prop47
 90
       50
102
RTVSPost2010PropOp47
 70
     1
102
RTVSPost2010Prop48
 90
       50
102
RTVSPost2010PropOp48
 70
     1
102
RTVSPost2010Prop49
280
     0
102
RTVSPost2010PropOp49
 70
     1
102
RTVSPost2010Prop50
 90
       50
102
RTVSPost2010PropOp50
 70
     1
102
RTVSPost2010Prop51ColorIndex
 90
      256
102
RTVSPost2010Prop51ColorRGB
 90
-16777216
102
RTVSPost2010PropOp51
 70
     0
102
RTVSPost2010Prop52
140
1.0
102
RTVSPost2010PropOp52
 70
     0
102
RTVSPost2010Prop53
 90
        2
102
RTVSPost2010PropOp53
 70
     1
102
RTVSPost2010Prop54
  1
strokes_ogs.tif
102
RTVSPost2010PropOp54
 70
     1
102
RTVSPost2010Prop55
280
     0
102
RTVSPost2010PropOp55
 70
     1
102
RTVSPost2010Prop56
140
1.0
102
RTVSPost2010PropOp56
 70
     1
102
RTVSPost2010Prop57
140
1.0
102
RTVSPost2010PropOp57
 70
     1
  0
XRECORD
  5
131
102
{ACAD_REACTORS
330
130
102
}
330
130
100
AcDbXrecord
280
     1
102
RTVSPost2010Prop28
280
     0
102
RTVSPost2010PropOp28
 70
     1
102
RTVSPost2010Prop29
280
     1
102
RTVSPost2010PropOp29
 70
     1
102
RTVSPost2010Prop30
280
     1
102
RTVSPost2010PropOp30
 70
     1
102
RTVSPost2010Prop31
280
     0
102
RTVSPost2010PropOp31
 70
     1
102
RTVSPost2010Prop32
280
     0
102
RTVSPost2010PropOp32
 70
     1
102
RTVSPost2010Prop33
280
     0
102
RTVSPost2010PropOp33
 70
     1
102
RTVSPost2010Prop34
280
     0
102
RTVSPost2010PropOp34
 70
     1
102
RTVSPost2010Prop35
280
     0
102
RTVSPost2010PropOp35
 70
     1
102
RTVSPost2010Prop36
280
     0
102
RTVSPost2010PropOp36
 70
     1
102
RTVSPost2010Prop37
 90
       50
102
RTVSPost2010PropOp37
 70
     1
102
RTVSPost2010Prop38
140
0.0
102
RTVSPost2010PropOp38
 70
     1
102
RTVSPost2010Prop39
140
1.0
102
RTVSPost2010PropOp39
 70
     1
102
RTVSPost2010Prop40
 90
        0
102
RTVSPost2010PropOp40
 70
     1
102
RTVSPost2010Prop41ColorIndex
 90
       18
102
RTVSPost2010Prop41ColorRGB
 90
        0
102
RTVSPost2010PropOp41
 70
     1
102
RTVSPost2010Prop42
 90
       50
102
RTVSPost2010PropOp42
 70
     1
102
RTVSPost2010Prop43
 90
        3
102
RTVSPost2010PropOp43
 70
     1
102
RTVSPost2010Prop44ColorIndex
 90
        5
102
RTVSPost2010Prop44ColorRGB
 90
      255
102
RTVSPost2010PropOp44
 70
     1
102
RTVSPost2010Prop45
280
     0
102
RTVSPost2010PropOp45
 70
     1
102
RTVSPost2010Prop46
 90
       50
102
RTVSPost2010PropOp46
 70
     1
102
RTVSPost2010Prop47
 90
       50
102
RTVSPost2010PropOp47
 70
     1
102
RTVSPost2010Prop48
 90
       50
102
RTVSPost2010PropOp48
 70
     1
102
RTVSPost2010Prop49
280
     0
102
RTVSPost2010PropOp49
 70
     1
102
RTVSPost2010Prop50
 90
       50
102
RTVSPost2010PropOp50
 70
     1
102
RTVSPost2010Prop51ColorIndex
 90
      256
102
RTVSPost2010Prop51ColorRGB
 90
-16777216
102
RTVSPost2010PropOp51
 70
     0
102
RTVSPost2010Prop52
140
1.0
102
RTVSPost2010PropOp52
 70
     0
102
RTVSPost2010Prop53
 90
        2
102
RTVSPost2010PropOp53
 70
     1
102
RTVSPost2010Prop54
  1
strokes_ogs.tif
102
RTVSPost2010PropOp54
 70
     1
102
RTVSPost2010Prop55
280
     0
102
RTVSPost2010PropOp55
 70
     1
102
RTVSPost2010Prop56
140
1.0
102
RTVSPost2010PropOp56
 70
     1
102
RTVSPost2010Prop57
140
1.0
102
RTVSPost2010PropOp57
 70
     1
  0
XRECORD
  5
12B
102
{ACAD_REACTORS
330
12A
102
}
330
12A
100
AcDbXrecord
280
     1
102
RTVSPost2010Prop28
280
     0
102
RTVSPost2010PropOp28
 70
     1
102
RTVSPost2010Prop29
280
     1
102
RTVSPost2010PropOp29
 70
     1
102
RTVSPost2010Prop30
280
     1
102
RTVSPost2010PropOp30
 70
     1
102
RTVSPost2010Prop31
280
     0
102
RTVSPost2010PropOp31
 70
     1
102
RTVSPost2010Prop32
280
     0
102
RTVSPost2010PropOp32
 70
     1
102
RTVSPost2010Prop33
280
     0
102
RTVSPost2010PropOp33
 70
     1
102
RTVSPost2010Prop34
280
     0
102
RTVSPost2010PropOp34
 70
     1
102
RTVSPost2010Prop35
280
     0
102
RTVSPost2010PropOp35
 70
     1
102
RTVSPost2010Prop36
280
     0
102
RTVSPost2010PropOp36
 70
     1
102
RTVSPost2010Prop37
 90
       50
102
RTVSPost2010PropOp37
 70
     1
102
RTVSPost2010Prop38
140
0.0
102
RTVSPost2010PropOp38
 70
     1
102
RTVSPost2010Prop39
140
1.0
102
RTVSPost2010PropOp39
 70
     1
102
RTVSPost2010Prop40
 90
        0
102
RTVSPost2010PropOp40
 70
     1
102
RTVSPost2010Prop41ColorIndex
 90
       18
102
RTVSPost2010Prop41ColorRGB
 90
        0
102
RTVSPost2010PropOp41
 70
     1
102
RTVSPost2010Prop42
 90
       50
102
RTVSPost2010PropOp42
 70
     1
102
RTVSPost2010Prop43
 90
        3
102
RTVSPost2010PropOp43
 70
     1
102
RTVSPost2010Prop44ColorIndex
 90
        5
102
RTVSPost2010Prop44ColorRGB
 90
      255
102
RTVSPost2010PropOp44
 70
     1
102
RTVSPost2010Prop45
280
     0
102
RTVSPost2010PropOp45
 70
     1
102
RTVSPost2010Prop46
 90
       50
102
RTVSPost2010PropOp46
 70
     1
102
RTVSPost2010Prop47
 90
       50
102
RTVSPost2010PropOp47
 70
     1
102
RTVSPost2010Prop48
 90
       50
102
RTVSPost2010PropOp48
 70
     1
102
RTVSPost2010Prop49
280
     0
102
RTVSPost2010PropOp49
 70
     1
102
RTVSPost2010Prop50
 90
       50
102
RTVSPost2010PropOp50
 70
     1
102
RTVSPost2010Prop51ColorIndex
 90
      256
102
RTVSPost2010Prop51ColorRGB
 90
-16777216
102
RTVSPost2010PropOp51
 70
     0
102
RTVSPost2010Prop52
140
1.0
102
RTVSPost2010PropOp52
 70
     0
102
RTVSPost2010Prop53
 90
        2
102
RTVSPost2010PropOp53
 70
     1
102
RTVSPost2010Prop54
  1
strokes_ogs.tif
102
RTVSPost2010PropOp54
 70
     1
102
RTVSPost2010Prop55
280
     0
102
RTVSPost2010PropOp55
 70
     1
102
RTVSPost2010Prop56
140
1.0
102
RTVSPost2010PropOp56
 70
     1
102
RTVSPost2010Prop57
140
1.0
102
RTVSPost2010PropOp57
 70
     1
  0
XRECORD
  5
12D
102
{ACAD_REACTORS
330
12C
102
}
330
12C
100
AcDbXrecord
280
     1
102
RTVSPost2010Prop28
280
     0
102
RTVSPost2010PropOp28
 70
     1
102
RTVSPost2010Prop29
280
     1
102
RTVSPost2010PropOp29
 70
     1
102
RTVSPost2010Prop30
280
     1
102
RTVSPost2010PropOp30
 70
     1
102
RTVSPost2010Prop31
280
     0
102
RTVSPost2010PropOp31
 70
     1
102
RTVSPost2010Prop32
280
     0
102
RTVSPost2010PropOp32
 70
     1
102
RTVSPost2010Prop33
280
     0
102
RTVSPost2010PropOp33
 70
     1
102
RTVSPost2010Prop34
280
     0
102
RTVSPost2010PropOp34
 70
     1
102
RTVSPost2010Prop35
280
     0
102
RTVSPost2010PropOp35
 70
     1
102
RTVSPost2010Prop36
280
     0
102
RTVSPost2010PropOp36
 70
     1
102
RTVSPost2010Prop37
 90
       50
102
RTVSPost2010PropOp37
 70
     1
102
RTVSPost2010Prop38
140
0.0
102
RTVSPost2010PropOp38
 70
     1
102
RTVSPost2010Prop39
140
1.0
102
RTVSPost2010PropOp39
 70
     1
102
RTVSPost2010Prop40
 90
        0
102
RTVSPost2010PropOp40
 70
     1
102
RTVSPost2010Prop41ColorIndex
 90
       18
102
RTVSPost2010Prop41ColorRGB
 90
        0
102
RTVSPost2010PropOp41
 70
     1
102
RTVSPost2010Prop42
 90
       50
102
RTVSPost2010PropOp42
 70
     1
102
RTVSPost2010Prop43
 90
        3
102
RTVSPost2010PropOp43
 70
     1
102
RTVSPost2010Prop44ColorIndex
 90
        5
102
RTVSPost2010Prop44ColorRGB
 90
      255
102
RTVSPost2010PropOp44
 70
     1
102
RTVSPost2010Prop45
280
     0
102
RTVSPost2010PropOp45
 70
     1
102
RTVSPost2010Prop46
 90
       50
102
RTVSPost2010PropOp46
 70
     1
102
RTVSPost2010Prop47
 90
       50
102
RTVSPost2010PropOp47
 70
     1
102
RTVSPost2010Prop48
 90
       50
102
RTVSPost2010PropOp48
 70
     1
102
RTVSPost2010Prop49
280
     0
102
RTVSPost2010PropOp49
 70
     1
102
RTVSPost2010Prop50
 90
       50
102
RTVSPost2010PropOp50
 70
     1
102
RTVSPost2010Prop51ColorIndex
 90
      256
102
RTVSPost2010Prop51ColorRGB
 90
-16777216
102
RTVSPost2010PropOp51
 70
     0
102
RTVSPost2010Prop52
140
1.0
102
RTVSPost2010PropOp52
 70
     0
102
RTVSPost2010Prop53
 90
        2
102
RTVSPost2010PropOp53
 70
     1
102
RTVSPost2010Prop54
  1
strokes_ogs.tif
102
RTVSPost2010PropOp54
 70
     1
102
RTVSPost2010Prop55
280
     0
102
RTVSPost2010PropOp55
 70
     1
102
RTVSPost2010Prop56
140
1.0
102
RTVSPost2010PropOp56
 70
     1
102
RTVSPost2010Prop57
140
1.0
102
RTVSPost2010PropOp57
 70
     1
  0
XRECORD
  5
123
102
{ACAD_REACTORS
330
122
102
}
330
122
100
AcDbXrecord
280
     1
102
RTVSPost2010Prop28
280
     0
102
RTVSPost2010PropOp28
 70
     1
102
RTVSPost2010Prop29
280
     1
102
RTVSPost2010PropOp29
 70
     1
102
RTVSPost2010Prop30
280
     1
102
RTVSPost2010PropOp30
 70
     1
102
RTVSPost2010Prop31
280
     0
102
RTVSPost2010PropOp31
 70
     1
102
RTVSPost2010Prop32
280
     0
102
RTVSPost2010PropOp32
 70
     1
102
RTVSPost2010Prop33
280
     0
102
RTVSPost2010PropOp33
 70
     1
102
RTVSPost2010Prop34
280
     0
102
RTVSPost2010PropOp34
 70
     1
102
RTVSPost2010Prop35
280
     0
102
RTVSPost2010PropOp35
 70
     1
102
RTVSPost2010Prop36
280
     0
102
RTVSPost2010PropOp36
 70
     1
102
RTVSPost2010Prop37
 90
       50
102
RTVSPost2010PropOp37
 70
     1
102
RTVSPost2010Prop38
140
0.0
102
RTVSPost2010PropOp38
 70
     1
102
RTVSPost2010Prop39
140
1.0
102
RTVSPost2010PropOp39
 70
     1
102
RTVSPost2010Prop40
 90
        0
102
RTVSPost2010PropOp40
 70
     1
102
RTVSPost2010Prop41ColorIndex
 90
       18
102
RTVSPost2010Prop41ColorRGB
 90
        0
102
RTVSPost2010PropOp41
 70
     1
102
RTVSPost2010Prop42
 90
       50
102
RTVSPost2010PropOp42
 70
     1
102
RTVSPost2010Prop43
 90
        3
102
RTVSPost2010PropOp43
 70
     1
102
RTVSPost2010Prop44ColorIndex
 90
        5
102
RTVSPost2010Prop44ColorRGB
 90
      255
102
RTVSPost2010PropOp44
 70
     1
102
RTVSPost2010Prop45
280
     0
102
RTVSPost2010PropOp45
 70
     1
102
RTVSPost2010Prop46
 90
       50
102
RTVSPost2010PropOp46
 70
     1
102
RTVSPost2010Prop47
 90
       50
102
RTVSPost2010PropOp47
 70
     1
102
RTVSPost2010Prop48
 90
       50
102
RTVSPost2010PropOp48
 70
     1
102
RTVSPost2010Prop49
280
     0
102
RTVSPost2010PropOp49
 70
     1
102
RTVSPost2010Prop50
 90
       50
102
RTVSPost2010PropOp50
 70
     1
102
RTVSPost2010Prop51ColorIndex
 90
      256
102
RTVSPost2010Prop51ColorRGB
 90
-16777216
102
RTVSPost2010PropOp51
 70
     0
102
RTVSPost2010Prop52
140
1.0
102
RTVSPost2010PropOp52
 70
     0
102
RTVSPost2010Prop53
 90
        2
102
RTVSPost2010PropOp53
 70
     1
102
RTVSPost2010Prop54
  1
strokes_ogs.tif
102
RTVSPost2010PropOp54
 70
     1
102
RTVSPost2010Prop55
280
     0
102
RTVSPost2010PropOp55
 70
     1
102
RTVSPost2010Prop56
140
1.0
102
RTVSPost2010PropOp56
 70
     1
102
RTVSPost2010Prop57
140
1.0
102
RTVSPost2010PropOp57
 70
     1
  0
XRECORD
  5
117
102
{ACAD_REACTORS
330
116
102
}
330
116
100
AcDbXrecord
280
     1
102
RTVSPost2010Prop28
280
     0
102
RTVSPost2010PropOp28
 70
     1
102
RTVSPost2010Prop29
280
     1
102
RTVSPost2010PropOp29
 70
     1
102
RTVSPost2010Prop30
280
     1
102
RTVSPost2010PropOp30
 70
     1
102
RTVSPost2010Prop31
280
     0
102
RTVSPost2010PropOp31
 70
     1
102
RTVSPost2010Prop32
280
     0
102
RTVSPost2010PropOp32
 70
     1
102
RTVSPost2010Prop33
280
     0
102
RTVSPost2010PropOp33
 70
     1
102
RTVSPost2010Prop34
280
     0
102
RTVSPost2010PropOp34
 70
     1
102
RTVSPost2010Prop35
280
     0
102
RTVSPost2010PropOp35
 70
     1
102
RTVSPost2010Prop36
280
     0
102
RTVSPost2010PropOp36
 70
     1
102
RTVSPost2010Prop37
 90
       50
102
RTVSPost2010PropOp37
 70
     1
102
RTVSPost2010Prop38
140
0.0
102
RTVSPost2010PropOp38
 70
     1
102
RTVSPost2010Prop39
140
1.0
102
RTVSPost2010PropOp39
 70
     1
102
RTVSPost2010Prop40
 90
        0
102
RTVSPost2010PropOp40
 70
     1
102
RTVSPost2010Prop41ColorIndex
 90
       18
102
RTVSPost2010Prop41ColorRGB
 90
        0
102
RTVSPost2010PropOp41
 70
     1
102
RTVSPost2010Prop42
 90
       50
102
RTVSPost2010PropOp42
 70
     1
102
RTVSPost2010Prop43
 90
        3
102
RTVSPost2010PropOp43
 70
     1
102
RTVSPost2010Prop44ColorIndex
 90
        5
102
RTVSPost2010Prop44ColorRGB
 90
      255
102
RTVSPost2010PropOp44
 70
     1
102
RTVSPost2010Prop45
280
     0
102
RTVSPost2010PropOp45
 70
     1
102
RTVSPost2010Prop46
 90
       50
102
RTVSPost2010PropOp46
 70
     1
102
RTVSPost2010Prop47
 90
       50
102
RTVSPost2010PropOp47
 70
     1
102
RTVSPost2010Prop48
 90
       50
102
RTVSPost2010PropOp48
 70
     1
102
RTVSPost2010Prop49
280
     0
102
RTVSPost2010PropOp49
 70
     1
102
RTVSPost2010Prop50
 90
       50
102
RTVSPost2010PropOp50
 70
     1
102
RTVSPost2010Prop51ColorIndex
 90
      256
102
RTVSPost2010Prop51ColorRGB
 90
-16777216
102
RTVSPost2010PropOp51
 70
     0
102
RTVSPost2010Prop52
140
1.0
102
RTVSPost2010PropOp52
 70
     0
102
RTVSPost2010Prop53
 90
        2
102
RTVSPost2010PropOp53
 70
     1
102
RTVSPost2010Prop54
  1
strokes_ogs.tif
102
RTVSPost2010PropOp54
 70
     1
102
RTVSPost2010Prop55
280
     0
102
RTVSPost2010PropOp55
 70
     1
102
RTVSPost2010Prop56
140
1.0
102
RTVSPost2010PropOp56
 70
     1
102
RTVSPost2010Prop57
140
1.0
102
RTVSPost2010PropOp57
 70
     1
  0
XRECORD
  5
12F
102
{ACAD_REACTORS
330
12E
102
}
330
12E
100
AcDbXrecord
280
     1
102
RTVSPost2010Prop28
280
     0
102
RTVSPost2010PropOp28
 70
     1
102
RTVSPost2010Prop29
280
     1
102
RTVSPost2010PropOp29
 70
     1
102
RTVSPost2010Prop30
280
     1
102
RTVSPost2010PropOp30
 70
     1
102
RTVSPost2010Prop31
280
     0
102
RTVSPost2010PropOp31
 70
     1
102
RTVSPost2010Prop32
280
     0
102
RTVSPost2010PropOp32
 70
     1
102
RTVSPost2010Prop33
280
     0
102
RTVSPost2010PropOp33
 70
     1
102
RTVSPost2010Prop34
280
     0
102
RTVSPost2010PropOp34
 70
     1
102
RTVSPost2010Prop35
280
     0
102
RTVSPost2010PropOp35
 70
     1
102
RTVSPost2010Prop36
280
     0
102
RTVSPost2010PropOp36
 70
     1
102
RTVSPost2010Prop37
 90
       50
102
RTVSPost2010PropOp37
 70
     1
102
RTVSPost2010Prop38
140
0.0
102
RTVSPost2010PropOp38
 70
     1
102
RTVSPost2010Prop39
140
1.0
102
RTVSPost2010PropOp39
 70
     1
102
RTVSPost2010Prop40
 90
        0
102
RTVSPost2010PropOp40
 70
     1
102
RTVSPost2010Prop41ColorIndex
 90
       18
102
RTVSPost2010Prop41ColorRGB
 90
        0
102
RTVSPost2010PropOp41
 70
     1
102
RTVSPost2010Prop42
 90
       50
102
RTVSPost2010PropOp42
 70
     1
102
RTVSPost2010Prop43
 90
        3
102
RTVSPost2010PropOp43
 70
     1
102
RTVSPost2010Prop44ColorIndex
 90
        5
102
RTVSPost2010Prop44ColorRGB
 90
      255
102
RTVSPost2010PropOp44
 70
     1
102
RTVSPost2010Prop45
280
     0
102
RTVSPost2010PropOp45
 70
     1
102
RTVSPost2010Prop46
 90
       50
102
RTVSPost2010PropOp46
 70
     1
102
RTVSPost2010Prop47
 90
       50
102
RTVSPost2010PropOp47
 70
     1
102
RTVSPost2010Prop48
 90
       50
102
RTVSPost2010PropOp48
 70
     1
102
RTVSPost2010Prop49
280
     0
102
RTVSPost2010PropOp49
 70
     1
102
RTVSPost2010Prop50
 90
       50
102
RTVSPost2010PropOp50
 70
     1
102
RTVSPost2010Prop51ColorIndex
 90
      256
102
RTVSPost2010Prop51ColorRGB
 90
-16777216
102
RTVSPost2010PropOp51
 70
     0
102
RTVSPost2010Prop52
140
1.0
102
RTVSPost2010PropOp52
 70
     0
102
RTVSPost2010Prop53
 90
        2
102
RTVSPost2010PropOp53
 70
     1
102
RTVSPost2010Prop54
  1
strokes_ogs.tif
102
RTVSPost2010PropOp54
 70
     1
102
RTVSPost2010Prop55
280
     0
102
RTVSPost2010PropOp55
 70
     1
102
RTVSPost2010Prop56
140
1.0
102
RTVSPost2010PropOp56
 70
     1
102
RTVSPost2010Prop57
140
1.0
102
RTVSPost2010PropOp57
 70
     1
  0
ENDSEC
  0
EOF
