  0
SECTION
  2
HEADER
  9
$ACADVER
  1
AC1024
  9
$ACADMAINTVER
 70
   226
  9
$DWGCODEPAGE
  3
ANSI_932
  9
$INSBASE
 10
0.0
 20
0.0
 30
0.0
  9
$EXTMIN
 10
1.000000000000000E+20
 20
1.000000000000000E+20
 30
1.000000000000000E+20
  9
$EXTMAX
 10
-1.000000000000000E+20
 20
-1.000000000000000E+20
 30
-1.000000000000000E+20
  9
$LIMMIN
 10
0.0
 20
0.0
  9
$LIMMAX
 10
12.0
 20
9.0
  9
$ORTHOMODE
 70
     0
  9
$REGENMODE
 70
     1
  9
$FILLMODE
 70
     1
  9
$QTEXTMODE
 70
     0
  9
$MIRRTEXT
 70
     0
  9
$LTSCALE
 40
1.0
  9
$ATTMODE
 70
     1
  9
$TEXTSIZE
 40
0.2
  9
$TRACEWID
 40
0.05
  9
$TEXTSTYLE
  7
Standard
  9
$CLAYER
  8
0
  9
$CELTYPE
  6
ByLayer
  9
$CECOLOR
 62
   256
  9
$CELTSCALE
 40
1.0
  9
$DISPSILH
 70
     0
  9
$DIMSCALE
 40
1.0
  9
$DIMASZ
 40
0.18
  9
$DIMEXO
 40
0.0625
  9
$DIMDLI
 40
0.38
  9
$DIMRND
 40
0.0
  9
$DIMDLE
 40
0.0
  9
$DIMEXE
 40
0.18
  9
$DIMTP
 40
0.0
  9
$DIMTM
 40
0.0
  9
$DIMTXT
 40
0.18
  9
$DIMCEN
 40
0.09
  9
$DIMTSZ
 40
0.0
  9
$DIMTOL
 70
     0
  9
$DIMLIM
 70
     0
  9
$DIMTIH
 70
     1
  9
$DIMTOH
 70
     1
  9
$DIMSE1
 70
     0
  9
$DIMSE2
 70
     0
  9
$DIMTAD
 70
     0
  9
$DIMZIN
 70
     0
  9
$DIMBLK
  1

  9
$DIMASO
 70
     1
  9
$DIMSHO
 70
     1
  9
$DIMPOST
  1

  9
$DIMAPOST
  1

  9
$DIMALT
 70
     0
  9
$DIMALTD
 70
     2
  9
$DIMALTF
 40
25.4
  9
$DIMLFAC
 40
1.0
  9
$DIMTOFL
 70
     0
  9
$DIMTVP
 40
0.0
  9
$DIMTIX
 70
     0
  9
$DIMSOXD
 70
     0
  9
$DIMSAH
 70
     0
  9
$DIMBLK1
  1

  9
$DIMBLK2
  1

  9
$DIMSTYLE
  2
Standard
  9
$DIMCLRD
 70
     0
  9
$DIMCLRE
 70
     0
  9
$DIMCLRT
 70
     0
  9
$DIMTFAC
 40
1.0
  9
$DIMGAP
 40
0.09
  9
$DIMJUST
 70
     0
  9
$DIMSD1
 70
     0
  9
$DIMSD2
 70
     0
  9
$DIMTOLJ
 70
     1
  9
$DIMTZIN
 70
     0
  9
$DIMALTZ
 70
     0
  9
$DIMALTTZ
 70
     0
  9
$DIMUPT
 70
     0
  9
$DIMDEC
 70
     4
  9
$DIMTDEC
 70
     4
  9
$DIMALTU
 70
     2
  9
$DIMALTTD
 70
     2
  9
$DIMTXSTY
  7
Standard
  9
$DIMAUNIT
 70
     0
  9
$DIMADEC
 70
     0
  9
$DIMALTRND
 40
0.0
  9
$DIMAZIN
 70
     0
  9
$DIMDSEP
 70
    46
  9
$DIMATFIT
 70
     3
  9
$DIMFRAC
 70
     0
  9
$DIMLDRBLK
  1

  9
$DIMLUNIT
 70
     2
  9
$DIMLWD
 70
    -2
  9
$DIMLWE
 70
    -2
  9
$DIMTMOVE
 70
     0
  9
$DIMFXL
 40
1.0
  9
$DIMFXLON
 70
     0
  9
$DIMJOGANG
 40
0.7853981633974483
  9
$DIMTFILL
 70
     0
  9
$DIMTFILLCLR
 70
     0
  9
$DIMARCSYM
 70
     0
  9
$DIMLTYPE
  6

  9
$DIMLTEX1
  6

  9
$DIMLTEX2
  6

  9
$DIMTXTDIRECTION
 70
     0
  9
$LUNITS
 70
     2
  9
$LUPREC
 70
     4
  9
$SKETCHINC
 40
0.1
  9
$FILLETRAD
 40
0.0
  9
$AUNITS
 70
     0
  9
$AUPREC
 70
     0
  9
$MENU
  1
.
  9
$ELEVATION
 40
0.0
  9
$PELEVATION
 40
0.0
  9
$THICKNESS
 40
0.0
  9
$LIMCHECK
 70
     0
  9
$CHAMFERA
 40
0.0
  9
$CHAMFERB
 40
0.0
  9
$CHAMFERC
 40
0.0
  9
$CHAMFERD
 40
0.0
  9
$SKPOLY
 70
     0
  9
$TDCREATE
 40
2460039.383831019
  9
$TDUCREATE
 40
2460039.008831019
  9
$TDUPDATE
 40
2460039.383831019
  9
$TDUUPDATE
 40
2460039.008831019
  9
$TDINDWG
 40
0.0000000000
  9
$TDUSRTIMER
 40
0.0000000000
  9
$USRTIMER
 70
     1
  9
$ANGBASE
 50
0.0
  9
$ANGDIR
 70
     0
  9
$PDMODE
 70
     0
  9
$PDSIZE
 40
0.0
  9
$PLINEWID
 40
0.0
  9
$SPLFRAME
 70
     0
  9
$SPLINETYPE
 70
     6
  9
$SPLINESEGS
 70
     8
  9
$HANDSEED
  5
14B
  9
$SURFTAB1
 70
     6
  9
$SURFTAB2
 70
     6
  9
$SURFTYPE
 70
     6
  9
$SURFU
 70
     6
  9
$SURFV
 70
     6
  9
$UCSBASE
  2

  9
$UCSNAME
  2

  9
$UCSORG
 10
0.0
 20
0.0
 30
0.0
  9
$UCSXDIR
 10
1.0
 20
0.0
 30
0.0
  9
$UCSYDIR
 10
0.0
 20
1.0
 30
0.0
  9
$UCSORTHOREF
  2

  9
$UCSORTHOVIEW
 70
     0
  9
$UCSORGTOP
 10
0.0
 20
0.0
 30
0.0
  9
$UCSORGBOTTOM
 10
0.0
 20
0.0
 30
0.0
  9
$UCSORGLEFT
 10
0.0
 20
0.0
 30
0.0
  9
$UCSORGRIGHT
 10
0.0
 20
0.0
 30
0.0
  9
$UCSORGFRONT
 10
0.0
 20
0.0
 30
0.0
  9
$UCSORGBACK
 10
0.0
 20
0.0
 30
0.0
  9
$PUCSBASE
  2

  9
$PUCSNAME
  2

  9
$PUCSORG
 10
0.0
 20
0.0
 30
0.0
  9
$PUCSXDIR
 10
1.0
 20
0.0
 30
0.0
  9
$PUCSYDIR
 10
0.0
 20
1.0
 30
0.0
  9
$PUCSORTHOREF
  2

  9
$PUCSORTHOVIEW
 70
     0
  9
$PUCSORGTOP
 10
0.0
 20
0.0
 30
0.0
  9
$PUCSORGBOTTOM
 10
0.0
 20
0.0
 30
0.0
  9
$PUCSORGLEFT
 10
0.0
 20
0.0
 30
0.0
  9
$PUCSORGRIGHT
 10
0.0
 20
0.0
 30
0.0
  9
$PUCSORGFRONT
 10
0.0
 20
0.0
 30
0.0
  9
$PUCSORGBACK
 10
0.0
 20
0.0
 30
0.0
  9
$USERI1
 70
     0
  9
$USERI2
 70
     0
  9
$USERI3
 70
     0
  9
$USERI4
 70
     0
  9
$USERI5
 70
     0
  9
$USERR1
 40
0.0
  9
$USERR2
 40
0.0
  9
$USERR3
 40
0.0
  9
$USERR4
 40
0.0
  9
$USERR5
 40
0.0
  9
$WORLDVIEW
 70
     1
  9
$SHADEDGE
 70
     3
  9
$SHADEDIF
 70
    70
  9
$TILEMODE
 70
     1
  9
$MAXACTVP
 70
    64
  9
$PINSBASE
 10
0.0
 20
0.0
 30
0.0
  9
$PLIMCHECK
 70
     0
  9
$PEXTMIN
 10
1.000000000000000E+20
 20
1.000000000000000E+20
 30
1.000000000000000E+20
  9
$PEXTMAX
 10
-1.000000000000000E+20
 20
-1.000000000000000E+20
 30
-1.000000000000000E+20
  9
$PLIMMIN
 10
0.0
 20
0.0
  9
$PLIMMAX
 10
12.0
 20
9.0
  9
$UNITMODE
 70
     0
  9
$VISRETAIN
 70
     1
  9
$PLINEGEN
 70
     0
  9
$PSLTSCALE
 70
     1
  9
$TREEDEPTH
 70
  3020
  9
$CMLSTYLE
  2
Standard
  9
$CMLJUST
 70
     0
  9
$CMLSCALE
 40
1.0
  9
$PROXYGRAPHICS
 70
     1
  9
$MEASUREMENT
 70
     0
  9
$CELWEIGHT
370
    -1
  9
$ENDCAPS
280
     0
  9
$JOINSTYLE
280
     0
  9
$LWDISPLAY
290
     1
  9
$INSUNITS
 70
     4
  9
$HYPERLINKBASE
  1

  9
$STYLESHEET
  1

  9
$XEDIT
290
     1
  9
$CEPSNTYPE
380
     0
  9
$PSTYLEMODE
290
     1
  9
$FINGERPRINTGUID
  2
{B0B6EEBA-FC0E-3342-85C1-04178604E8DC}
  9
$VERSIONGUID
  2
{13DB27A1-87F9-8646-90F0-88FA1FF6BA03}
  9
$EXTNAMES
290
     1
  9
$PSVPSCALE
 40
0.0
  9
$OLESTARTUP
290
     0
  9
$SORTENTS
280
   127
  9
$INDEXCTL
280
     0
  9
$HIDETEXT
280
     1
  9
$XCLIPFRAME
280
     2
  9
$HALOGAP
280
     0
  9
$OBSCOLOR
 70
   257
  9
$OBSLTYPE
280
     0
  9
$INTERSECTIONDISPLAY
280
     0
  9
$INTERSECTIONCOLOR
 70
   257
  9
$DIMASSOC
280
     2
  9
$PROJECTNAME
  1

  9
$CAMERADISPLAY
290
     0
  9
$LENSLENGTH
 40
50.0
  9
$CAMERAHEIGHT
 40
0.0
  9
$STEPSPERSEC
 40
2.0
  9
$STEPSIZE
 40
6.0
  9
$3DDWFPREC
 40
2.0
  9
$PSOLWIDTH
 40
0.25
  9
$PSOLHEIGHT
 40
4.0
  9
$LOFTANG1
 40
1.570796326794896
  9
$LOFTANG2
 40
1.570796326794896
  9
$LOFTMAG1
 40
0.0
  9
$LOFTMAG2
 40
0.0
  9
$LOFTPARAM
 70
     7
  9
$LOFTNORMALS
280
     1
  9
$LATITUDE
 40
37.795
  9
$LONGITUDE
 40
-122.394
  9
$NORTHDIRECTION
 40
0.0
  9
$TIMEZONE
 70
 -8000
  9
$LIGHTGLYPHDISPLAY
280
     1
  9
$TILEMODELIGHTSYNCH
280
     1
  9
$CMATERIAL
347
11
  9
$SOLIDHIST
280
     0
  9
$SHOWHIST
280
     1
  9
$DWFFRAME
280
     2
  9
$DGNFRAME
280
     0
  9
$REALWORLDSCALE
290
     1
  9
$INTERFERECOLOR
 62
     1
  9
$INTERFEREOBJVS
345
33
  9
$INTERFEREVPVS
346
30
  9
$CSHADOW
280
     0
  9
$SHADOWPLANELOCATION
 40
0.0
  0
ENDSEC
  0
SECTION
  2
CLASSES
  0
CLASS
  1
ACDBDICTIONARYWDFLT
  2
AcDbDictionaryWithDefault
  3
ObjectDBX Classes
 90
        0
 91
        1
280
     0
281
     0
  0
CLASS
  1
MATERIAL
  2
AcDbMaterial
  3
ObjectDBX Classes
 90
     1153
 91
        3
280
     0
281
     0
  0
CLASS
  1
VISUALSTYLE
  2
AcDbVisualStyle
  3
ObjectDBX Classes
 90
     4095
 91
       24
280
     0
281
     0
  0
CLASS
  1
SCALE
  2
AcDbScale
  3
ObjectDBX Classes
 90
     1153
 91
       17
280
     0
281
     0
  0
CLASS
  1
TABLESTYLE
  2
AcDbTableStyle
  3
ObjectDBX Classes
 90
     4095
 91
        1
280
     0
281
     0
  0
CLASS
  1
MLEADERSTYLE
  2
AcDbMLeaderStyle
  3
ACDB_MLEADERSTYLE_CLASS
 90
     4095
 91
        1
280
     0
281
     0
  0
CLASS
  1
ACDBSECTIONVIEWSTYLE
  2
AcDbSectionViewStyle
  3
ObjectDBX Classes
 90
     1025
 91
        1
280
     0
281
     0
  0
CLASS
  1
ACDBDETAILVIEWSTYLE
  2
AcDbDetailViewStyle
  3
ObjectDBX Classes
 90
     1025
 91
        1
280
     0
281
     0
  0
CLASS
  1
DICTIONARYVAR
  2
AcDbDictionaryVar
  3
ObjectDBX Classes
 90
        0
 91
        5
280
     0
281
     0
  0
CLASS
  1
CELLSTYLEMAP
  2
AcDbCellStyleMap
  3
ObjectDBX Classes
 90
     1152
 91
        1
280
     0
281
     0
  0
ENDSEC
  0
SECTION
  2
TABLES
  0
TABLE
  2
VPORT
  5
8
330
0
100
AcDbSymbolTable
 70
     1
  0
VPORT
  5
57
330
8
100
AcDbSymbolTableRecord
100
AcDbViewportTableRecord
  2
*Active
 70
     0
 10
0.0
 20
0.0
 11
1.0
 21
1.0
 12
0.0
 22
0.0
 13
0.0
 23
0.0
 14
1.0
 24
1.0
 15
0.0
 25
0.0
 16
0.0
 26
0.0
 36
1.0
 17
210.000144736454
 27
148.5000549792866
 37
0.0
 40
302.9401121577448
 41
1.414141865238673
 42
50.0
 43
0.0
 44
0.0
 50
0.0
 51
0.0
 71
     0
 72
   100
 73
     1
 74
     1
 75
     0
 76
     0
 77
     0
 78
     0
281
     0
 65
     1
110
0.0
120
0.0
130
0.0
111
1.0
121
0.0
131
0.0
112
0.0
122
1.0
132
0.0
 79
     0
146
0.0
 60
     3
 61
     5
292
     1
282
     1
141
0.0
142
0.0
 63
   250
421
  3355443
  0
ENDTAB
  0
TABLE
  2
LTYPE
  5
5
330
0
100
AcDbSymbolTable
 70
    14
  0
LTYPE
  5
5B
330
5
100
AcDbSymbolTableRecord
100
AcDbLinetypeTableRecord
  2
ByBlock
 70
     0
  3

 72
    65
 73
     0
 40
0.0
  0
LTYPE
  5
5C
330
5
100
AcDbSymbolTableRecord
100
AcDbLinetypeTableRecord
  2
ByLayer
 70
     0
  3

 72
    65
 73
     0
 40
0.0
  0
LTYPE
  5
5D
330
5
100
AcDbSymbolTableRecord
100
AcDbLinetypeTableRecord
  2
Continuous
 70
     0
  3
Solid line
 72
    65
 73
     0
 40
0.0
  0
LTYPE
  5
8C
330
5
100
AcDbSymbolTableRecord
100
AcDbLinetypeTableRecord
  2
AI-Linetype-0
 70
     0
  3
Adobe Illustrator Linetype No. 0
 72
    65
 73
     2
 40
1.403349973407224
 49
0.7016749867036122
 74
     0
 49
-0.7016749867036122
 74
     0
  0
LTYPE
  5
8E
330
5
100
AcDbSymbolTableRecord
100
AcDbLinetypeTableRecord
  2
AI-Linetype-1
 70
     0
  3
Adobe Illustrator Linetype No. 1
 72
    65
 73
     4
 40
7.367763925736984
 49
5.262738965626149
 74
     0
 49
-0.7016749867036122
 74
     0
 49
0.7016749867036122
 74
     0
 49
-0.7016749867036122
 74
     0
  0
LTYPE
  5
95
330
5
100
AcDbSymbolTableRecord
100
AcDbLinetypeTableRecord
  2
AI-Linetype-2
 70
     0
  3
Adobe Illustrator Linetype No. 2
 72
    65
 73
     4
 40
7.408333331481251
 49
5.29166666534375
 74
     0
 49
-0.7055555553791667
 74
     0
 49
0.7055555553791667
 74
     0
 49
-0.7055555553791667
 74
     0
  0
LTYPE
  5
99
330
5
100
AcDbSymbolTableRecord
100
AcDbLinetypeTableRecord
  2
AI-Linetype-3
 70
     0
  3
Adobe Illustrator Linetype No. 3
 72
    65
 73
     2
 40
1.40970001781507
 49
0.7048500089075354
 74
     0
 49
-0.7048500089075354
 74
     0
  0
LTYPE
  5
9B
330
5
100
AcDbSymbolTableRecord
100
AcDbLinetypeTableRecord
  2
AI-Linetype-4
 70
     0
  3
Adobe Illustrator Linetype No. 4
 72
    65
 73
     4
 40
2.819400035630141
 49
0.7048500089075354
 74
     0
 49
-0.7048500089075354
 74
     0
 49
0.7048500089075354
 74
     0
 49
-0.7048500089075354
 74
     0
  0
LTYPE
  5
A4
330
5
100
AcDbSymbolTableRecord
100
AcDbLinetypeTableRecord
  2
AI-Linetype-5
 70
     0
  3
Adobe Illustrator Linetype No. 5
 72
    65
 73
     2
 40
1.40970001781507
 49
0.7048500089075354
 74
     0
 49
-0.7048500089075354
 74
     0
  0
LTYPE
  5
A6
330
5
100
AcDbSymbolTableRecord
100
AcDbLinetypeTableRecord
  2
AI-Linetype-6
 70
     0
  3
Adobe Illustrator Linetype No. 6
 72
    65
 73
     4
 40
2.819400035630141
 49
0.7048500089075354
 74
     0
 49
-0.7048500089075354
 74
     0
 49
0.7048500089075354
 74
     0
 49
-0.7048500089075354
 74
     0
  0
LTYPE
  5
B5
330
5
100
AcDbSymbolTableRecord
100
AcDbLinetypeTableRecord
  2
AI-Linetype-7
 70
     0
  3
Adobe Illustrator Linetype No. 7
 72
    65
 73
     2
 40
1.411816615175576
 49
0.7059083075877882
 74
     0
 49
-0.7059083075877882
 74
     0
  0
LTYPE
  5
B7
330
5
100
AcDbSymbolTableRecord
100
AcDbLinetypeTableRecord
  2
AI-Linetype-8
 70
     0
  3
Adobe Illustrator Linetype No. 8
 72
    65
 73
     2
 40
1.406877747819769
 49
0.7034388739098846
 74
     0
 49
-0.7034388739098846
 74
     0
  0
LTYPE
  5
B9
330
5
100
AcDbSymbolTableRecord
100
AcDbLinetypeTableRecord
  2
AI-Linetype-9
 70
     0
  3
Adobe Illustrator Linetype No. 9
 72
    65
 73
     2
 40
1.406877747819769
 49
0.7034388739098846
 74
     0
 49
-0.7034388739098846
 74
     0
  0
LTYPE
  5
BE
330
5
100
AcDbSymbolTableRecord
100
AcDbLinetypeTableRecord
  2
AI-Linetype-10
 70
     0
  3
Adobe Illustrator Linetype No. 10
 72
    65
 73
     2
 40
1.411111110758333
 49
0.7055555553791667
 74
     0
 49
-0.7055555553791667
 74
     0
  0
LTYPE
  5
C0
330
5
100
AcDbSymbolTableRecord
100
AcDbLinetypeTableRecord
  2
AI-Linetype-11
 70
     0
  3
Adobe Illustrator Linetype No. 11
 72
    65
 73
     2
 40
1.411111110758333
 49
0.7055555553791667
 74
     0
 49
-0.7055555553791667
 74
     0
  0
LTYPE
  5
C2
330
5
100
AcDbSymbolTableRecord
100
AcDbLinetypeTableRecord
  2
AI-Linetype-12
 70
     0
  3
Adobe Illustrator Linetype No. 12
 72
    65
 73
     2
 40
1.411111110758333
 49
0.7055555553791667
 74
     0
 49
-0.7055555553791667
 74
     0
  0
ENDTAB
  0
TABLE
  2
LAYER
  5
2
330
0
100
AcDbSymbolTable
 70
     2
  0
LAYER
  5
54
330
2
100
AcDbSymbolTableRecord
100
AcDbLayerTableRecord
  2
0
 70
     0
 62
     7
  6
Continuous
370
    -3
390
F
347
21
  0
LAYER
  5
78
330
2
100
AcDbSymbolTableRecord
100
AcDbLayerTableRecord
  2
レイヤー 1
 70
     0
 62
     7
  6
Continuous
370
     0
390
F
347
21
  0
ENDTAB
  0
TABLE
  2
STYLE
  5
3
330
0
100
AcDbSymbolTable
 70
     2
  0
STYLE
  5
55
330
3
100
AcDbSymbolTableRecord
100
AcDbTextStyleTableRecord
  2
Standard
 70
     0
 40
0.0
 41
1.0
 50
0.0
 71
     0
 42
0.2
  3
txt
  4

  0
STYLE
  5
5A
330
3
100
AcDbSymbolTableRecord
100
AcDbTextStyleTableRecord
  2
Annotative
 70
     0
 40
0.0
 41
1.0
 50
0.0
 71
     0
 42
0.2
  3
txt
  4

1001
AcadAnnotative
1000
AnnotativeData
1002
{
1070
     1
1070
     1
1002
}
  0
ENDTAB
  0
TABLE
  2
VIEW
  5
6
330
0
100
AcDbSymbolTable
 70
     0
  0
ENDTAB
  0
TABLE
  2
UCS
  5
7
330
0
100
AcDbSymbolTable
 70
     0
  0
ENDTAB
  0
TABLE
  2
APPID
  5
9
330
0
100
AcDbSymbolTable
 70
     2
  0
APPID
  5
56
330
9
100
AcDbSymbolTableRecord
100
AcDbRegAppTableRecord
  2
ACAD
 70
     0
  0
APPID
  5
5E
330
9
100
AcDbSymbolTableRecord
100
AcDbRegAppTableRecord
  2
AcadAnnotative
 70
     0
  0
ENDTAB
  0
TABLE
  2
DIMSTYLE
  5
A
330
0
100
AcDbSymbolTable
 70
     2
100
AcDbDimStyleTable
 71
     0
  0
DIMSTYLE
105
58
330
A
100
AcDbSymbolTableRecord
100
AcDbDimStyleTableRecord
  2
Standard
 70
     0
340
55
  0
DIMSTYLE
105
59
330
A
100
AcDbSymbolTableRecord
100
AcDbDimStyleTableRecord
  2
Annotative
 70
     0
340
55
1001
AcadAnnotative
1000
AnnotativeData
1002
{
1070
     1
1070
     1
1002
}
  0
ENDTAB
  0
TABLE
  2
BLOCK_RECORD
  5
1
330
0
100
AcDbSymbolTable
 70
    10
  0
BLOCK_RECORD
  5
70
330
1
100
AcDbSymbolTableRecord
100
AcDbBlockTableRecord
  2
*Model_Space
340
73
 70
     0
280
     1
281
     0
  0
BLOCK_RECORD
  5
6C
330
1
100
AcDbSymbolTableRecord
100
AcDbBlockTableRecord
  2
*Paper_Space
340
6F
 70
     0
280
     1
281
     0
  0
BLOCK_RECORD
  5
74
330
1
100
AcDbSymbolTableRecord
100
AcDbBlockTableRecord
  2
*Paper_Space0
340
77
 70
     0
280
     1
281
     0
  0
BLOCK_RECORD
  5
79
330
1
100
AcDbSymbolTableRecord
100
AcDbBlockTableRecord
  2
Block_0
340
0
102
{BLKREFS
331
7A
102
}
 70
     0
280
     1
281
     0
  0
BLOCK_RECORD
  5
8F
330
1
100
AcDbSymbolTableRecord
100
AcDbBlockTableRecord
  2
Block_1
340
0
102
{BLKREFS
331
90
102
}
 70
     0
280
     1
281
     0
  0
BLOCK_RECORD
  5
9C
330
1
100
AcDbSymbolTableRecord
100
AcDbBlockTableRecord
  2
Block_2
340
0
102
{BLKREFS
331
9D
102
}
 70
     0
280
     1
281
     0
  0
BLOCK_RECORD
  5
A7
330
1
100
AcDbSymbolTableRecord
100
AcDbBlockTableRecord
  2
Block_3
340
0
102
{BLKREFS
331
A8
102
}
 70
     0
280
     1
281
     0
  0
BLOCK_RECORD
  5
B0
330
1
100
AcDbSymbolTableRecord
100
AcDbBlockTableRecord
  2
Block_4
340
0
102
{BLKREFS
331
B1
102
}
 70
     0
280
     1
281
     0
  0
BLOCK_RECORD
  5
CE
330
1
100
AcDbSymbolTableRecord
100
AcDbBlockTableRecord
  2
Block_5
340
0
102
{BLKREFS
331
CF
102
}
 70
     0
280
     1
281
     0
  0
BLOCK_RECORD
  5
DF
330
1
100
AcDbSymbolTableRecord
100
AcDbBlockTableRecord
  2
Block_6
340
0
102
{BLKREFS
331
E0
102
}
 70
     0
280
     1
281
     0
  0
BLOCK_RECORD
  5
F7
330
1
100
AcDbSymbolTableRecord
100
AcDbBlockTableRecord
  2
Block_7
340
0
102
{BLKREFS
331
F8
102
}
 70
     0
280
     1
281
     0
  0
BLOCK_RECORD
  5
102
330
1
100
AcDbSymbolTableRecord
100
AcDbBlockTableRecord
  2
Block_8
340
0
102
{BLKREFS
331
103
102
}
 70
     0
280
     1
281
     0
  0
ENDTAB
  0
ENDSEC
  0
SECTION
  2
BLOCKS
  0
BLOCK
  5
71
330
70
100
AcDbEntity
  8
0
100
AcDbBlockBegin
  2
*Model_Space
 70
     0
 10
0.0
 20
0.0
 30
0.0
  3
*Model_Space
  1

  0
ENDBLK
  5
72
330
70
100
AcDbEntity
  8
0
100
AcDbBlockEnd
  0
BLOCK
  5
6D
330
6C
100
AcDbEntity
 67
     1
  8
0
100
AcDbBlockBegin
  2
*Paper_Space
 70
     0
 10
0.0
 20
0.0
 30
0.0
  3
*Paper_Space
  1

  0
ENDBLK
  5
6E
330
6C
100
AcDbEntity
 67
     1
  8
0
100
AcDbBlockEnd
  0
BLOCK
  5
75
330
74
100
AcDbEntity
 67
     1
  8
0
100
AcDbBlockBegin
  2
*Paper_Space0
 70
     0
 10
0.0
 20
0.0
 30
0.0
  3
*Paper_Space0
  1

  0
ENDBLK
  5
76
330
74
100
AcDbEntity
 67
     1
  8
0
100
AcDbBlockEnd
  0
BLOCK
  5
7B
330
79
100
AcDbEntity
  8
0
100
AcDbBlockBegin
  2
Block_0
 70
     0
 10
0.0
 20
0.0
 30
0.0
  3
Block_0
  1

  0
SPLINE
  5
7D
330
79
100
AcDbEntity
  8
レイヤー 1
 62
   140
370
    18
100
AcDbSpline
210
0.0
220
0.0
230
1.0
 70
    11
 71
     3
 72
    74
 73
    70
 74
     0
 42
0.0000000001
 43
0.0000000001
 40
0.0
 40
0.0
 40
0.0
 40
0.0
 40
1.0
 40
1.0
 40
1.0
 40
2.0
 40
2.0
 40
2.0
 40
3.0
 40
3.0
 40
3.0
 40
4.0
 40
4.0
 40
4.0
 40
5.0
 40
5.0
 40
5.0
 40
6.0
 40
6.0
 40
6.0
 40
7.0
 40
7.0
 40
7.0
 40
8.0
 40
8.0
 40
8.0
 40
9.0
 40
9.0
 40
9.0
 40
10.0
 40
10.0
 40
10.0
 40
11.0
 40
11.0
 40
11.0
 40
12.0
 40
12.0
 40
12.0
 40
13.0
 40
13.0
 40
13.0
 40
14.0
 40
14.0
 40
14.0
 40
15.0
 40
15.0
 40
15.0
 40
16.0
 40
16.0
 40
16.0
 40
17.0
 40
17.0
 40
17.0
 40
18.0
 40
18.0
 40
18.0
 40
19.0
 40
19.0
 40
19.0
 40
20.0
 40
20.0
 40
20.0
 40
21.0
 40
21.0
 40
21.0
 40
22.0
 40
22.0
 40
22.0
 40
23.0
 40
23.0
 40
23.0
 40
23.0
 10
175.8221168078511
 20
176.5427338900549
 30
0.0
 10
175.8221168078511
 20
176.5427338900549
 30
0.0
 10
221.1346502810879
 20
176.5427338900549
 30
0.0
 10
221.1346502810879
 20
176.5427338900549
 30
0.0
 10
221.9979050823043
 20
176.5427338900549
 30
0.0
 10
222.8353862629218
 20
176.5762374436489
 30
0.0
 10
223.6951098412659
 20
176.6453869695919
 30
0.0
 10
224.6680694018408
 20
176.7208776244124
 30
0.0
 10
225.6138773036226
 20
176.8475279471889
 30
0.0
 10
226.5787193579603
 20
177.0316790667989
 30
0.0
 10
227.3371786608849
 20
177.1745536361263
 30
0.0
 10
228.0716730183402
 20
177.3544737478434
 30
0.0
 10
228.8181606144535
 20
177.5806012027565
 30
0.0
 10
229.6147312861836
 20
177.8187218963276
 30
0.0
 10
230.3781429138681
 20
178.1062366464185
 30
0.0
 10
231.1426096020451
 20
178.4569043031234
 30
0.0
 10
231.9176484269924
 20
178.809682080813
 30
0.0
 10
232.6433147272667
 20
179.2181950438999
 30
0.0
 10
233.3538226074059
 20
179.7022094277307
 30
0.0
 10
234.9942263545544
 20
180.8148676102325
 30
0.0
 10
236.325605036676
 20
182.258082704544
 30
0.0
 10
237.3063375939395
 20
183.9881019980025
 30
0.0
 10
237.7434340836305
 20
184.7645619248375
 30
0.0
 10
238.0947907594325
 20
185.5448975840934
 30
0.0
 10
238.383726611411
 20
186.3802901755729
 30
0.0
 10
238.6285437093316
 20
187.0918315843577
 30
0.0
 10
238.819746508763
 20
187.7914012863312
 30
0.0
 10
238.970038799307
 20
188.523763990955
 30
0.0
 10
239.1012754054482
 20
189.1686428021002
 30
0.0
 10
239.1975873561077
 20
189.7976526421665
 30
0.0
 10
239.2639054441988
 20
190.4502829181535
 30
0.0
 10
239.3418722613994
 20
191.2161707082181
 30
0.0
 10
239.3792515474143
 20
191.9594715910075
 30
0.0
 10
239.3792515474143
 20
192.7260484001692
 30
0.0
 10
239.3792515474143
 20
193.357878912164
 30
0.0
 10
239.3534994586621
 20
193.9717088002484
 30
0.0
 10
239.3009402206653
 20
194.6028287612993
 30
0.0
 10
239.2247390149008
 20
195.5687258761295
 30
0.0
 10
239.078688498173
 20
196.5099474945466
 30
0.0
 10
238.8553817151885
 20
197.467382593591
 30
0.0
 10
238.6578270209562
 20
198.3246300095551
 30
0.0
 10
238.3985405219976
 20
199.1434430790119
 30
0.0
 10
238.0641078777669
 20
199.964000228058
 30
0.0
 10
237.8146829646349
 20
200.5799402371271
 30
0.0
 10
237.5292998673755
 20
201.1644868135869
 30
0.0
 10
237.1931016117087
 20
201.7458682085696
 30
0.0
 10
236.3880473923462
 20
203.1453521220652
 30
0.0
 10
235.3403077278945
 20
204.3761770797111
 30
0.0
 10
234.0826540891573
 20
205.3981861872572
 30
0.0
 10
233.3658158460639
 20
205.9756703179722
 30
0.0
 10
232.6327425904963
 20
206.4603952527469
 30
0.0
 10
231.83193014495
 20
206.888663685257
 30
0.0
 10
231.1140368413643
 20
207.2700142236274
 30
0.0
 10
230.3993087192556
 20
207.5878673458352
 30
0.0
 10
229.6411723940328
 20
207.8633888572681
 30
0.0
 10
228.8636574067055
 20
208.1442072030095
 30
0.0
 10
228.0988462089801
 20
208.3696241069788
 30
0.0
 10
227.2980337634337
 20
208.5544750116092
 30
0.0
 10
226.3878610680775
 20
208.7633339254025
 30
0.0
 10
225.4995647290527
 20
208.9150257859874
 30
0.0
 10
224.5773987950384
 20
209.0201442619811
 30
0.0
 10
223.4248851641416
 20
209.1499812980814
 30
0.0
 10
222.3041094754027
 20
209.2127681633001
 30
0.0
 10
221.1480646216336
 20
209.2127681633001
 30
0.0
 10
221.1480646216336
 20
209.2127681633001
 30
0.0
 10
175.8221168078511
 20
209.2127681633001
 30
0.0
 10
175.8221168078511
 20
209.2127681633001
 30
0.0
 10
175.8221168078511
 20
209.2127681633001
 30
0.0
 10
175.8221168078511
 20
176.5427338900549
 30
0.0
 10
175.8221168078511
 20
176.5427338900549
 30
0.0
  0
SPLINE
  5
7E
330
79
100
AcDbEntity
  8
レイヤー 1
 62
   140
370
    18
100
AcDbSpline
210
0.0
220
0.0
230
1.0
 70
    11
 71
     3
 72
    83
 73
    79
 74
     0
 42
0.0000000001
 43
0.0000000001
 40
0.0
 40
0.0
 40
0.0
 40
0.0
 40
1.0
 40
1.0
 40
1.0
 40
2.0
 40
2.0
 40
2.0
 40
3.0
 40
3.0
 40
3.0
 40
4.0
 40
4.0
 40
4.0
 40
5.0
 40
5.0
 40
5.0
 40
6.0
 40
6.0
 40
6.0
 40
7.0
 40
7.0
 40
7.0
 40
8.0
 40
8.0
 40
8.0
 40
9.0
 40
9.0
 40
9.0
 40
10.0
 40
10.0
 40
10.0
 40
11.0
 40
11.0
 40
11.0
 40
12.0
 40
12.0
 40
12.0
 40
13.0
 40
13.0
 40
13.0
 40
14.0
 40
14.0
 40
14.0
 40
15.0
 40
15.0
 40
15.0
 40
16.0
 40
16.0
 40
16.0
 40
17.0
 40
17.0
 40
17.0
 40
18.0
 40
18.0
 40
18.0
 40
19.0
 40
19.0
 40
19.0
 40
20.0
 40
20.0
 40
20.0
 40
21.0
 40
21.0
 40
21.0
 40
22.0
 40
22.0
 40
22.0
 40
23.0
 40
23.0
 40
23.0
 40
24.0
 40
24.0
 40
24.0
 40
25.0
 40
25.0
 40
25.0
 40
26.0
 40
26.0
 40
26.0
 40
26.0
 10
175.8221168078511
 20
87.78737409304339
 30
0.0
 10
175.8221168078511
 20
87.78737409304339
 30
0.0
 10
222.6201969861744
 20
87.78737409304339
 30
0.0
 10
222.6201969861744
 20
87.78737409304339
 30
0.0
 10
223.2195574732207
 20
87.78737409304339
 30
0.0
 10
223.8016494191473
 20
87.8007776676657
 30
0.0
 10
224.4003208870966
 20
87.82794009238221
 30
0.0
 10
225.4191432813188
 20
87.87168742208319
 30
0.0
 10
226.4125580963374
 20
87.95882142305153
 30
0.0
 10
227.4296148791235
 20
88.09428903708559
 30
0.0
 10
228.4357334837439
 20
88.22587553573704
 30
0.0
 10
229.4097481048112
 20
88.40755587592871
 30
0.0
 10
230.4010743306919
 20
88.64920779237221
 30
0.0
 10
231.1845751714248
 20
88.83830047081884
 30
0.0
 10
231.939890824719
 20
89.06407803322172
 30
0.0
 10
232.7047020224445
 20
89.33782855025668
 30
0.0
 10
233.4571754719634
 20
89.60453277043198
 30
0.0
 10
234.1768343869853
 20
89.91250815792822
 30
0.0
 10
234.8958042829102
 20
90.2762187308218
 30
0.0
 10
235.5964290453761
 20
90.62828595756753
 30
0.0
 10
236.2536456047279
 20
91.02234028553978
 30
0.0
 10
236.8992349668169
 20
91.47848169371025
 30
0.0
 10
237.6305426109483
 20
91.99212389871421
 30
0.0
 10
238.291634902721
 20
92.56045699454652
 30
0.0
 10
238.9135822970424
 20
93.21133242502074
 30
0.0
 10
239.6854774723594
 20
94.02130667137315
 30
0.0
 10
240.3271695701808
 20
94.88314037070196
 30
0.0
 10
240.8792676535389
 20
95.85045858741976
 30
0.0
 10
241.3018947421919
 20
96.59516980617347
 30
0.0
 10
241.6504522779121
 20
97.34094685134294
 30
0.0
 10
241.9467735533371
 20
98.13680697212921
 30
0.0
 10
242.225460246247
 20
98.88858063662768
 30
0.0
 10
242.4491330706269
 20
99.62836106246813
 30
0.0
 10
242.6318738542726
 20
100.4030553778669
 30
0.0
 10
242.8371800133467
 20
101.280768814198
 30
0.0
 10
242.9867617529469
 20
102.1380162301621
 30
0.0
 10
243.0894255984073
 20
103.0284334560951
 30
0.0
 10
243.21536537024
 20
104.1276880639746
 30
0.0
 10
243.2763866240225
 20
105.1973040847575
 30
0.0
 10
243.2763866240225
 20
106.3008004664532
 30
0.0
 10
243.2763866240225
 20
106.3008004664532
 30
0.0
 10
243.2767526654178
 20
106.3981567116817
 30
0.0
 10
243.2767526654178
 20
106.3981567116817
 30
0.0
 10
243.2767526654178
 20
107.3369021677187
 30
0.0
 10
243.21784153262
 20
108.246719587603
 30
0.0
 10
243.0968325537006
 20
109.1794576583876
 30
0.0
 10
242.9634858265746
 20
110.2272080887626
 30
0.0
 10
242.7496961198681
 20
111.2347477952707
 30
0.0
 10
242.4442022777136
 20
112.2525043630773
 30
0.0
 10
242.1429286775285
 20
113.2660406889144
 30
0.0
 10
241.7576808748904
 20
114.2217101765227
 30
0.0
 10
241.2687356981464
 20
115.167862587853
 30
0.0
 10
240.7173481657321
 20
116.239599495544
 30
0.0
 10
240.0643518483498
 20
117.20903859917
 30
0.0
 10
239.2741330714206
 20
118.126962759368
 30
0.0
 10
238.4870794759685
 20
119.0378352397446
 30
0.0
 10
237.6337077924254
 20
119.8206470613806
 30
0.0
 10
236.6621693337381
 20
120.5230266693593
 30
0.0
 10
235.9230886929181
 20
121.0550247737456
 30
0.0
 10
235.1738019567231
 20
121.5094005704798
 30
0.0
 10
234.3662931068273
 20
121.9165031976024
 30
0.0
 10
233.6042810491836
 20
122.2989195623886
 30
0.0
 10
232.8461662558076
 20
122.6210036924893
 30
0.0
 10
232.0446647911642
 20
122.9025218232511
 30
0.0
 10
231.2156240944856
 20
123.1928572452706
 30
0.0
 10
230.3996532288042
 20
123.4281572669131
 30
0.0
 10
229.5469920962048
 20
123.6232465646888
 30
0.0
 10
228.5129897500007
 20
123.8585465863313
 30
0.0
 10
227.501940352467
 20
124.0292941313191
 30
0.0
 10
226.4513584842401
 20
124.1464166118941
 30
0.0
 10
225.1788909349162
 20
124.2875255697853
 30
0.0
 10
223.9406374901303
 20
124.3559645447845
 30
0.0
 10
222.6628731064979
 20
124.3559645447845
 30
0.0
 10
222.6628731064979
 20
124.3559645447845
 30
0.0
 10
175.8221168078511
 20
124.3556092693125
 30
0.0
 10
175.8221168078511
 20
124.3556092693125
 30
0.0
 10
175.8221168078511
 20
124.3556092693125
 30
0.0
 10
175.8221168078511
 20
87.78737409304339
 30
0.0
 10
175.8221168078511
 20
87.78737409304339
 30
0.0
  0
SPLINE
  5
7F
330
79
100
AcDbEntity
  8
レイヤー 1
 62
   140
370
    18
100
AcDbSpline
210
0.0
220
0.0
230
1.0
 70
     9
 71
     3
 72
   125
 73
   121
 74
     0
 42
0.0000000001
 43
0.0000000001
 40
0.0
 40
0.0
 40
0.0
 40
0.0
 40
1.0
 40
1.0
 40
1.0
 40
2.0
 40
2.0
 40
2.0
 40
3.0
 40
3.0
 40
3.0
 40
4.0
 40
4.0
 40
4.0
 40
5.0
 40
5.0
 40
5.0
 40
6.0
 40
6.0
 40
6.0
 40
7.0
 40
7.0
 40
7.0
 40
8.0
 40
8.0
 40
8.0
 40
9.0
 40
9.0
 40
9.0
 40
10.0
 40
10.0
 40
10.0
 40
11.0
 40
11.0
 40
11.0
 40
12.0
 40
12.0
 40
12.0
 40
13.0
 40
13.0
 40
13.0
 40
14.0
 40
14.0
 40
14.0
 40
15.0
 40
15.0
 40
15.0
 40
16.0
 40
16.0
 40
16.0
 40
17.0
 40
17.0
 40
17.0
 40
18.0
 40
18.0
 40
18.0
 40
19.0
 40
19.0
 40
19.0
 40
20.0
 40
20.0
 40
20.0
 40
21.0
 40
21.0
 40
21.0
 40
22.0
 40
22.0
 40
22.0
 40
23.0
 40
23.0
 40
23.0
 40
24.0
 40
24.0
 40
24.0
 40
25.0
 40
25.0
 40
25.0
 40
26.0
 40
26.0
 40
26.0
 40
27.0
 40
27.0
 40
27.0
 40
28.0
 40
28.0
 40
28.0
 40
29.0
 40
29.0
 40
29.0
 40
30.0
 40
30.0
 40
30.0
 40
31.0
 40
31.0
 40
31.0
 40
32.0
 40
32.0
 40
32.0
 40
33.0
 40
33.0
 40
33.0
 40
34.0
 40
34.0
 40
34.0
 40
35.0
 40
35.0
 40
35.0
 40
36.0
 40
36.0
 40
36.0
 40
37.0
 40
37.0
 40
37.0
 40
38.0
 40
38.0
 40
38.0
 40
39.0
 40
39.0
 40
39.0
 40
40.0
 40
40.0
 40
40.0
 40
40.0
 10
135.6050948757667
 20
35.5998941968292
 30
0.0
 10
127.0213057306416
 20
35.5998941968292
 30
0.0
 10
120.03806488427
 20
42.58277976772887
 30
0.0
 10
120.03806488427
 20
51.16621363738206
 30
0.0
 10
120.03806488427
 20
51.16621363738206
 30
0.0
 10
120.03806488427
 20
245.833228833941
 30
0.0
 10
120.03806488427
 20
245.833228833941
 30
0.0
 10
120.03806488427
 20
254.4173517226913
 30
0.0
 10
127.0213057306416
 20
261.4002372935909
 30
0.0
 10
135.6043843248228
 20
261.4002372935909
 30
0.0
 10
135.6043843248228
 20
261.4002372935909
 30
0.0
 10
226.8295438411333
 20
261.4002372935909
 30
0.0
 10
226.8295438411333
 20
261.4002372935909
 30
0.0
 10
228.6287018946115
 20
261.4002372935909
 30
0.0
 10
230.3767218119805
 20
261.351553788015
 30
0.0
 10
232.1737697444739
 20
261.2517321463299
 30
0.0
 10
234.9056874005835
 20
261.1021504067297
 30
0.0
 10
237.5465684084953
 20
260.8350909110825
 30
0.0
 10
240.2499133039241
 20
260.4346846883093
 30
0.0
 10
243.0527353314894
 20
260.0222852268781
 30
0.0
 10
245.7461971092449
 20
259.479015200701
 30
0.0
 10
248.4872658002371
 20
258.7731151357733
 30
0.0
 10
251.2876331972693
 20
258.0545112812438
 30
0.0
 10
253.9577975168057
 20
257.1972423334329
 30
0.0
 10
256.6526803964488
 20
256.1519788313613
 30
0.0
 10
259.3838659697678
 20
255.0947005587849
 30
0.0
 10
261.9595054819277
 20
253.8980681738302
 30
0.0
 10
264.5280825483428
 20
252.4936749992681
 30
0.0
 10
267.5132793181586
 20
250.864532407987
 30
0.0
 10
270.2663627796557
 20
249.0565462973279
 30
0.0
 10
272.9467762582607
 20
246.9656317199426
 30
0.0
 10
276.9737268391225
 20
243.8283770481466
 30
0.0
 10
280.4362415884196
 20
240.3330692961993
 30
0.0
 10
283.534695872313
 20
236.2785794833023
 30
0.0
 10
286.0090711090533
 20
233.0362063355127
 30
0.0
 10
288.069302804773
 20
229.6707140878189
 30
0.0
 10
289.8321366327286
 20
225.9912444503382
 30
0.0
 10
291.2764067875325
 20
222.9707569836453
 30
0.0
 10
292.4370379246663
 20
219.9389868292384
 30
0.0
 10
293.3793146035758
 20
216.7248204007341
 30
0.0
 10
294.2915974199167
 20
213.6027456809201
 30
0.0
 10
294.9520006925923
 20
210.5169951866286
 30
0.0
 10
295.3982482171661
 20
207.2936561913949
 30
0.0
 10
295.8459383754743
 20
204.0428210278196
 30
0.0
 10
296.0636038146017
 20
200.8656893757819
 30
0.0
 10
296.0636038146017
 20
197.5830947382019
 30
0.0
 10
296.0636038146017
 20
197.0832113832921
 30
0.0
 10
296.0586514898417
 20
196.6066039547546
 30
0.0
 10
296.0484238626199
 20
196.1067205998448
 30
0.0
 10
295.9969196851154
 20
193.4711148943948
 30
0.0
 10
295.7979438889954
 20
190.9226485728748
 30
0.0
 10
295.440579827941
 20
188.3124504466285
 30
0.0
 10
295.0461809904203
 20
185.4228550765284
 30
0.0
 10
294.4725725921263
 20
182.6549577044447
 30
0.0
 10
293.6862295476179
 20
179.848604454007
 30
0.0
 10
292.783463807555
 20
176.6185798203473
 30
0.0
 10
291.6531710425381
 20
173.5741058763385
 30
0.0
 10
290.2304112026703
 20
170.5398595595514
 30
0.0
 10
288.4711085975871
 20
166.7838334408344
 30
0.0
 10
286.3967735422246
 20
163.3537779505624
 30
0.0
 10
283.8885287104949
 20
160.0521276285796
 30
0.0
 10
282.338774038302
 20
158.0109623831861
 30
0.0
 10
280.7071768164878
 20
156.1355923580201
 30
0.0
 10
278.8995352153771
 20
154.3187889561034
 30
0.0
 10
278.8995352153771
 20
154.3187889561034
 30
0.0
 10
276.8410906629404
 20
152.2493954595776
 30
0.0
 10
276.8410906629404
 20
152.2493954595776
 30
0.0
 10
276.8410906629404
 20
152.2493954595776
 30
0.0
 10
278.9940815546004
 20
150.2787793101679
 30
0.0
 10
278.9940815546004
 20
150.2787793101679
 30
0.0
 10
279.8650878206587
 20
149.481498087494
 30
0.0
 10
280.6556726389832
 20
148.7159763388247
 30
0.0
 10
281.481526622338
 20
147.8696563351029
 30
0.0
 10
283.5502203338434
 20
145.7480481101287
 30
0.0
 10
285.4114762334431
 20
143.5566013401145
 30
0.0
 10
287.1700682875825
 20
141.1711095668936
 30
0.0
 10
291.844029332421
 20
134.8281720142259
 30
0.0
 10
295.1844800423064
 20
128.0661278298541
 30
0.0
 10
297.381934197573
 20
120.4993954675151
 30
0.0
 10
299.0540974187261
 20
114.757228737858
 30
0.0
 10
299.8965309241036
 20
109.0609248418483
 30
0.0
 10
299.9575521778861
 20
103.0824030300562
 30
0.0
 10
299.9596622988708
 20
102.8520445672503
 30
0.0
 10
299.9607388912099
 20
102.62767195785
 30
0.0
 10
299.9607388912099
 20
102.3920166607355
 30
0.0
 10
299.9607388912099
 20
99.96349349171921
 30
0.0
 10
299.8534887623847
 20
97.6069405205744
 30
0.0
 10
299.6337132022726
 20
95.18758991828752
 30
0.0
 10
299.3659431556815
 20
92.20485854492839
 30
0.0
 10
298.9320333793143
 20
89.334302710346
 30
0.0
 10
298.3072653130642
 20
86.40871685834845
 30
0.0
 10
297.6927248740361
 20
83.52370238865141
 30
0.0
 10
296.9173200076934
 20
80.77132947809818
 30
0.0
 10
295.9362429408814
 20
77.99320447879272
 30
0.0
 10
294.7939569372065
 20
74.74941022911538
 30
0.0
 10
293.4375151854297
 20
71.70846750797892
 30
0.0
 10
291.7896829511411
 20
68.69433193608705
 30
0.0
 10
288.8041416717769
 20
63.22627638189851
 30
0.0
 10
285.1676926641681
 20
58.47400401031097
 30
0.0
 10
280.6711971005136
 20
54.16448023819499
 30
0.0
 10
278.1354345685955
 20
51.73806719016336
 30
0.0
 10
275.4850149525589
 20
49.60446572653117
 30
0.0
 10
272.5710670637474
 20
47.6437326947948
 30
0.0
 10
269.8222253760666
 20
45.7976459812535
 30
0.0
 10
267.027154813343
 20
44.21402171407128
 30
0.0
 10
264.0285437029816
 20
42.80432093927721
 30
0.0
 10
261.3933040389269
 20
41.56748859637896
 30
0.0
 10
258.7651052887701
 20
40.5260900608049
 30
0.0
 10
255.9961528561941
 20
39.62085892428532
 30
0.0
 10
253.2903533302321
 20
38.73926975553329
 30
0.0
 10
250.6180573578641
 20
38.02736230535319
 30
0.0
 10
247.8286496708445
 20
37.44563640082197
 30
0.0
 10
245.1055385400691
 20
36.88012397691821
 30
0.0
 10
242.4346636695888
 20
36.45820743920902
 30
0.0
 10
239.6664217879567
 20
36.15657856355201
 30
0.0
 10
236.1940239209862
 20
35.782279705003
 30
0.0
 10
232.8056002564688
 20
35.5998941968292
 30
0.0
 10
229.3102709726746
 20
35.5998941968292
 30
0.0
 10
229.3102709726746
 20
35.5998941968292
 30
0.0
 10
135.6050948757667
 20
35.5998941968292
 30
0.0
 10
135.6050948757667
 20
35.5998941968292
 30
0.0
  0
SPLINE
  5
80
330
79
100
AcDbEntity
  8
レイヤー 1
 62
   140
370
    18
100
AcDbSpline
210
0.0
220
0.0
230
1.0
 70
     9
 71
     3
 72
    74
 73
    70
 74
     0
 42
0.0000000001
 43
0.0000000001
 40
0.0
 40
0.0
 40
0.0
 40
0.0
 40
1.0
 40
1.0
 40
1.0
 40
2.0
 40
2.0
 40
2.0
 40
3.0
 40
3.0
 40
3.0
 40
4.0
 40
4.0
 40
4.0
 40
5.0
 40
5.0
 40
5.0
 40
6.0
 40
6.0
 40
6.0
 40
7.0
 40
7.0
 40
7.0
 40
8.0
 40
8.0
 40
8.0
 40
9.0
 40
9.0
 40
9.0
 40
10.0
 40
10.0
 40
10.0
 40
11.0
 40
11.0
 40
11.0
 40
12.0
 40
12.0
 40
12.0
 40
13.0
 40
13.0
 40
13.0
 40
14.0
 40
14.0
 40
14.0
 40
15.0
 40
15.0
 40
15.0
 40
16.0
 40
16.0
 40
16.0
 40
17.0
 40
17.0
 40
17.0
 40
18.0
 40
18.0
 40
18.0
 40
19.0
 40
19.0
 40
19.0
 40
20.0
 40
20.0
 40
20.0
 40
21.0
 40
21.0
 40
21.0
 40
22.0
 40
22.0
 40
22.0
 40
23.0
 40
23.0
 40
23.0
 40
23.0
 10
221.1347579403218
 20
182.6427276154721
 30
0.0
 10
221.8328850085609
 20
182.6427276154721
 30
0.0
 10
222.5109228637516
 20
182.6698792742653
 30
0.0
 10
223.2069613428528
 20
182.7256252255859
 30
0.0
 10
223.9703729705374
 20
182.7852469093275
 30
0.0
 10
224.693929149827
 20
182.8822478790841
 30
0.0
 10
225.4347538702364
 20
183.0237121124472
 30
0.0
 10
225.9924932974516
 20
183.1284860788923
 30
0.0
 10
226.5156741105803
 20
183.256902013105
 30
0.0
 10
227.0497715700279
 20
183.4184769913632
 30
0.0
 10
227.5955177585851
 20
183.5818175810577
 30
0.0
 10
228.0961116644387
 20
183.7709102595043
 30
0.0
 10
228.6005813027132
 20
184.0019685073307
 30
0.0
 10
229.0729469574344
 20
184.2168132745296
 30
0.0
 10
229.4987607594114
 20
184.4570440890854
 30
0.0
 10
229.917856625192
 20
184.7424487181915
 30
0.0
 10
230.7888628912503
 20
185.3333471894522
 30
0.0
 10
231.4852458799
 20
186.089007352295
 30
0.0
 10
231.9992541262992
 20
186.9959933343274
 30
0.0
 10
232.2490020171331
 20
187.4394417188194
 30
0.0
 10
232.4483223228015
 20
187.8821795523675
 30
0.0
 10
232.6187253582407
 20
188.374655951984
 30
0.0
 10
232.7760585626827
 20
188.8307865942311
 30
0.0
 10
232.8960124811098
 20
189.2699932049069
 30
0.0
 10
232.994434552754
 20
189.749421305373
 30
0.0
 10
233.0833395481202
 20
190.186517795064
 30
0.0
 10
233.1500021457598
 20
190.6214826319236
 30
0.0
 10
233.1955204698587
 20
191.0702278507242
 30
0.0
 10
233.2519554402764
 20
191.6237255041231
 30
0.0
 10
233.2791286309163
 20
192.1666510207517
 30
0.0
 10
233.2791286309163
 20
192.7261560594031
 30
0.0
 10
233.2791286309163
 20
193.1861839659179
 30
0.0
 10
233.2607834974574
 20
193.6345631433231
 30
0.0
 10
233.2219831095548
 20
194.0970672122179
 30
0.0
 10
233.1676367282749
 20
194.7846221436867
 30
0.0
 10
233.0678150865898
 20
195.4252591810156
 30
0.0
 10
232.9150466336658
 20
196.0810761703265
 30
0.0
 10
232.7869967408484
 20
196.6356504160646
 30
0.0
 10
232.6250772530417
 20
197.1471825000839
 30
0.0
 10
232.4151632787561
 20
197.6618797655802
 30
0.0
 10
232.267347150592
 20
198.0269952914763
 30
0.0
 10
232.1043726022929
 20
198.360028365666
 30
0.0
 10
231.9121147423692
 20
198.6926953984605
 30
0.0
 10
231.473252641242
 20
199.4557625165965
 30
0.0
 10
230.9112714402106
 20
200.115089196933
 30
0.0
 10
230.2353652378513
 20
200.6643666083625
 30
0.0
 10
229.8377796870067
 20
200.9846958929504
 30
0.0
 10
229.4243251650831
 20
201.2587963024957
 30
0.0
 10
228.9554692013874
 20
201.5092762761201
 30
0.0
 10
228.5003936196327
 20
201.7512727021121
 30
0.0
 10
228.052358951776
 20
201.9505930077806
 30
0.0
 10
227.5581169407233
 20
202.1301686099493
 30
0.0
 10
227.025074541768
 20
202.3224264698729
 30
0.0
 10
226.487445859448
 20
202.4811807762026
 30
0.0
 10
225.9254646584166
 20
202.6109962804562
 30
0.0
 10
225.2506135165498
 20
202.765874854365
 30
0.0
 10
224.5803271262008
 20
202.8805104066367
 30
0.0
 10
223.8867648094797
 20
202.9595322843296
 30
0.0
 10
222.972371872154
 20
203.0625621711853
 30
0.0
 10
222.0738479059074
 20
203.1130112881974
 30
0.0
 10
221.1481507490207
 20
203.1130112881974
 30
0.0
 10
221.1481507490207
 20
203.1130112881974
 30
0.0
 10
181.9220782354982
 20
203.1130112881974
 30
0.0
 10
181.9220782354982
 20
203.1130112881974
 30
0.0
 10
181.9220782354982
 20
203.1130112881974
 30
0.0
 10
181.9220782354982
 20
182.6427276154721
 30
0.0
 10
181.9220782354982
 20
182.6427276154721
 30
0.0
 10
181.9220782354982
 20
182.6427276154721
 30
0.0
 10
221.1347579403218
 20
182.6427276154721
 30
0.0
 10
221.1347579403218
 20
182.6427276154721
 30
0.0
  0
SPLINE
  5
81
330
79
100
AcDbEntity
  8
レイヤー 1
 62
   140
370
    18
100
AcDbSpline
210
0.0
220
0.0
230
1.0
 70
     9
 71
     3
 72
    83
 73
    79
 74
     0
 42
0.0000000001
 43
0.0000000001
 40
0.0
 40
0.0
 40
0.0
 40
0.0
 40
1.0
 40
1.0
 40
1.0
 40
2.0
 40
2.0
 40
2.0
 40
3.0
 40
3.0
 40
3.0
 40
4.0
 40
4.0
 40
4.0
 40
5.0
 40
5.0
 40
5.0
 40
6.0
 40
6.0
 40
6.0
 40
7.0
 40
7.0
 40
7.0
 40
8.0
 40
8.0
 40
8.0
 40
9.0
 40
9.0
 40
9.0
 40
10.0
 40
10.0
 40
10.0
 40
11.0
 40
11.0
 40
11.0
 40
12.0
 40
12.0
 40
12.0
 40
13.0
 40
13.0
 40
13.0
 40
14.0
 40
14.0
 40
14.0
 40
15.0
 40
15.0
 40
15.0
 40
16.0
 40
16.0
 40
16.0
 40
17.0
 40
17.0
 40
17.0
 40
18.0
 40
18.0
 40
18.0
 40
19.0
 40
19.0
 40
19.0
 40
20.0
 40
20.0
 40
20.0
 40
21.0
 40
21.0
 40
21.0
 40
22.0
 40
22.0
 40
22.0
 40
23.0
 40
23.0
 40
23.0
 40
24.0
 40
24.0
 40
24.0
 40
25.0
 40
25.0
 40
25.0
 40
26.0
 40
26.0
 40
26.0
 40
26.0
 10
222.6203046454083
 20
93.88736781846068
 30
0.0
 10
223.1261738537237
 20
93.88736781846068
 30
0.0
 10
223.6175951928478
 20
93.89865050617485
 30
0.0
 10
224.1227753820661
 20
93.92158192299856
 30
0.0
 10
224.9761470656093
 20
93.95827218991646
 30
0.0
 10
225.7896417689107
 20
94.02988711231611
 30
0.0
 10
226.6250343603902
 20
94.14101297356218
 30
0.0
 10
227.4247702135974
 20
94.24578694000734
 30
0.0
 10
228.1835955579172
 20
94.38760644884233
 30
0.0
 10
228.9572348128236
 20
94.57598857634515
 30
0.0
 10
229.5414368797349
 20
94.71674225876439
 30
0.0
 10
230.0903697816158
 20
94.88078263347924
 30
0.0
 10
230.6484537183795
 20
95.08081349009156
 30
0.0
 10
231.1740891620416
 20
95.2674300061582
 30
0.0
 10
231.6573929949286
 20
95.47415726711996
 30
0.0
 10
232.142828480647
 20
95.71969568190775
 30
0.0
 10
232.5855663141952
 20
95.94229191394846
 30
0.0
 10
232.985606495573
 20
96.18217821895576
 30
0.0
 10
233.3800268649406
 20
96.46087567778907
 30
0.0
 10
233.8022879121983
 20
96.75756299460944
 30
0.0
 10
234.1554317312832
 20
97.06130199125118
 30
0.0
 10
234.5039677351566
 20
97.42607300759878
 30
0.0
 10
234.9287049447943
 20
97.87198678854743
 30
0.0
 10
235.2730207066982
 20
98.33412481604689
 30
0.0
 10
235.5809907112328
 20
98.87387438527504
 30
0.0
 10
235.8381670892067
 20
99.32683984604503
 30
0.0
 10
236.047026003
 20
99.7734641779375
 30
0.0
 10
236.2311663566866
 20
100.2680506985387
 30
0.0
 10
236.4170723218094
 20
100.7693551553361
 30
0.0
 10
236.5701852842819
 20
101.2755904050467
 30
0.0
 10
236.6950699956222
 20
101.8047570715811
 30
0.0
 10
236.8435966747301
 20
102.439752765053
 30
0.0
 10
236.9540119850324
 20
103.0722830620683
 30
0.0
 10
237.0295026398529
 20
103.7270449908868
 30
0.0
 10
237.1279247114971
 20
104.5888786902156
 30
0.0
 10
237.1762637075245
 20
105.4323672560855
 30
0.0
 10
237.1762637075245
 20
106.3009081256871
 30
0.0
 10
237.1762637075245
 20
106.3009081256871
 30
0.0
 10
237.176608217073
 20
106.4081474885889
 30
0.0
 10
237.176608217073
 20
106.4081474885889
 30
0.0
 10
237.176608217073
 20
107.0724372596088
 30
0.0
 10
237.134276606298
 20
107.7250675355958
 30
0.0
 10
237.0475032637633
 20
108.3939435899805
 30
0.0
 10
236.9547225359762
 20
109.1231303472038
 30
0.0
 10
236.8097270797407
 20
109.8064650367031
 30
0.0
 10
236.6015787168913
 20
110.4989615270085
 30
0.0
 10
236.4054451245467
 20
111.1583097391917
 30
0.0
 10
236.1609725361746
 20
111.7647326719829
 30
0.0
 10
235.8494713087677
 20
112.367279872353
 30
0.0
 10
235.5097418302285
 20
113.0276723791053
 30
0.0
 10
235.1305014128428
 20
113.5903533651571
 30
0.0
 10
234.6510733123768
 20
114.1473930073518
 30
0.0
 10
234.1787076576554
 20
114.6941942564013
 30
0.0
 10
233.6802238727865
 20
115.151746000536
 30
0.0
 10
233.0882703410335
 20
115.5793146480257
 30
0.0
 10
232.616615237256
 20
115.9190441265649
 30
0.0
 10
232.1477592735603
 20
116.2037382047273
 30
0.0
 10
231.6214132789545
 20
116.468666047543
 30
0.0
 10
231.1017852205449
 20
116.7297289238612
 30
0.0
 10
230.5761497768829
 20
116.9530357068457
 30
0.0
 10
230.0226305916372
 20
117.1477697291495
 30
0.0
 10
229.4186838212261
 20
117.358727998004
 30
0.0
 10
228.815426069912
 20
117.5329959999407
 30
0.0
 10
228.1860717202973
 20
117.6769363956838
 30
0.0
 10
227.3866803766386
 20
117.8589666283857
 30
0.0
 10
226.5953850073703
 20
117.9926686309836
 30
0.0
 10
225.7748278583241
 20
118.0840390228064
 30
0.0
 10
224.7334400886734
 20
118.1993958919454
 30
0.0
 10
223.7139071435073
 20
118.2558416282865
 30
0.0
 10
222.6629807657318
 20
118.2558416282865
 30
0.0
 10
222.6629807657318
 20
118.2558416282865
 30
0.0
 10
181.9220782354982
 20
118.2558416282865
 30
0.0
 10
181.9220782354982
 20
118.2558416282865
 30
0.0
 10
181.9220782354982
 20
118.2558416282865
 30
0.0
 10
181.9220782354982
 20
93.88736781846068
 30
0.0
 10
181.9220782354982
 20
93.88736781846068
 30
0.0
 10
181.9220782354982
 20
93.88736781846068
 30
0.0
 10
222.6203046454083
 20
93.88736781846068
 30
0.0
 10
222.6203046454083
 20
93.88736781846068
 30
0.0
  0
SPLINE
  5
82
330
79
100
AcDbEntity
  8
レイヤー 1
 62
   140
370
    18
100
AcDbSpline
210
0.0
220
0.0
230
1.0
 70
     9
 71
     3
 72
   119
 73
   115
 74
     0
 42
0.0000000001
 43
0.0000000001
 40
0.0
 40
0.0
 40
0.0
 40
0.0
 40
1.0
 40
1.0
 40
1.0
 40
2.0
 40
2.0
 40
2.0
 40
3.0
 40
3.0
 40
3.0
 40
4.0
 40
4.0
 40
4.0
 40
5.0
 40
5.0
 40
5.0
 40
6.0
 40
6.0
 40
6.0
 40
7.0
 40
7.0
 40
7.0
 40
8.0
 40
8.0
 40
8.0
 40
9.0
 40
9.0
 40
9.0
 40
10.0
 40
10.0
 40
10.0
 40
11.0
 40
11.0
 40
11.0
 40
12.0
 40
12.0
 40
12.0
 40
13.0
 40
13.0
 40
13.0
 40
14.0
 40
14.0
 40
14.0
 40
15.0
 40
15.0
 40
15.0
 40
16.0
 40
16.0
 40
16.0
 40
17.0
 40
17.0
 40
17.0
 40
18.0
 40
18.0
 40
18.0
 40
19.0
 40
19.0
 40
19.0
 40
20.0
 40
20.0
 40
20.0
 40
21.0
 40
21.0
 40
21.0
 40
22.0
 40
22.0
 40
22.0
 40
23.0
 40
23.0
 40
23.0
 40
24.0
 40
24.0
 40
24.0
 40
25.0
 40
25.0
 40
25.0
 40
26.0
 40
26.0
 40
26.0
 40
27.0
 40
27.0
 40
27.0
 40
28.0
 40
28.0
 40
28.0
 40
29.0
 40
29.0
 40
29.0
 40
30.0
 40
30.0
 40
30.0
 40
31.0
 40
31.0
 40
31.0
 40
32.0
 40
32.0
 40
32.0
 40
33.0
 40
33.0
 40
33.0
 40
34.0
 40
34.0
 40
34.0
 40
35.0
 40
35.0
 40
35.0
 40
36.0
 40
36.0
 40
36.0
 40
37.0
 40
37.0
 40
37.0
 40
38.0
 40
38.0
 40
38.0
 40
38.0
 10
135.6048364936053
 20
29.50012655580314
 30
0.0
 10
123.6576759876945
 20
29.50012655580314
 30
0.0
 10
113.937941967772
 20
39.21951606617712
 30
0.0
 10
113.937941967772
 20
51.16633206253936
 30
0.0
 10
113.937941967772
 20
51.16633206253936
 30
0.0
 10
113.937941967772
 20
245.8329704517796
 30
0.0
 10
113.937941967772
 20
245.8329704517796
 30
0.0
 10
113.937941967772
 20
257.7804969990857
 30
0.0
 10
123.6573207122226
 20
267.5002310190082
 30
0.0
 10
135.6041367085848
 20
267.5002310190082
 30
0.0
 10
135.6041367085848
 20
267.5002310190082
 30
0.0
 10
226.8296299685204
 20
267.5002310190082
 30
0.0
 10
226.8296299685204
 20
267.5002310190082
 30
0.0
 10
228.7427560870201
 20
267.5002310190082
 30
0.0
 10
230.6019018656351
 20
267.4487268415037
 30
0.0
 10
232.5128963313032
 20
267.3421872636223
 30
0.0
 10
235.4271887296632
 20
267.1827439381956
 30
0.0
 10
238.2522316231084
 20
266.8969947995409
 30
0.0
 10
241.1435926046447
 20
266.4687263670308
 30
0.0
 10
244.1545629950594
 20
266.0256224920873
 30
0.0
 10
247.0561516038176
 20
265.4403653646838
 30
0.0
 10
250.0081893295878
 20
264.6804849598715
 30
0.0
 10
253.0392704648978
 20
263.9026039311489
 30
0.0
 10
255.9359282807426
 20
262.9730310418414
 30
0.0
 10
258.8590487362835
 20
261.8388625444036
 30
0.0
 10
261.836838550806
 20
260.68632738166
 30
0.0
 10
264.6502327151417
 20
259.3793012182498
 30
0.0
 10
267.4548203541432
 20
257.8457600266844
 30
0.0
 10
270.7286084663891
 20
256.0589397214128
 30
0.0
 10
273.7540267259951
 20
254.0728206423195
 30
0.0
 10
276.698657496472
 20
251.775523313521
 30
0.0
 10
281.1397731502012
 20
248.3151186852086
 30
0.0
 10
284.9621281229326
 20
244.456783996503
 30
0.0
 10
288.381600710511
 20
239.9821647891798
 30
0.0
 10
291.1149179366614
 20
236.400751181948
 30
0.0
 10
293.3878627467485
 20
232.6874119494779
 30
0.0
 10
295.3334373583498
 20
228.6265917736268
 30
0.0
 10
296.9227029693891
 20
225.3030866271595
 30
0.0
 10
298.197646681093
 20
221.9728635444959
 30
0.0
 10
299.2330485973381
 20
218.4411885033324
 30
0.0
 10
300.2314157371167
 20
215.0231370176418
 30
0.0
 10
300.9531847731233
 20
211.6519818942441
 30
0.0
 10
301.4407303798265
 20
208.1298454612054
 30
0.0
 10
301.9275654355859
 20
204.5960818309039
 30
0.0
 10
302.1635760081722
 20
201.147325931701
 30
0.0
 10
302.1635760081722
 20
197.5828578878873
 30
0.0
 10
302.1635760081722
 20
197.0402768808072
 30
0.0
 10
302.1582791738637
 20
196.5231034529308
 30
0.0
 10
302.1469964861495
 20
195.9805439776975
 30
0.0
 10
302.0909060252802
 20
193.112803432082
 30
0.0
 10
301.8739511370966
 20
190.3315132512995
 30
0.0
 10
301.4841170510938
 20
187.4842494919744
 30
0.0
 10
301.0519728861628
 20
184.3177115085538
 30
0.0
 10
300.4222524951527
 20
181.2806445198383
 30
0.0
 10
299.5600742862754
 20
178.2026562563119
 30
0.0
 10
298.5662934298615
 20
174.6480713301715
 30
0.0
 10
297.3209990711776
 20
171.2931512192481
 30
0.0
 10
295.7536098164696
 20
167.9502351129061
 30
0.0
 10
293.8104898354016
 20
163.801920277653
 30
0.0
 10
291.5178003218145
 20
160.0106142279824
 30
0.0
 10
288.7456611759148
 20
156.3618382380905
 30
0.0
 10
287.7134459729936
 20
155.0022313048367
 30
0.0
 10
286.64805019418
 20
153.7089532255973
 30
0.0
 10
285.5269299958926
 20
152.4562303797733
 30
0.0
 10
285.6331035323787
 20
152.3486357413996
 30
0.0
 10
285.73964311026
 20
152.240330552082
 30
0.0
 10
285.8468932390851
 20
152.1306257927236
 30
0.0
 10
288.1152517658076
 20
149.8044004277724
 30
0.0
 10
290.1532625956475
 20
147.4044607853602
 30
0.0
 10
292.079781522846
 20
144.7910759457901
 30
0.0
 10
297.1883413631486
 20
137.858294982354
 30
0.0
 10
300.8385492208516
 20
130.469361844824
 30
0.0
 10
303.2398884333046
 20
122.2006051499783
 30
0.0
 10
305.0679852888589
 20
115.9222200739654
 30
0.0
 10
305.9901512228731
 20
109.6875769446918
 30
0.0
 10
306.0575243714566
 20
103.1449530449603
 30
0.0
 10
306.0592899828927
 20
102.8853112705298
 30
0.0
 10
306.0607110847804
 20
102.6447144145786
 30
0.0
 10
306.0607110847804
 20
102.3921350858928
 30
0.0
 10
306.0607110847804
 20
99.77805046130225
 30
0.0
 10
305.9457094911134
 20
97.24086682749643
 30
0.0
 10
305.7086438580346
 20
94.63561026008676
 30
0.0
 10
305.4193634965076
 20
91.41298181579692
 30
0.0
 10
304.9494524723195
 20
88.30324484418937
 30
0.0
 10
304.2724696776212
 20
85.13459673978406
 30
0.0
 10
303.6036043891599
 20
81.9938216110391
 30
0.0
 10
302.7580057023053
 20
78.99203455327716
 30
0.0
 10
301.6880236401271
 20
75.96201924438299
 30
0.0
 10
300.4370879375861
 20
72.41025499017109
 30
0.0
 10
298.949409579668
 20
69.07403528817855
 30
0.0
 10
297.1417895104043
 20
65.76779868283106
 30
0.0
 10
293.8542425480642
 20
59.74658998479209
 30
0.0
 10
289.8466921611538
 20
54.50924816888137
 30
0.0
 10
284.8919343024207
 20
49.76050702016621
 30
0.0
 10
282.0982848415848
 20
47.08715598730591
 30
0.0
 10
279.1829158508857
 20
44.7404861338344
 30
0.0
 10
275.9761779095216
 20
42.58289819288617
 30
0.0
 10
272.9630973981221
 20
40.55901225453581
 30
0.0
 10
269.9052091135675
 20
38.82651679869724
 30
0.0
 10
266.6236910683267
 20
37.28382457224914
 30
0.0
 10
263.7556060131627
 20
35.93797648908951
 30
0.0
 10
260.900569257149
 20
34.80626262218494
 30
0.0
 10
257.8913644781704
 20
33.82272015891628
 30
0.0
 10
254.9661339016448
 20
32.86986057731314
 30
0.0
 10
252.0839454868379
 20
32.10221794173573
 30
0.0
 10
249.0743961983108
 20
31.47427392808521
 30
0.0
 10
246.1502206822776
 20
30.86714044435027
 30
0.0
 10
243.2909636842945
 20
30.41558531954454
 30
0.0
 10
240.3272772294148
 20
30.0924461289515
 30
0.0
 10
236.6276968470388
 20
29.69345024214261
 30
0.0
 10
233.0261724949119
 20
29.50012655580314
 30
0.0
 10
229.3103786319085
 20
29.50012655580314
 30
0.0
 10
229.3103786319085
 20
29.50012655580314
 30
0.0
 10
135.6048364936053
 20
29.50012655580314
 30
0.0
 10
135.6048364936053
 20
29.50012655580314
 30
0.0
  0
SPLINE
  5
83
330
79
100
AcDbEntity
  8
レイヤー 1
 62
     1
370
    18
100
AcDbSpline
210
0.0
220
0.0
230
1.0
 70
    11
 71
     3
 72
    74
 73
    70
 74
     0
 42
0.0000000001
 43
0.0000000001
 40
0.0
 40
0.0
 40
0.0
 40
0.0
 40
1.0
 40
1.0
 40
1.0
 40
2.0
 40
2.0
 40
2.0
 40
3.0
 40
3.0
 40
3.0
 40
4.0
 40
4.0
 40
4.0
 40
5.0
 40
5.0
 40
5.0
 40
6.0
 40
6.0
 40
6.0
 40
7.0
 40
7.0
 40
7.0
 40
8.0
 40
8.0
 40
8.0
 40
9.0
 40
9.0
 40
9.0
 40
10.0
 40
10.0
 40
10.0
 40
11.0
 40
11.0
 40
11.0
 40
12.0
 40
12.0
 40
12.0
 40
13.0
 40
13.0
 40
13.0
 40
14.0
 40
14.0
 40
14.0
 40
15.0
 40
15.0
 40
15.0
 40
16.0
 40
16.0
 40
16.0
 40
17.0
 40
17.0
 40
17.0
 40
18.0
 40
18.0
 40
18.0
 40
19.0
 40
19.0
 40
19.0
 40
20.0
 40
20.0
 40
20.0
 40
21.0
 40
21.0
 40
21.0
 40
22.0
 40
22.0
 40
22.0
 40
23.0
 40
23.0
 40
23.0
 40
23.0
 10
174.822167077334
 20
210.212793255281
 30
0.0
 10
174.822167077334
 20
210.212793255281
 30
0.0
 10
174.822167077334
 20
175.542848755078
 30
0.0
 10
174.822167077334
 20
175.542848755078
 30
0.0
 10
174.822167077334
 20
175.542848755078
 30
0.0
 10
221.1348225358621
 20
175.542848755078
 30
0.0
 10
221.1348225358621
 20
175.542848755078
 30
0.0
 10
222.0241739353794
 20
175.542848755078
 30
0.0
 10
222.8877732461444
 20
175.5774181350878
 30
0.0
 10
223.7746700151284
 20
175.648333272467
 30
0.0
 10
224.780078068805
 20
175.7266445992161
 30
0.0
 10
225.7632652566017
 20
175.8582257149059
 30
0.0
 10
226.7658741701966
 20
176.0494392802606
 30
0.0
 10
227.5560929471257
 20
176.198310468917
 30
0.0
 10
228.3272560396521
 20
176.3870478718917
 30
0.0
 10
229.1079577403033
 20
176.6234029540266
 30
0.0
 10
229.9436948413314
 20
176.8735276521792
 30
0.0
 10
230.7515482007757
 20
177.1776219242928
 30
0.0
 10
231.5583464997276
 20
177.5473344994771
 30
0.0
 10
232.3828009130414
 20
177.9226884185185
 30
0.0
 10
233.1585502889326
 20
178.3590743572657
 30
0.0
 10
233.9163205727601
 20
178.8755372341982
 30
0.0
 10
235.682685623588
 20
180.0735691891938
 30
0.0
 10
237.1195488230986
 20
181.6303647752847
 30
0.0
 10
238.1761165447311
 20
183.4955179391521
 30
0.0
 10
238.6456615275239
 20
184.3284128364049
 30
0.0
 10
239.019605110601
 20
185.160274205012
 30
0.0
 10
239.3282856660794
 20
186.0527907860063
 30
0.0
 10
239.587572165038
 20
186.8049197259767
 30
0.0
 10
239.7900576521836
 20
187.5453999368376
 30
0.0
 10
239.9495225094571
 20
188.3222259050679
 30
0.0
 10
240.0885105804401
 20
189.0059051041157
 30
0.0
 10
240.1894088144644
 20
189.6655978258475
 30
0.0
 10
240.2589136158793
 20
190.3492770248953
 30
0.0
 10
240.3400456145569
 20
191.1469027571178
 30
0.0
 10
240.3792120438549
 20
191.9233626839528
 30
0.0
 10
240.3792120438549
 20
192.7259407409352
 30
0.0
 10
240.3792120438549
 20
193.3870545645547
 30
0.0
 10
240.3524048946103
 20
194.0291127037714
 30
0.0
 10
240.2973694942334
 20
194.6880948745593
 30
0.0
 10
240.2183476165405
 20
195.6935029282359
 30
0.0
 10
240.0645241031241
 20
196.6858626827621
 30
0.0
 10
239.8295685910301
 20
197.6930578797217
 30
0.0
 10
239.6207312090835
 20
198.5996993522055
 30
0.0
 10
239.3448651881022
 20
199.4710501278123
 30
0.0
 10
238.9899772894279
 20
200.3417118843221
 30
0.0
 10
238.7236283447245
 20
200.9989284436739
 30
0.0
 10
238.4177684611747
 20
201.6254621213601
 30
0.0
 10
238.059349339628
 20
202.2452993946969
 30
0.0
 10
237.1943289269753
 20
203.7491912332424
 30
0.0
 10
236.0661462829431
 20
205.0752730810554
 30
0.0
 10
234.7128912444902
 20
206.1748829644068
 30
0.0
 10
233.941706620117
 20
206.7957752982359
 30
0.0
 10
233.1599713908202
 20
207.3122381751685
 30
0.0
 10
232.3030684844047
 20
207.7708449797956
 30
0.0
 10
231.5396568567201
 20
208.1765480368773
 30
0.0
 10
230.7847072448212
 20
208.5120357416003
 30
0.0
 10
229.982495229234
 20
208.8034262241121
 30
0.0
 10
229.1629931406802
 20
209.0994245218354
 30
0.0
 10
228.3625467365292
 20
209.3350690530265
 30
0.0
 10
227.5229339030802
 20
209.5290925243864
 30
0.0
 10
226.572905759329
 20
209.7464134539653
 30
0.0
 10
225.6500292743709
 20
209.9044572093512
 30
0.0
 10
224.6911730734387
 20
210.0138174591611
 30
0.0
 10
223.4980934432032
 20
210.1482192467793
 30
0.0
 10
222.3416825480387
 20
210.212793255281
 30
0.0
 10
221.1478708350125
 20
210.212793255281
 30
0.0
 10
221.1478708350125
 20
210.212793255281
 30
0.0
 10
174.822167077334
 20
210.212793255281
 30
0.0
 10
174.822167077334
 20
210.212793255281
 30
0.0
  0
SPLINE
  5
84
330
79
100
AcDbEntity
  8
レイヤー 1
 62
     1
370
    18
100
AcDbSpline
210
0.0
220
0.0
230
1.0
 70
    11
 71
     3
 72
    83
 73
    79
 74
     0
 42
0.0000000001
 43
0.0000000001
 40
0.0
 40
0.0
 40
0.0
 40
0.0
 40
1.0
 40
1.0
 40
1.0
 40
2.0
 40
2.0
 40
2.0
 40
3.0
 40
3.0
 40
3.0
 40
4.0
 40
4.0
 40
4.0
 40
5.0
 40
5.0
 40
5.0
 40
6.0
 40
6.0
 40
6.0
 40
7.0
 40
7.0
 40
7.0
 40
8.0
 40
8.0
 40
8.0
 40
9.0
 40
9.0
 40
9.0
 40
10.0
 40
10.0
 40
10.0
 40
11.0
 40
11.0
 40
11.0
 40
12.0
 40
12.0
 40
12.0
 40
13.0
 40
13.0
 40
13.0
 40
14.0
 40
14.0
 40
14.0
 40
15.0
 40
15.0
 40
15.0
 40
16.0
 40
16.0
 40
16.0
 40
17.0
 40
17.0
 40
17.0
 40
18.0
 40
18.0
 40
18.0
 40
19.0
 40
19.0
 40
19.0
 40
20.0
 40
20.0
 40
20.0
 40
21.0
 40
21.0
 40
21.0
 40
22.0
 40
22.0
 40
22.0
 40
23.0
 40
23.0
 40
23.0
 40
24.0
 40
24.0
 40
24.0
 40
25.0
 40
25.0
 40
25.0
 40
26.0
 40
26.0
 40
26.0
 40
26.0
 10
174.822167077334
 20
86.78748895806659
 30
0.0
 10
174.822167077334
 20
86.78748895806659
 30
0.0
 10
222.6203692409487
 20
86.78748895806659
 30
0.0
 10
222.6203692409487
 20
86.78748895806659
 30
0.0
 10
223.2352541895254
 20
86.78748895806659
 30
0.0
 10
223.8325260874338
 20
86.80089253268889
 30
0.0
 10
224.4453009150258
 20
86.82876550834924
 30
0.0
 10
225.4905644170974
 20
86.87391779105279
 30
0.0
 10
226.5146836456283
 20
86.96387784691138
 30
0.0
 10
227.5617342909828
 20
87.10323195928973
 30
0.0
 10
228.6010119396488
 20
87.2390440828723
 30
0.0
 10
229.611716827634
 20
87.42778148584704
 30
0.0
 10
230.6379461771495
 20
87.67755090852766
 30
0.0
 10
231.4539385746777
 20
87.87475032728805
 30
0.0
 10
232.2452124120993
 20
88.11111617534635
 30
0.0
 10
233.0438932048141
 20
88.39722058947296
 30
0.0
 10
233.8288366792815
 20
88.67555200691098
 30
0.0
 10
234.5887170840937
 20
89.00046757486361
 30
0.0
 10
235.3468318774697
 20
89.38393900014208
 30
0.0
 10
236.0869675787821
 20
89.75540642083915
 30
0.0
 10
236.7882813603451
 20
90.17592338850745
 30
0.0
 10
237.4758362918138
 20
90.66134810830254
 30
0.0
 10
238.2579590943526
 20
91.21097002928058
 30
0.0
 10
238.9684454426451
 20
91.82163473588792
 30
0.0
 10
239.636255670614
 20
92.51977257005041
 30
0.0
 10
240.4674064882772
 20
93.39254444754487
 30
0.0
 10
241.1556719706898
 20
94.31717577801576
 30
0.0
 10
241.7476255024429
 20
95.35505385664084
 30
0.0
 10
242.1995359027205
 20
96.15056946787859
 30
0.0
 10
242.5692592438282
 20
96.94255385624396
 30
0.0
 10
242.8842916941075
 20
97.78780803355001
 30
0.0
 10
243.1781368071525
 20
98.58084748240775
 30
0.0
 10
243.4123817683027
 20
99.35731817516611
 30
0.0
 10
243.6050056696218
 20
100.1722339803551
 30
0.0
 10
243.8201949463692
 20
101.0922790274613
 30
0.0
 10
243.9754180298265
 20
101.984806374379
 30
0.0
 10
244.0826681586516
 20
102.9136687127427
 30
0.0
 10
244.2131942138491
 20
104.0531448104125
 30
0.0
 10
244.2763471204631
 20
105.1594510981133
 30
0.0
 10
244.2763471204631
 20
106.3006928072193
 30
0.0
 10
244.2763471204631
 20
106.3006928072193
 30
0.0
 10
244.2763471204631
 20
106.3948838709707
 30
0.0
 10
244.2763471204631
 20
106.3948838709707
 30
0.0
 10
244.2763471204631
 20
107.3847782290403
 30
0.0
 10
244.2149598252852
 20
108.3340958218476
 30
0.0
 10
244.0883095025087
 20
109.3084657183869
 30
0.0
 10
243.9482663710334
 20
110.4094859377025
 30
0.0
 10
243.7228279352173
 20
111.4720610445875
 30
0.0
 10
243.4014435901371
 20
112.5416770653704
 30
0.0
 10
243.0839565093245
 20
113.6098935161125
 30
0.0
 10
242.6754327803142
 20
114.6237743514981
 30
0.0
 10
242.1579148428893
 20
115.6260172236976
 30
0.0
 10
241.5698370435572
 20
116.768313993296
 30
0.0
 10
240.8727435039637
 20
117.8026500831253
 30
0.0
 10
240.0313650590785
 20
118.7798514175164
 30
0.0
 10
239.1914077160811
 20
119.7521004271475
 30
0.0
 10
238.283000632161
 20
120.5850060903236
 30
0.0
 10
237.247598715916
 20
121.3336038074216
 30
0.0
 10
236.4637318337877
 20
121.8980504049096
 30
0.0
 10
235.6710368944785
 20
122.3788888413399
 30
0.0
 10
234.8155550899506
 20
122.8096226703067
 30
0.0
 10
234.0140320934605
 20
123.212149779988
 30
0.0
 10
233.2181719726742
 20
123.5501028811676
 30
0.0
 10
232.3767935277891
 20
123.8460904129675
 30
0.0
 10
231.5078973827155
 20
124.1498294096092
 30
0.0
 10
230.65842296344
 20
124.3946572734532
 30
0.0
 10
229.7701266244151
 20
124.5978533115426
 30
0.0
 10
228.696268829816
 20
124.842336665838
 30
0.0
 10
227.6495626940099
 20
125.0190700642313
 30
0.0
 10
226.5619675811633
 20
125.1404343186226
 30
0.0
 10
225.2510441534854
 20
125.2854190089347
 30
0.0
 10
223.9771555022739
 20
125.355978870842
 30
0.0
 10
222.6627008517237
 20
125.355978870842
 30
0.0
 10
222.6627008517237
 20
125.355978870842
 30
0.0
 10
174.822167077334
 20
125.3556235953701
 30
0.0
 10
174.822167077334
 20
125.3556235953701
 30
0.0
 10
174.822167077334
 20
125.3556235953701
 30
0.0
 10
174.822167077334
 20
86.78748895806659
 30
0.0
 10
174.822167077334
 20
86.78748895806659
 30
0.0
  0
SPLINE
  5
85
330
79
100
AcDbEntity
  8
レイヤー 1
 62
     1
370
    18
100
AcDbSpline
210
0.0
220
0.0
230
1.0
 70
     9
 71
     3
 72
   122
 73
   118
 74
     0
 42
0.0000000001
 43
0.0000000001
 40
0.0
 40
0.0
 40
0.0
 40
0.0
 40
1.0
 40
1.0
 40
1.0
 40
2.0
 40
2.0
 40
2.0
 40
3.0
 40
3.0
 40
3.0
 40
4.0
 40
4.0
 40
4.0
 40
5.0
 40
5.0
 40
5.0
 40
6.0
 40
6.0
 40
6.0
 40
7.0
 40
7.0
 40
7.0
 40
8.0
 40
8.0
 40
8.0
 40
9.0
 40
9.0
 40
9.0
 40
10.0
 40
10.0
 40
10.0
 40
11.0
 40
11.0
 40
11.0
 40
12.0
 40
12.0
 40
12.0
 40
13.0
 40
13.0
 40
13.0
 40
14.0
 40
14.0
 40
14.0
 40
15.0
 40
15.0
 40
15.0
 40
16.0
 40
16.0
 40
16.0
 40
17.0
 40
17.0
 40
17.0
 40
18.0
 40
18.0
 40
18.0
 40
19.0
 40
19.0
 40
19.0
 40
20.0
 40
20.0
 40
20.0
 40
21.0
 40
21.0
 40
21.0
 40
22.0
 40
22.0
 40
22.0
 40
23.0
 40
23.0
 40
23.0
 40
24.0
 40
24.0
 40
24.0
 40
25.0
 40
25.0
 40
25.0
 40
26.0
 40
26.0
 40
26.0
 40
27.0
 40
27.0
 40
27.0
 40
28.0
 40
28.0
 40
28.0
 40
29.0
 40
29.0
 40
29.0
 40
30.0
 40
30.0
 40
30.0
 40
31.0
 40
31.0
 40
31.0
 40
32.0
 40
32.0
 40
32.0
 40
33.0
 40
33.0
 40
33.0
 40
34.0
 40
34.0
 40
34.0
 40
35.0
 40
35.0
 40
35.0
 40
36.0
 40
36.0
 40
36.0
 40
37.0
 40
37.0
 40
37.0
 40
38.0
 40
38.0
 40
38.0
 40
39.0
 40
39.0
 40
39.0
 40
39.0
 10
135.604911855069
 20
36.5999085228867
 30
0.0
 10
127.5725210082816
 20
36.5999085228867
 30
0.0
 10
121.0380146147871
 20
43.13441491638111
 30
0.0
 10
121.0380146147871
 20
51.16610597814815
 30
0.0
 10
121.0380146147871
 20
51.16610597814815
 30
0.0
 10
121.0380146147871
 20
245.8330996428603
 30
0.0
 10
121.0380146147871
 20
245.8330996428603
 30
0.0
 10
121.0380146147871
 20
253.8655120214946
 30
0.0
 10
127.5721657328096
 20
260.4003629245375
 30
0.0
 10
135.6042120700486
 20
260.4003629245375
 30
0.0
 10
135.6042120700486
 20
260.4003629245375
 30
0.0
 10
226.8293715863591
 20
260.4003629245375
 30
0.0
 10
226.8293715863591
 20
260.4003629245375
 30
0.0
 10
228.6116056082659
 20
260.4003629245375
 30
0.0
 10
230.3412588603292
 20
260.3520239285101
 30
0.0
 10
232.117851538379
 20
260.2528913059221
 30
0.0
 10
234.8204858828639
 20
260.1054412191534
 30
0.0
 10
237.4306840091102
 20
259.8412023954347
 30
0.0
 10
240.1033244910267
 20
259.445403987873
 30
0.0
 10
242.872642964998
 20
259.0379353193551
 30
0.0
 10
245.5318691063688
 20
258.501706207076
 30
0.0
 10
248.2376901641776
 20
257.8046341993292
 30
0.0
 10
251.0016902719935
 20
257.0955474210777
 30
0.0
 10
253.6341307959665
 20
256.2502932437716
 30
0.0
 10
256.290902306804
 20
255.2194776108913
 30
0.0
 10
258.9825984731233
 20
254.1777237998453
 30
0.0
 10
261.5187055145899
 20
252.9994365483495
 30
0.0
 10
264.0484821931025
 20
251.6161876473282
 30
0.0
 10
266.9874716197223
 20
250.0121081257023
 30
0.0
 10
269.6954027985158
 20
248.2337713680631
 30
0.0
 10
272.3316975230629
 20
246.1774154047642
 30
0.0
 10
276.2909304457927
 20
243.0923754614166
 30
0.0
 10
279.6948785718406
 20
239.6563233518155
 30
0.0
 10
282.7400630667933
 20
235.6713383403335
 30
0.0
 10
285.1717621832101
 20
232.485055653413
 30
0.0
 10
287.1970476916014
 20
229.1763428856855
 30
0.0
 10
288.9302536983838
 20
225.559315603875
 30
0.0
 10
290.3505373758715
 20
222.5885882350972
 30
0.0
 10
291.4928233795465
 20
219.6055015862662
 30
0.0
 10
292.419920106474
 20
216.4435498862103
 30
0.0
 10
293.3177550536237
 20
213.3701371401254
 30
0.0
 10
293.968275208626
 20
210.3306155208766
 30
0.0
 10
294.4074818193018
 20
207.1566705821627
 30
0.0
 10
294.8487985509623
 20
203.9523872713318
 30
0.0
 10
295.0636433181612
 20
200.819374373352
 30
0.0
 10
295.0636433181612
 20
197.582987078968
 30
0.0
 10
295.0636433181612
 20
197.0898001284077
 30
0.0
 10
295.0587125252479
 20
196.6199106360664
 30
0.0
 10
295.0484848980261
 20
196.1267236855061
 30
0.0
 10
294.9976697396186
 20
193.5295738584101
 30
0.0
 10
294.8018806568226
 20
191.0199079247927
 30
0.0
 10
294.4498134300768
 20
188.4477996355052
 30
0.0
 10
294.0614004459617
 20
185.6026459971649
 30
0.0
 10
293.4965985730017
 20
182.8792118886877
 30
0.0
 10
292.7233253594906
 20
180.1183769623489
 30
0.0
 10
291.8350290204657
 20
176.9409008007626
 30
0.0
 10
290.7241149175534
 20
173.9475865247097
 30
0.0
 10
289.3250185772998
 20
170.9641446004067
 30
0.0
 10
287.5956883029384
 20
167.272326448796
 30
0.0
 10
285.5573329635499
 20
163.9015373667937
 30
0.0
 10
283.092130293539
 20
160.6573878416444
 30
0.0
 10
282.1671436875963
 20
159.4389006322051
 30
0.0
 10
281.2333505563193
 20
158.3050658783925
 30
0.0
 10
280.2356939674845
 20
157.1902868089826
 30
0.0
 10
280.2356939674845
 20
157.1902868089826
 30
0.0
 10
275.7875158680106
 20
152.2196492132471
 30
0.0
 10
275.7875158680106
 20
152.2196492132471
 30
0.0
 10
275.7875158680106
 20
152.2196492132471
 30
0.0
 10
280.7885026017864
 20
147.1484686589594
 30
0.0
 10
280.7885026017864
 20
147.1484686589594
 30
0.0
 10
282.8014503619711
 20
145.0840167212702
 30
0.0
 10
284.6334229499462
 20
142.926428780322
 30
0.0
 10
286.3655523643895
 20
140.577627274019
 30
0.0
 10
290.967532445433
 20
134.3320567325031
 30
0.0
 10
294.257555570153
 20
127.6726656276684
 30
0.0
 10
296.4214846399789
 20
120.220235073976
 30
0.0
 10
298.0678957723798
 20
114.5662735546646
 30
0.0
 10
298.8972809786068
 20
108.9585193785492
 30
0.0
 10
298.9576132132923
 20
103.0720677436004
 30
0.0
 10
298.959723334277
 20
102.8473506246516
 30
0.0
 10
298.9607783947694
 20
102.6254541776314
 30
0.0
 10
298.9607783947694
 20
102.3919090015016
 30
0.0
 10
298.9607783947694
 20
99.99513454056653
 30
0.0
 10
298.8549493678318
 20
97.66856466606681
 30
0.0
 10
298.6379944796482
 20
95.27814209993264
 30
0.0
 10
298.3737556559296
 20
92.33492166541998
 30
0.0
 10
297.945831732968
 20
89.50423742811764
 30
0.0
 10
297.329181172955
 20
86.61780723949464
 30
0.0
 10
296.7238133006563
 20
83.774763722139
 30
0.0
 10
295.9596911220279
 20
81.0636673618684
 30
0.0
 10
294.9934494976492
 20
78.32611912782515
 30
0.0
 10
293.8687765446426
 20
75.13311850470848
 30
0.0
 10
292.534232681044
 20
72.14121456461985
 30
0.0
 10
290.9121525355076
 20
69.17399688686774
 30
0.0
 10
287.9763498222116
 20
63.79661193948162
 30
0.0
 10
284.4009436002323
 20
59.12441650607935
 30
0.0
 10
279.9792281404545
 20
54.8861523808911
 30
0.0
 10
277.4871967893522
 20
52.50172643408594
 30
0.0
 10
274.8798193350344
 20
50.40269435046356
 30
0.0
 10
272.0124448308141
 20
48.47335475133652
 30
0.0
 10
269.3077003653446
 20
46.65655134941984
 30
0.0
 10
266.5553274547913
 20
45.09726883502559
 30
0.0
 10
263.6032681971743
 20
43.70908914109095
 30
0.0
 10
261.0061183700783
 20
42.49059116572826
 30
0.0
 10
258.4149759282348
 20
41.46366203119224
 30
0.0
 10
255.6855344345053
 20
40.57148995974645
 30
0.0
 10
253.0171141945583
 20
39.70188326372904
 30
0.0
 10
250.3783433076311
 20
38.99915914620182
 30
0.0
 10
247.6242047856417
 20
38.42447415556858
 30
0.0
 10
244.9339297212101
 20
37.86603494333297
 30
0.0
 10
242.2937377323953
 20
37.44904919853705
 30
0.0
 10
239.5579443438649
 20
37.15095154575241
 30
0.0
 10
236.1236578457
 20
36.7805391855477
 30
0.0
 10
232.7690822443251
 20
36.5999085228867
 30
0.0
 10
229.3104432274489
 20
36.5999085228867
 30
0.0
 10
229.3104432274489
 20
36.5999085228867
 30
0.0
 10
135.604911855069
 20
36.5999085228867
 30
0.0
 10
135.604911855069
 20
36.5999085228867
 30
0.0
  0
SPLINE
  5
86
330
79
100
AcDbEntity
  8
レイヤー 1
 62
     1
370
    18
100
AcDbSpline
210
0.0
220
0.0
230
1.0
 70
    11
 71
     3
 72
    74
 73
    70
 74
     0
 42
0.0000000001
 43
0.0000000001
 40
0.0
 40
0.0
 40
0.0
 40
0.0
 40
1.0
 40
1.0
 40
1.0
 40
2.0
 40
2.0
 40
2.0
 40
3.0
 40
3.0
 40
3.0
 40
4.0
 40
4.0
 40
4.0
 40
5.0
 40
5.0
 40
5.0
 40
6.0
 40
6.0
 40
6.0
 40
7.0
 40
7.0
 40
7.0
 40
8.0
 40
8.0
 40
8.0
 40
9.0
 40
9.0
 40
9.0
 40
10.0
 40
10.0
 40
10.0
 40
11.0
 40
11.0
 40
11.0
 40
12.0
 40
12.0
 40
12.0
 40
13.0
 40
13.0
 40
13.0
 40
14.0
 40
14.0
 40
14.0
 40
15.0
 40
15.0
 40
15.0
 40
16.0
 40
16.0
 40
16.0
 40
17.0
 40
17.0
 40
17.0
 40
18.0
 40
18.0
 40
18.0
 40
19.0
 40
19.0
 40
19.0
 40
20.0
 40
20.0
 40
20.0
 40
21.0
 40
21.0
 40
21.0
 40
22.0
 40
22.0
 40
22.0
 40
23.0
 40
23.0
 40
23.0
 40
23.0
 10
180.6221468156029
 20
181.3427423659599
 30
0.0
 10
180.6221468156029
 20
181.3427423659599
 30
0.0
 10
221.1347794721686
 20
181.3427423659599
 30
0.0
 10
221.1347794721686
 20
181.3427423659599
 30
0.0
 10
221.8678527277361
 20
181.3427423659599
 30
0.0
 10
222.5794156683678
 20
181.3713151266407
 30
0.0
 10
223.3107233124992
 20
181.4298602180431
 30
0.0
 10
224.114356429974
 20
181.4923025737133
 30
0.0
 10
224.8890507453728
 20
181.5960214796661
 30
0.0
 10
225.6789250127535
 20
181.7466582797586
 30
0.0
 10
226.2758093374198
 20
181.8592052428924
 30
0.0
 10
226.8476736561245
 20
181.9992483743678
 30
0.0
 10
227.4265788887271
 20
182.1745822027202
 30
0.0
 10
228.0206640733117
 20
182.3523921934527
 30
0.0
 10
228.5822792329478
 20
182.5633396963839
 30
0.0
 10
229.1421287811477
 20
182.8201715648093
 30
0.0
 10
229.6751927119497
 20
183.0628785417451
 30
0.0
 10
230.1687241720585
 20
183.3405101741627
 30
0.0
 10
230.6502623935093
 20
183.6685909235924
 30
0.0
 10
231.682133086882
 20
184.3685051351144
 30
0.0
 10
232.5168151274177
 20
185.2726704452183
 30
0.0
 10
233.1302789741068
 20
186.3549902556031
 30
0.0
 10
233.4188703165368
 20
186.8675774001147
 30
0.0
 10
233.6534597872355
 20
187.3889926018073
 30
0.0
 10
233.8474832585954
 20
187.949552700951
 30
0.0
 10
234.0242381888355
 20
188.4631949059549
 30
0.0
 10
234.15792942551
 20
188.9517955731505
 30
0.0
 10
234.2680002262638
 20
189.4883691949782
 30
0.0
 10
234.366422297908
 20
189.972383578809
 30
0.0
 10
234.4387477712514
 20
190.4465148449665
 30
0.0
 10
234.4888308468683
 20
190.9379361840906
 30
0.0
 10
234.5495075911022
 20
191.5362416106446
 30
0.0
 10
234.5791569441221
 20
192.1211542284997
 30
0.0
 10
234.5791569441221
 20
192.7261560594031
 30
0.0
 10
234.5791569441221
 20
193.2246398442719
 30
0.0
 10
234.559046199227
 20
193.7082881867075
 30
0.0
 10
234.5174036075491
 20
194.2050063601401
 30
0.0
 10
234.4592030256951
 20
194.9447760200572
 30
0.0
 10
234.3491322249414
 20
195.6552839001964
 30
0.0
 10
234.1808608423337
 20
196.376363917106
 30
0.0
 10
234.0390520994221
 20
196.9915933752313
 30
0.0
 10
233.855256255284
 20
197.5729747702139
 30
0.0
 10
233.6192456826976
 20
198.1525905537604
 30
0.0
 10
233.4502637491461
 20
198.5688657476125
 30
0.0
 10
233.2601160102071
 20
198.95833379222
 30
0.0
 10
233.0378642877149
 20
199.3428710439143
 30
0.0
 10
232.5224564712748
 20
200.2392633573295
 30
0.0
 10
231.8553567942497
 20
201.0234962808531
 30
0.0
 10
231.0552548996472
 20
201.6733058849115
 30
0.0
 10
230.5888750983315
 20
202.0490150794248
 30
0.0
 10
230.102750593516
 20
202.3700549149566
 30
0.0
 10
229.568287092673
 20
202.6558040536112
 30
0.0
 10
229.0518242157405
 20
202.9302705045517
 30
0.0
 10
228.5544170232108
 20
203.1514456347048
 30
0.0
 10
228.0019528984574
 20
203.3521870422609
 30
0.0
 10
227.4135305895768
 20
203.5645556470798
 30
0.0
 10
226.8300390736093
 20
203.7363582525598
 30
0.0
 10
226.2179532651143
 20
203.8778224859229
 30
0.0
 10
225.4901768438553
 20
204.0443282570944
 30
0.0
 10
224.7761592726905
 20
204.1663922965061
 30
0.0
 10
224.0339134503934
 20
204.2510555180562
 30
0.0
 10
223.0662507241271
 20
204.3600712583175
 30
0.0
 10
222.1225529433301
 20
204.4129965377097
 30
0.0
 10
221.147827771319
 20
204.4129965377097
 30
0.0
 10
221.147827771319
 20
204.4129965377097
 30
0.0
 10
180.6221468156029
 20
204.4129965377097
 30
0.0
 10
180.6221468156029
 20
204.4129965377097
 30
0.0
 10
180.6221468156029
 20
204.4129965377097
 30
0.0
 10
180.6221468156029
 20
181.3427423659599
 30
0.0
 10
180.6221468156029
 20
181.3427423659599
 30
0.0
  0
SPLINE
  5
87
330
79
100
AcDbEntity
  8
レイヤー 1
 62
     1
370
    18
100
AcDbSpline
210
0.0
220
0.0
230
1.0
 70
    11
 71
     3
 72
    83
 73
    79
 74
     0
 42
0.0000000001
 43
0.0000000001
 40
0.0
 40
0.0
 40
0.0
 40
0.0
 40
1.0
 40
1.0
 40
1.0
 40
2.0
 40
2.0
 40
2.0
 40
3.0
 40
3.0
 40
3.0
 40
4.0
 40
4.0
 40
4.0
 40
5.0
 40
5.0
 40
5.0
 40
6.0
 40
6.0
 40
6.0
 40
7.0
 40
7.0
 40
7.0
 40
8.0
 40
8.0
 40
8.0
 40
9.0
 40
9.0
 40
9.0
 40
10.0
 40
10.0
 40
10.0
 40
11.0
 40
11.0
 40
11.0
 40
12.0
 40
12.0
 40
12.0
 40
13.0
 40
13.0
 40
13.0
 40
14.0
 40
14.0
 40
14.0
 40
15.0
 40
15.0
 40
15.0
 40
16.0
 40
16.0
 40
16.0
 40
17.0
 40
17.0
 40
17.0
 40
18.0
 40
18.0
 40
18.0
 40
19.0
 40
19.0
 40
19.0
 40
20.0
 40
20.0
 40
20.0
 40
21.0
 40
21.0
 40
21.0
 40
22.0
 40
22.0
 40
22.0
 40
23.0
 40
23.0
 40
23.0
 40
24.0
 40
24.0
 40
24.0
 40
25.0
 40
25.0
 40
25.0
 40
26.0
 40
26.0
 40
26.0
 40
26.0
 10
180.6221468156029
 20
92.58738256894842
 30
0.0
 10
180.6221468156029
 20
92.58738256894842
 30
0.0
 10
222.6203261772551
 20
92.58738256894842
 30
0.0
 10
222.6203261772551
 20
92.58738256894842
 30
0.0
 10
223.1463276623124
 20
92.58738256894842
 30
0.0
 10
223.6571491953878
 20
92.59902053213453
 30
0.0
 10
224.182074088106
 20
92.62265173397867
 30
0.0
 10
225.0668392042585
 20
92.66110761233276
 30
0.0
 10
225.9223425406331
 20
92.73625375760479
 30
0.0
 10
226.7965139881685
 20
92.85231041176414
 30
0.0
 10
227.6371818821098
 20
92.96238121251787
 30
0.0
 10
228.4450567734009
 20
93.11301801261043
 30
0.0
 10
229.2649033715032
 20
93.31303810329934
 30
0.0
 10
229.8893269282047
 20
93.4636749033919
 30
0.0
 10
230.4858667433226
 20
93.64182940367289
 30
0.0
 10
231.0869928418051
 20
93.85702944634369
 30
0.0
 10
231.6567255076783
 20
94.05917042394072
 30
0.0
 10
232.1940096804498
 20
94.28882910172619
 30
0.0
 10
232.7295282417851
 20
94.55976432979431
 30
0.0
 10
233.2227151923454
 20
94.80741286556682
 30
0.0
 10
233.6813219969725
 20
95.08222382605584
 30
0.0
 10
234.130067215773
 20
95.39936639731987
 30
0.0
 10
234.6172467810809
 20
95.74156127231569
 30
0.0
 10
235.0349430768207
 20
96.10033566933431
 30
0.0
 10
235.4438113153795
 20
96.52790431682397
 30
0.0
 10
235.9465153422178
 20
97.05566064739407
 30
0.0
 10
236.3486871764271
 20
97.59612076756603
 30
0.0
 10
236.7102714794509
 20
98.22935084960175
 30
0.0
 10
237.0059037357789
 20
98.75005550035048
 30
0.0
 10
237.2404932064776
 20
99.25347007813259
 30
0.0
 10
237.4493521202709
 20
99.81403017727631
 30
0.0
 10
237.6557133398374
 20
100.371069819471
 30
0.0
 10
237.8229296619527
 20
100.9242229633214
 30
0.0
 10
237.9605181628948
 20
101.5059488678527
 30
0.0
 10
238.1217486316046
 20
102.1949249012091
 30
0.0
 10
238.2395708972001
 20
102.8726182468513
 30
0.0
 10
238.3207028958777
 20
103.5781738022304
 30
0.0
 10
238.4254768623229
 20
104.4915116790637
 30
0.0
 10
238.4762920207303
 20
105.3819181390733
 30
0.0
 10
238.4762920207303
 20
106.3009081256871
 30
0.0
 10
238.4762920207303
 20
106.3009081256871
 30
0.0
 10
238.4766365302788
 20
106.4056820921323
 30
0.0
 10
238.4766365302788
 20
106.4056820921323
 30
0.0
 10
238.4766365302788
 20
107.132403452899
 30
0.0
 10
238.4307736966315
 20
107.8372592232577
 30
0.0
 10
238.3365933988034
 20
108.5615044216443
 30
0.0
 10
238.2353291233839
 20
109.3563202478616
 30
0.0
 10
238.0751752470133
 20
110.1126694298015
 30
0.0
 10
237.8465716297202
 20
110.8729051100856
 30
0.0
 10
237.6292722319881
 20
111.6038682446685
 30
0.0
 10
237.3537507205552
 20
112.2882579946601
 30
0.0
 10
237.004504165738
 20
112.9638196874708
 30
0.0
 10
236.6185458121561
 20
113.7138277405331
 30
0.0
 10
236.1839254848451
 20
114.3594171026222
 30
0.0
 10
235.6360691753032
 20
114.9954678565864
 30
0.0
 10
235.0927991491261
 20
115.6244776966527
 30
0.0
 10
234.5251766042376
 20
116.1448163060061
 30
0.0
 10
233.8499594209755
 20
116.6330616977297
 30
0.0
 10
233.3172615315687
 20
117.0165331230082
 30
0.0
 10
232.7951573107791
 20
117.3333311847237
 30
0.0
 10
232.2063689605031
 20
117.6296632260722
 30
0.0
 10
231.6334495813061
 20
117.917533251635
 30
0.0
 10
231.0601856925605
 20
118.1609400135913
 30
0.0
 10
230.4534182502209
 20
118.374019169354
 30
0.0
 10
229.7990008309509
 20
118.602978062119
 30
0.0
 10
229.1523564083695
 20
118.7895945781856
 30
0.0
 10
228.4760841646149
 20
118.9441071106991
 30
0.0
 10
227.6244780925079
 20
119.1377860725105
 30
0.0
 10
226.7883964819314
 20
119.2792503058735
 30
0.0
 10
225.9188113177608
 20
119.3762620415535
 30
0.0
 10
224.8266083897026
 20
119.4972710204729
 30
0.0
 10
223.7619231618329
 20
119.5558268777987
 30
0.0
 10
222.6626577880301
 20
119.5558268777987
 30
0.0
 10
222.6626577880301
 20
119.5558268777987
 30
0.0
 10
180.6221468156029
 20
119.5558268777987
 30
0.0
 10
180.6221468156029
 20
119.5558268777987
 30
0.0
 10
180.6221468156029
 20
119.5558268777987
 30
0.0
 10
180.6221468156029
 20
92.58738256894842
 30
0.0
 10
180.6221468156029
 20
92.58738256894842
 30
0.0
  0
SPLINE
  5
88
330
79
100
AcDbEntity
  8
レイヤー 1
 62
     1
370
    18
100
AcDbSpline
210
0.0
220
0.0
230
1.0
 70
     9
 71
     3
 72
   122
 73
   118
 74
     0
 42
0.0000000001
 43
0.0000000001
 40
0.0
 40
0.0
 40
0.0
 40
0.0
 40
1.0
 40
1.0
 40
1.0
 40
2.0
 40
2.0
 40
2.0
 40
3.0
 40
3.0
 40
3.0
 40
4.0
 40
4.0
 40
4.0
 40
5.0
 40
5.0
 40
5.0
 40
6.0
 40
6.0
 40
6.0
 40
7.0
 40
7.0
 40
7.0
 40
8.0
 40
8.0
 40
8.0
 40
9.0
 40
9.0
 40
9.0
 40
10.0
 40
10.0
 40
10.0
 40
11.0
 40
11.0
 40
11.0
 40
12.0
 40
12.0
 40
12.0
 40
13.0
 40
13.0
 40
13.0
 40
14.0
 40
14.0
 40
14.0
 40
15.0
 40
15.0
 40
15.0
 40
16.0
 40
16.0
 40
16.0
 40
17.0
 40
17.0
 40
17.0
 40
18.0
 40
18.0
 40
18.0
 40
19.0
 40
19.0
 40
19.0
 40
20.0
 40
20.0
 40
20.0
 40
21.0
 40
21.0
 40
21.0
 40
22.0
 40
22.0
 40
22.0
 40
23.0
 40
23.0
 40
23.0
 40
24.0
 40
24.0
 40
24.0
 40
25.0
 40
25.0
 40
25.0
 40
26.0
 40
26.0
 40
26.0
 40
27.0
 40
27.0
 40
27.0
 40
28.0
 40
28.0
 40
28.0
 40
29.0
 40
29.0
 40
29.0
 40
30.0
 40
30.0
 40
30.0
 40
31.0
 40
31.0
 40
31.0
 40
32.0
 40
32.0
 40
32.0
 40
33.0
 40
33.0
 40
33.0
 40
34.0
 40
34.0
 40
34.0
 40
35.0
 40
35.0
 40
35.0
 40
36.0
 40
36.0
 40
36.0
 40
37.0
 40
37.0
 40
37.0
 40
38.0
 40
38.0
 40
38.0
 40
39.0
 40
39.0
 40
39.0
 40
39.0
 10
135.6048795572989
 20
30.80012257123878
 30
0.0
 10
124.374546528558
 20
30.80012257123878
 30
0.0
 10
115.2379595150544
 20
39.93635430927047
 30
0.0
 10
115.2379595150544
 20
51.16633206253936
 30
0.0
 10
115.2379595150544
 20
51.16633206253936
 30
0.0
 10
115.2379595150544
 20
245.8329919836264
 30
0.0
 10
115.2379595150544
 20
245.8329919836264
 30
0.0
 10
115.2379595150544
 20
257.0636587559923
 30
0.0
 10
124.3742020190095
 20
266.2002457694959
 30
0.0
 10
135.604169006355
 20
266.2002457694959
 30
0.0
 10
135.604169006355
 20
266.2002457694959
 30
0.0
 10
226.8293285226655
 20
266.2002457694959
 30
0.0
 10
226.8293285226655
 20
266.2002457694959
 30
0.0
 10
228.7202122434385
 20
266.2002457694959
 30
0.0
 10
230.5553715447375
 20
266.1491076333868
 30
0.0
 10
232.4406139216533
 20
266.0439676255463
 30
0.0
 10
235.3178715435468
 20
265.8869789306528
 30
0.0
 10
238.1019823962579
 20
265.6051270562658
 30
0.0
 10
240.9531434198507
 20
265.1828444771613
 30
0.0
 10
243.9217606676437
 20
264.7461140288656
 30
0.0
 10
246.7774864427544
 20
264.1700079363447
 30
0.0
 10
249.6840273762726
 20
263.421776260642
 30
0.0
 10
252.6681906174428
 20
262.6558884705773
 30
0.0
 10
255.5154543767678
 20
261.7418400428002
 30
0.0
 10
258.3884702248452
 20
260.6270717393138
 30
0.0
 10
261.3151219032584
 20
259.4939583023683
 30
0.0
 10
264.0766673805412
 20
258.2112415939759
 30
0.0
 10
266.8311504120791
 20
256.7048951248971
 30
0.0
 10
270.0456613501318
 20
254.9508678222757
 30
0.0
 10
273.0118239673916
 20
253.0028385801412
 30
0.0
 10
275.899309216507
 20
250.7503490244978
 30
0.0
 10
280.2529409767576
 20
247.3583941371079
 30
0.0
 10
283.997673641837
 20
243.5780262656029
 30
0.0
 10
287.3483519789441
 20
239.193001072743
 30
0.0
 10
290.0262892951693
 20
235.6846234897985
 30
0.0
 10
292.2544263321013
 20
232.0446647911642
 30
0.0
 10
294.1608560462515
 20
228.0649766139907
 30
0.0
 10
295.7187066928347
 20
224.8070790046706
 30
0.0
 10
296.970008436771
 20
221.5392982776773
 30
0.0
 10
297.9856656495162
 20
218.0753624264925
 30
0.0
 10
298.9653216144406
 20
214.7211528665128
 30
0.0
 10
299.6744083926921
 20
211.4096194268568
 30
0.0
 10
300.1527814326658
 20
207.9517124927712
 30
0.0
 10
300.6311544726395
 20
204.4789485844054
 30
0.0
 10
300.8636338223535
 20
201.0869936970156
 30
0.0
 10
300.8636338223535
 20
197.5828578878873
 30
0.0
 10
300.8636338223535
 20
197.0494494475367
 30
0.0
 10
300.858336988045
 20
196.5411040768413
 30
0.0
 10
300.8473988098793
 20
196.0073511269422
 30
0.0
 10
300.7923634095025
 20
193.1886601282979
 30
0.0
 10
300.5792842537397
 20
190.4585080836245
 30
0.0
 10
300.1961681039332
 20
187.6609828903677
 30
0.0
 10
299.7717754038439
 20
184.551956469704
 30
0.0
 10
299.1544142928871
 20
181.5730900628424
 30
0.0
 10
298.3081050550888
 20
178.5533239130168
 30
0.0
 10
297.3337243926262
 20
175.0668226864037
 30
0.0
 10
296.1131270622022
 20
171.7789312145151
 30
0.0
 10
294.5764206891597
 20
168.5019779207922
 30
0.0
 10
292.6721226278411
 20
164.4365714615764
 30
0.0
 10
290.4263510083938
 20
160.7228769536344
 30
0.0
 10
287.7106683647586
 20
157.1485365580707
 30
0.0
 10
286.6914799291409
 20
155.8062089318601
 30
0.0
 10
285.6606642962606
 20
154.5549071879238
 30
0.0
 10
284.5582337409807
 20
153.3230056379388
 30
0.0
 10
284.5582337409807
 20
153.3230056379388
 30
0.0
 10
283.7433179357916
 20
152.412488433034
 30
0.0
 10
283.7433179357916
 20
152.412488433034
 30
0.0
 10
283.7433179357916
 20
152.412488433034
 30
0.0
 10
284.918073964415
 20
151.2211636483112
 30
0.0
 10
284.918073964415
 20
151.2211636483112
 30
0.0
 10
287.1416247179824
 20
148.9408011170074
 30
0.0
 10
289.1425792395091
 20
146.5846034213345
 30
0.0
 10
291.0338290016773
 20
144.0195575777917
 30
0.0
 10
296.0492636046444
 20
137.2130608957369
 30
0.0
 10
299.6334978838048
 20
129.9571299757843
 30
0.0
 10
301.9914504249904
 20
121.8379442546154
 30
0.0
 10
303.7867327460477
 20
115.6731612022286
 30
0.0
 10
304.6912640975468
 20
109.5545747271144
 30
0.0
 10
304.7575821856379
 20
103.1319047458099
 30
0.0
 10
304.759347797074
 20
102.8786148661803
 30
0.0
 10
304.7607688989617
 20
102.6411939576296
 30
0.0
 10
304.7607688989617
 20
102.3921350858928
 30
0.0
 10
304.7607688989617
 20
99.81826118516913
 30
0.0
 10
304.6471668753357
 20
97.31988870518934
 30
0.0
 10
304.4143430160731
 20
94.75343252568229
 30
0.0
 10
304.1292828965155
 20
91.58090868885608
 30
0.0
 10
303.6671448690159
 20
88.52338644569684
 30
0.0
 10
303.0011002524832
 20
85.40623175287263
 30
0.0
 10
302.3438836931315
 20
82.31908168854024
 30
0.0
 10
301.513443426412
 20
79.37161948021135
 30
0.0
 10
300.4625170486365
 20
76.39488472618123
 30
0.0
 10
299.2344912310725
 20
72.90802822409613
 30
0.0
 10
297.7750626561335
 20
69.63601648920992
 30
0.0
 10
296.0009461404638
 20
66.39151168858875
 30
0.0
 10
292.7779516547786
 20
60.4877807465968
 30
0.0
 10
288.8497676551097
 20
55.35485762165933
 30
0.0
 10
283.9923768075284
 20
50.69889720073131
 30
0.0
 10
281.2548178075617
 20
48.07952650775551
 30
0.0
 10
278.3952163000301
 20
45.77765366151566
 30
0.0
 10
275.2505546729409
 20
43.66133150492668
 30
0.0
 10
272.2946196829029
 20
41.67590144493042
 30
0.0
 10
269.2917667987252
 20
39.97481018762457
 30
0.0
 10
266.0705594563231
 20
38.46033544638535
 30
0.0
 10
263.2532680277197
 20
37.13811856506985
 30
0.0
 10
260.4458812486364
 20
36.02546038256807
 30
0.0
 10
257.4874700962184
 20
35.05849744132218
 30
0.0
 10
254.6105785157202
 20
34.12116232124944
 30
0.0
 10
251.7717767721808
 20
33.36481313930963
 30
0.0
 10
248.8088008682449
 20
32.74674147740902
 30
0.0
 10
245.9290670839713
 20
32.14879132632695
 30
0.0
 10
243.1086104738908
 20
31.70323282085024
 30
0.0
 10
240.1862005692937
 20
31.38502442317046
 30
0.0
 10
236.53706930393
 20
30.99132537067014
 30
0.0
 10
232.9792976644657
 20
30.80012257123878
 30
0.0
 10
229.3104216956021
 20
30.80012257123878
 30
0.0
 10
229.3104216956021
 20
30.80012257123878
 30
0.0
 10
135.6048795572989
 20
30.80012257123878
 30
0.0
 10
135.6048795572989
 20
30.80012257123878
 30
0.0
  0
LINE
  5
89
330
79
100
AcDbEntity
  8
レイヤー 1
 62
    29
370
    25
100
AcDbLine
 10
0.0000352777768778
 20
148.4999365541293
 30
0.0
 11
2.64586849014045
 21
148.4999365541293
 31
0.0
  0
LWPOLYLINE
  5
8A
330
79
100
AcDbEntity
  8
レイヤー 1
100
AcDbPolyline
 90
        4
 70
     1
 43
0.0
 10
0.0
 20
297.0000884267266
 10
419.9999449633593
 20
297.0000884267266
 10
419.9999449633593
 20
0.0
 10
0.0
 20
0.0
  0
ENDBLK
  5
7C
330
79
100
AcDbEntity
  8
0
100
AcDbBlockEnd
  0
BLOCK
  5
91
330
8F
100
AcDbEntity
  8
0
100
AcDbBlockBegin
  2
Block_1
 70
     0
 10
0.0
 20
0.0
 30
0.0
  3
Block_1
  1

  0
LINE
  5
93
330
8F
100
AcDbEntity
  8
レイヤー 1
 62
    29
370
    25
100
AcDbLine
 10
417.3541546943811
 20
148.4999365541293
 30
0.0
 11
419.9999880270529
 21
148.4999365541293
 31
0.0
  0
LINE
  5
94
330
8F
100
AcDbEntity
  8
レイヤー 1
  6
AI-Linetype-2
 62
    29
370
    25
100
AcDbLine
 10
209.9999940135265
 20
297.0001099585733
 30
0.0
 11
209.9999940135265
 21
0.0000215318467828
 31
0.0
  0
LINE
  5
96
330
8F
100
AcDbEntity
  8
レイヤー 1
 62
    29
370
    25
100
AcDbLine
 10
0.0000352777768778
 20
248.5000126535326
 30
0.0
 11
0.3528130192669349
 21
248.5000126535326
 31
0.0
  0
LWPOLYLINE
  5
97
330
8F
100
AcDbEntity
  8
レイヤー 1
100
AcDbPolyline
 90
        4
 70
     1
 43
0.0
 10
0.0
 20
297.0000884267266
 10
419.9999449633593
 20
297.0000884267266
 10
419.9999449633593
 20
0.0
 10
0.0
 20
0.0
  0
ENDBLK
  5
92
330
8F
100
AcDbEntity
  8
0
100
AcDbBlockEnd
  0
BLOCK
  5
9E
330
9C
100
AcDbEntity
  8
0
100
AcDbBlockBegin
  2
Block_2
 70
     0
 10
0.0
 20
0.0
 30
0.0
  3
Block_2
  1

  0
LINE
  5
A0
330
9C
100
AcDbEntity
  8
レイヤー 1
 62
    29
370
    25
100
AcDbLine
 10
419.6472102493634
 20
248.5000126535326
 30
0.0
 11
419.9999880270529
 21
248.5000126535326
 31
0.0
  0
LINE
  5
A1
330
9C
100
AcDbEntity
  8
レイヤー 1
 62
    29
370
    25
100
AcDbLine
 10
0.0000352777768778
 20
48.49999502876856
 30
0.0
 11
0.3528130192669349
 21
48.49999502876856
 31
0.0
  0
LWPOLYLINE
  5
A2
330
9C
100
AcDbEntity
  8
レイヤー 1
100
AcDbPolyline
 90
        4
 70
     1
 43
0.0
 10
0.0
 20
297.0000884267266
 10
419.9999449633593
 20
297.0000884267266
 10
419.9999449633593
 20
0.0
 10
0.0
 20
0.0
  0
ENDBLK
  5
9F
330
9C
100
AcDbEntity
  8
0
100
AcDbBlockEnd
  0
BLOCK
  5
A9
330
A7
100
AcDbEntity
  8
0
100
AcDbBlockBegin
  2
Block_3
 70
     0
 10
0.0
 20
0.0
 30
0.0
  3
Block_3
  1

  0
LINE
  5
AB
330
A7
100
AcDbEntity
  8
レイヤー 1
 62
    29
370
    25
100
AcDbLine
 10
419.6472102493634
 20
48.49999502876856
 30
0.0
 11
419.9999880270529
 21
48.49999502876856
 31
0.0
  0
LINE
  5
AC
330
A7
100
AcDbEntity
  8
レイヤー 1
 62
    29
370
    18
100
AcDbLine
 10
0.0
 20
267.5056139807039
 30
0.0
 11
419.9999449633593
 21
267.5056139807039
 31
0.0
  0
LWPOLYLINE
  5
AD
330
A7
100
AcDbEntity
  8
レイヤー 1
100
AcDbPolyline
 90
        4
 70
     1
 43
0.0
 10
0.0
 20
297.0000884267266
 10
419.9999449633593
 20
297.0000884267266
 10
419.9999449633593
 20
0.0
 10
0.0
 20
0.0
  0
ENDBLK
  5
AA
330
A7
100
AcDbEntity
  8
0
100
AcDbBlockEnd
  0
BLOCK
  5
B2
330
B0
100
AcDbEntity
  8
0
100
AcDbBlockBegin
  2
Block_4
 70
     0
 10
0.0
 20
0.0
 30
0.0
  3
Block_4
  1

  0
SPLINE
  5
B4
330
B0
100
AcDbEntity
  8
レイヤー 1
  6
AI-Linetype-7
 62
   255
370
    18
100
AcDbSpline
210
0.0
220
0.0
230
1.0
 70
     9
 71
     3
 72
   146
 73
   142
 74
     0
 42
0.0000000001
 43
0.0000000001
 40
0.0
 40
0.0
 40
0.0
 40
0.0
 40
1.0
 40
1.0
 40
1.0
 40
2.0
 40
2.0
 40
2.0
 40
3.0
 40
3.0
 40
3.0
 40
4.0
 40
4.0
 40
4.0
 40
5.0
 40
5.0
 40
5.0
 40
6.0
 40
6.0
 40
6.0
 40
7.0
 40
7.0
 40
7.0
 40
8.0
 40
8.0
 40
8.0
 40
9.0
 40
9.0
 40
9.0
 40
10.0
 40
10.0
 40
10.0
 40
11.0
 40
11.0
 40
11.0
 40
12.0
 40
12.0
 40
12.0
 40
13.0
 40
13.0
 40
13.0
 40
14.0
 40
14.0
 40
14.0
 40
15.0
 40
15.0
 40
15.0
 40
16.0
 40
16.0
 40
16.0
 40
17.0
 40
17.0
 40
17.0
 40
18.0
 40
18.0
 40
18.0
 40
19.0
 40
19.0
 40
19.0
 40
20.0
 40
20.0
 40
20.0
 40
21.0
 40
21.0
 40
21.0
 40
22.0
 40
22.0
 40
22.0
 40
23.0
 40
23.0
 40
23.0
 40
24.0
 40
24.0
 40
24.0
 40
25.0
 40
25.0
 40
25.0
 40
26.0
 40
26.0
 40
26.0
 40
27.0
 40
27.0
 40
27.0
 40
28.0
 40
28.0
 40
28.0
 40
29.0
 40
29.0
 40
29.0
 40
30.0
 40
30.0
 40
30.0
 40
31.0
 40
31.0
 40
31.0
 40
32.0
 40
32.0
 40
32.0
 40
33.0
 40
33.0
 40
33.0
 40
34.0
 40
34.0
 40
34.0
 40
35.0
 40
35.0
 40
35.0
 40
36.0
 40
36.0
 40
36.0
 40
37.0
 40
37.0
 40
37.0
 40
38.0
 40
38.0
 40
38.0
 40
39.0
 40
39.0
 40
39.0
 40
40.0
 40
40.0
 40
40.0
 40
41.0
 40
41.0
 40
41.0
 40
42.0
 40
42.0
 40
42.0
 40
43.0
 40
43.0
 40
43.0
 40
44.0
 40
44.0
 40
44.0
 40
45.0
 40
45.0
 40
45.0
 40
46.0
 40
46.0
 40
46.0
 40
47.0
 40
47.0
 40
47.0
 40
47.0
 10
135.6049226209924
 20
40.80005589630768
 30
0.0
 10
135.6049226209924
 20
40.80005589630768
 30
0.0
 10
135.6052671305409
 20
40.80005589630768
 30
0.0
 10
135.6052671305409
 20
40.80005589630768
 30
0.0
 10
135.6052671305409
 20
40.80005589630768
 30
0.0
 10
229.1901663313201
 20
40.80005589630768
 30
0.0
 10
229.1901663313201
 20
40.80005589630768
 30
0.0
 10
229.2310768402074
 20
40.80005589630768
 30
0.0
 10
229.2702432695054
 20
40.80005589630768
 30
0.0
 10
229.3111537783927
 20
40.80005589630768
 30
0.0
 10
232.6346804567068
 20
40.80005589630768
 30
0.0
 10
235.8036946025074
 20
40.97044547434262
 30
0.0
 10
239.108144064572
 20
41.32675178342373
 30
0.0
 10
241.7204738436498
 20
41.61144317010522
 30
0.0
 10
244.1980357937139
 20
42.00267413466806
 30
0.0
 10
246.7708331020986
 20
42.53677966855824
 30
0.0
 10
249.3838734321202
 20
43.08217327312432
 30
0.0
 10
251.8469659811464
 20
43.73798757095434
 30
0.0
 10
254.3848386340492
 20
44.56489930628228
 30
0.0
 10
256.9604781462091
 20
45.40662764367764
 30
0.0
 10
259.3664251738736
 20
46.36053690281145
 30
0.0
 10
261.819290095678
 20
47.51129568819542
 30
0.0
 10
264.5871659359149
 20
48.81269665663364
 30
0.0
 10
267.1324670759578
 20
50.25485130749109
 30
0.0
 10
269.6714163211998
 20
51.95982368017953
 30
0.0
 10
272.3447673540601
 20
53.75864260707087
 30
0.0
 10
274.7478721779493
 20
55.69327365754478
 30
0.0
 10
277.0758523884134
 20
57.92071090945646
 30
0.0
 10
281.17230777069
 20
61.84747919019948
 30
0.0
 10
284.5074831781136
 20
66.20605250928671
 30
0.0
 10
287.226331003226
 20
71.18656783973374
 30
0.0
 10
288.7461133446972
 20
73.96575328249326
 30
0.0
 10
289.9804695252154
 20
76.73400054708712
 30
0.0
 10
291.0324509634832
 20
79.72132358677268
 30
0.0
 10
291.9433342097833
 20
82.30083344839181
 30
0.0
 10
292.6524209880348
 20
84.81684589384842
 30
0.0
 10
293.2217876125127
 20
87.49231243065514
 30
0.0
 10
293.8063557208193
 20
90.22739526824176
 30
0.0
 10
294.2053408417048
 20
92.86899759302082
 30
0.0
 10
294.4554547739339
 20
95.65417427214766
 30
0.0
 10
294.6621820348957
 20
97.92959524461483
 30
0.0
 10
294.7613146574838
 20
100.1072939304582
 30
0.0
 10
294.7613146574838
 20
102.3918767037314
 30
0.0
 10
294.7613146574838
 20
102.6098974183308
 30
0.0
 10
294.7602595969914
 20
102.817324464313
 30
0.0
 10
294.7584939855552
 20
103.0353451789124
 30
0.0
 10
294.7016929737421
 20
108.5295080973251
 30
0.0
 10
293.9262881073995
 20
113.7707256456567
 30
0.0
 10
292.389581734357
 20
119.0461680644496
 30
0.0
 10
290.3759449550753
 20
125.9814251902657
 30
0.0
 10
287.268662614001
 20
132.272503289957
 30
0.0
 10
282.9848801647139
 20
138.0859296665419
 30
0.0
 10
281.3614004491367
 20
140.2876148297013
 30
0.0
 10
279.6691264830883
 20
142.2808071204627
 30
0.0
 10
277.759553119308
 20
144.2390855216659
 30
0.0
 10
276.0143538738675
 20
146.0269608874299
 30
0.0
 10
274.2384717467615
 20
147.6222231177982
 30
0.0
 10
272.2742074921528
 20
149.1666809556825
 30
0.0
 10
271.318882514093
 20
149.9159784578009
 30
0.0
 10
270.3847233414208
 20
150.6003682077926
 30
0.0
 10
269.3814254087289
 20
151.2847579577843
 30
0.0
 10
269.1097796297169
 20
151.4699641378866
 30
0.0
 10
268.9450394699816
 20
151.7818206407655
 30
0.0
 10
268.9450394699816
 20
152.110611941139
 30
0.0
 10
268.9450394699816
 20
152.4263441764388
 30
0.0
 10
269.0960207796227
 20
152.7262074406596
 30
0.0
 10
269.3493214251757
 20
152.9138897831419
 30
0.0
 10
273.3374716181348
 20
155.8722794037131
 30
0.0
 10
276.7453170084504
 20
159.2420134252231
 30
0.0
 10
279.7481483607813
 20
163.1970045741367
 30
0.0
 10
282.0376726928912
 20
166.2104295950848
 30
0.0
 10
283.9169292164014
 20
169.318756230728
 30
0.0
 10
285.5220637985197
 20
172.7459910490715
 30
0.0
 10
286.8273458823405
 20
175.5294128826856
 30
0.0
 10
287.8514651108714
 20
178.2877824125678
 30
0.0
 10
288.678718664267
 20
181.2489927050675
 30
0.0
 10
289.4043849645413
 20
183.836969965434
 30
0.0
 10
289.9258001662338
 20
186.352621752457
 30
0.0
 10
290.2888055711453
 20
189.0161111994908
 30
0.0
 10
290.6207620529959
 20
191.4382717077828
 30
0.0
 10
290.8024477761492
 20
193.7659074086983
 30
0.0
 10
290.8500762212328
 20
196.2106548242655
 30
0.0
 10
290.8595932975108
 20
196.675269014145
 30
0.0
 10
290.8641795808756
 20
197.1179853158463
 30
0.0
 10
290.8641795808756
 20
197.5829655471212
 30
0.0
 10
290.8641795808756
 20
200.6397772393366
 30
0.0
 10
290.6645147656585
 20
203.5551246981889
 30
0.0
 10
290.2475290208626
 20
206.5833851615703
 30
0.0
 10
289.8351295594314
 20
209.5636511384728
 30
0.0
 10
289.2325823590612
 20
212.377389812357
 30
0.0
 10
288.3890937931914
 20
215.2652411028677
 30
0.0
 10
287.5226738104978
 20
218.2190444400742
 30
0.0
 10
286.4696373117376
 20
220.9699962487397
 30
0.0
 10
285.1417683206416
 20
223.7470877193996
 30
0.0
 10
283.5309923946663
 20
227.109048744221
 30
0.0
 10
281.6637291098142
 20
230.1595300734823
 30
0.0
 10
279.4020885192879
 20
233.1228504869667
 30
0.0
 10
276.5763350748989
 20
236.8206652579064
 30
0.0
 10
273.4221348396848
 20
240.0041272728983
 30
0.0
 10
269.7507827084412
 20
242.8644608632205
 30
0.0
 10
267.2848694874865
 20
244.7881591184905
 30
0.0
 10
264.7826105091624
 20
246.4314050694143
 30
0.0
 10
262.0369555348054
 20
247.9296340322559
 30
0.0
 10
259.6563945544978
 20
249.2313848932043
 30
0.0
 10
257.3051384176616
 20
250.3235878212624
 30
0.0
 10
254.7750172296005
 20
251.3028992766383
 30
0.0
 10
252.2604205030699
 20
252.2786795091417
 30
0.0
 10
249.8071895398703
 20
253.0660776141424
 30
0.0
 10
247.1945152512439
 20
253.7367085140398
 30
0.0
 10
244.6167871499461
 20
254.4002985000393
 30
0.0
 10
242.1258108593362
 20
254.902658017329
 30
0.0
 10
239.4926813162661
 20
255.289994409105
 30
0.0
 10
236.9318772465396
 20
255.6695793360392
 30
0.0
 10
234.4740599999752
 20
255.9182936982275
 30
0.0
 10
231.8892694529326
 20
256.0594134220421
 30
0.0
 10
230.1779398024816
 20
256.1550148217577
 30
0.0
 10
228.5442324596825
 20
256.2001671044612
 30
0.0
 10
226.8300821373029
 20
256.2001671044612
 30
0.0
 10
226.8300821373029
 20
256.2001671044612
 30
0.0
 10
226.790915708005
 20
256.2001671044612
 30
0.0
 10
226.790915708005
 20
256.2001671044612
 30
0.0
 10
226.790915708005
 20
256.2001671044612
 30
0.0
 10
135.6052671305409
 20
256.2001671044612
 30
0.0
 10
135.6052671305409
 20
256.2001671044612
 30
0.0
 10
135.6052671305409
 20
256.2001671044612
 30
0.0
 10
135.6049226209924
 20
256.2001671044612
 30
0.0
 10
135.6049226209924
 20
256.2001671044612
 30
0.0
 10
129.8800351983785
 20
256.2001671044612
 30
0.0
 10
125.2388994539604
 20
251.5590205941198
 30
0.0
 10
125.2388994539604
 20
245.8341331715059
 30
0.0
 10
125.2388994539604
 20
245.8341331715059
 30
0.0
 10
125.2388994539604
 20
245.8334441524089
 30
0.0
 10
125.2388994539604
 20
245.8334441524089
 30
0.0
 10
125.2388994539604
 20
245.8334441524089
 30
0.0
 10
125.2388994539604
 20
51.16713412383202
 30
0.0
 10
125.2388994539604
 20
51.16713412383202
 30
0.0
 10
125.2388994539604
 20
51.16713412383202
 30
0.0
 10
125.2388994539604
 20
51.16607368037797
 30
0.0
 10
125.2388994539604
 20
51.16607368037797
 30
0.0
 10
125.2388994539604
 20
45.44119702368744
 30
0.0
 10
129.87969068883
 20
40.80005589630768
 30
0.0
 10
135.6049226209924
 20
40.80005589630768
 30
0.0
  0
SPLINE
  5
B6
330
B0
100
AcDbEntity
  8
レイヤー 1
  6
AI-Linetype-8
 62
   255
370
    18
100
AcDbSpline
210
0.0
220
0.0
230
1.0
 70
     9
 71
     3
 72
    86
 73
    82
 74
     0
 42
0.0000000001
 43
0.0000000001
 40
0.0
 40
0.0
 40
0.0
 40
0.0
 40
1.0
 40
1.0
 40
1.0
 40
2.0
 40
2.0
 40
2.0
 40
3.0
 40
3.0
 40
3.0
 40
4.0
 40
4.0
 40
4.0
 40
5.0
 40
5.0
 40
5.0
 40
6.0
 40
6.0
 40
6.0
 40
7.0
 40
7.0
 40
7.0
 40
8.0
 40
8.0
 40
8.0
 40
9.0
 40
9.0
 40
9.0
 40
10.0
 40
10.0
 40
10.0
 40
11.0
 40
11.0
 40
11.0
 40
12.0
 40
12.0
 40
12.0
 40
13.0
 40
13.0
 40
13.0
 40
14.0
 40
14.0
 40
14.0
 40
15.0
 40
15.0
 40
15.0
 40
16.0
 40
16.0
 40
16.0
 40
17.0
 40
17.0
 40
17.0
 40
18.0
 40
18.0
 40
18.0
 40
19.0
 40
19.0
 40
19.0
 40
20.0
 40
20.0
 40
20.0
 40
21.0
 40
21.0
 40
21.0
 40
22.0
 40
22.0
 40
22.0
 40
23.0
 40
23.0
 40
23.0
 40
24.0
 40
24.0
 40
24.0
 40
25.0
 40
25.0
 40
25.0
 40
26.0
 40
26.0
 40
26.0
 40
27.0
 40
27.0
 40
27.0
 40
27.0
 10
170.6227679355887
 20
213.4127701967553
 30
0.0
 10
170.6227679355887
 20
213.9652127896619
 30
0.0
 10
171.0704365620501
 20
214.4128814161234
 30
0.0
 10
171.6228899208801
 20
214.4128814161234
 30
0.0
 10
171.6228899208801
 20
214.4128814161234
 30
0.0
 10
221.0728108171276
 20
214.4128814161234
 30
0.0
 10
221.0728108171276
 20
214.4128814161234
 30
0.0
 10
221.0728108171276
 20
214.4128814161234
 30
0.0
 10
221.1486459814967
 20
214.4128814161234
 30
0.0
 10
221.1486459814967
 20
214.4128814161234
 30
0.0
 10
222.5103630357352
 20
214.4128814161234
 30
0.0
 10
223.8086042056581
 20
214.3398669236828
 30
0.0
 10
225.1614932027157
 20
214.1874645121541
 30
0.0
 10
226.2889868276509
 20
214.0590485779414
 30
0.0
 10
227.3568372369976
 20
213.8763077942957
 30
0.0
 10
228.4627990151499
 20
213.6226626391942
 30
0.0
 10
229.4766690846122
 20
213.3887621875925
 30
0.0
 10
230.4302284512357
 20
213.1075993323025
 30
0.0
 10
231.4091953970631
 20
212.7537664941206
 30
0.0
 10
232.4086175973341
 20
212.3911055987577
 30
0.0
 10
233.3374799356978
 20
211.978361627778
 30
0.0
 10
234.2758593503395
 20
211.4788227824167
 30
0.0
 10
235.3776008865224
 20
210.8904004735361
 30
0.0
 10
236.3759464944542
 20
210.2299972008605
 30
0.0
 10
237.348217035932
 20
209.4454197677884
 30
0.0
 10
239.1205679401656
 20
208.0085565682778
 30
0.0
 10
240.5609623625486
 20
206.3187587646095
 30
0.0
 10
241.6997171433511
 20
204.3414246790036
 30
0.0
 10
242.1565583365421
 20
203.5498063320336
 30
0.0
 10
242.5403850372924
 20
202.7648628575662
 30
0.0
 10
242.883645738704
 20
201.9182091102192
 30
0.0
 10
243.3231968589283
 20
200.8379994208191
 30
0.0
 10
243.660105665539
 20
199.7740247438933
 30
0.0
 10
243.9225788778215
 20
198.6380691031725
 30
0.0
 10
244.2040862426599
 20
197.4287544604627
 30
0.0
 10
244.3864825167571
 20
196.2557640432755
 30
0.0
 10
244.4852490979499
 20
195.0182211494334
 30
0.0
 10
244.5491125555077
 20
194.2438713435831
 30
0.0
 10
244.5797954371732
 20
193.5030466231737
 30
0.0
 10
244.5797954371732
 20
192.7258761453949
 30
0.0
 10
244.5797954371732
 20
191.7758480016437
 30
0.0
 10
244.5339326035258
 20
190.8702615896522
 30
0.0
 10
244.4383312038101
 20
189.9248197292657
 30
0.0
 10
244.3533234727116
 20
189.0929583606586
 30
0.0
 10
244.2326590033407
 20
188.3041606856171
 30
0.0
 10
244.0658087226207
 20
187.4846585970633
 30
0.0
 10
243.868598537937
 20
186.5219266637102
 30
0.0
 10
243.620939236241
 20
185.6159957421702
 30
0.0
 10
243.3006314834999
 20
184.6864228528627
 30
0.0
 10
242.9058666045839
 20
183.5437708077924
 30
0.0
 10
242.4303142365387
 20
182.4875475957084
 30
0.0
 10
241.8365950933495
 20
181.4345110969482
 30
0.0
 10
240.4582985170881
 20
178.99823646309
 30
0.0
 10
238.5914012736312
 20
176.9729401887754
 30
0.0
 10
236.2757588113738
 20
175.4006093752308
 30
0.0
 10
235.3190342632731
 20
174.7490233938127
 30
0.0
 10
234.3534816579915
 20
174.2053980921637
 30
0.0
 10
233.3004451592313
 20
173.7252702066772
 30
0.0
 10
232.3172364395878
 20
173.2751254178357
 30
0.0
 10
231.3495737133214
 20
172.9106989110366
 30
0.0
 10
230.3138272875279
 20
172.5999082345735
 30
0.0
 10
229.3895297006821
 20
172.3205002247964
 30
0.0
 10
228.4938479382108
 20
172.1010799401561
 30
0.0
 10
227.5452193645004
 20
171.9222148889313
 30
0.0
 10
226.388808469336
 20
171.7017287778753
 30
0.0
 10
225.2747507167933
 20
171.552857589219
 30
0.0
 10
224.1013942582108
 20
171.4611426878476
 30
0.0
 10
223.0991513860113
 20
171.3810549837389
 30
0.0
 10
222.1406612264744
 20
171.3426098713082
 30
0.0
 10
221.1352531727978
 20
171.3426098713082
 30
0.0
 10
221.1352531727978
 20
171.3426098713082
 30
0.0
 10
221.07386587762
 20
171.3429543808567
 30
0.0
 10
221.07386587762
 20
171.3429543808567
 30
0.0
 10
221.07386587762
 20
171.3429543808567
 30
0.0
 10
171.6228899208801
 20
171.3429543808567
 30
0.0
 10
171.6228899208801
 20
171.3429543808567
 30
0.0
 10
171.0704365620501
 20
171.3429543808567
 30
0.0
 10
170.6227679355887
 20
171.7906337732415
 30
0.0
 10
170.6227679355887
 20
172.3427318565996
 30
0.0
 10
170.6227679355887
 20
172.3427318565996
 30
0.0
 10
170.6227679355887
 20
213.4127701967553
 30
0.0
 10
170.6227679355887
 20
213.4127701967553
 30
0.0
  0
SPLINE
  5
B8
330
B0
100
AcDbEntity
  8
レイヤー 1
  6
AI-Linetype-9
 62
   255
370
    18
100
AcDbSpline
210
0.0
220
0.0
230
1.0
 70
     9
 71
     3
 72
    98
 73
    94
 74
     0
 42
0.0000000001
 43
0.0000000001
 40
0.0
 40
0.0
 40
0.0
 40
0.0
 40
1.0
 40
1.0
 40
1.0
 40
2.0
 40
2.0
 40
2.0
 40
3.0
 40
3.0
 40
3.0
 40
4.0
 40
4.0
 40
4.0
 40
5.0
 40
5.0
 40
5.0
 40
6.0
 40
6.0
 40
6.0
 40
7.0
 40
7.0
 40
7.0
 40
8.0
 40
8.0
 40
8.0
 40
9.0
 40
9.0
 40
9.0
 40
10.0
 40
10.0
 40
10.0
 40
11.0
 40
11.0
 40
11.0
 40
12.0
 40
12.0
 40
12.0
 40
13.0
 40
13.0
 40
13.0
 40
14.0
 40
14.0
 40
14.0
 40
15.0
 40
15.0
 40
15.0
 40
16.0
 40
16.0
 40
16.0
 40
17.0
 40
17.0
 40
17.0
 40
18.0
 40
18.0
 40
18.0
 40
19.0
 40
19.0
 40
19.0
 40
20.0
 40
20.0
 40
20.0
 40
21.0
 40
21.0
 40
21.0
 40
22.0
 40
22.0
 40
22.0
 40
23.0
 40
23.0
 40
23.0
 40
24.0
 40
24.0
 40
24.0
 40
25.0
 40
25.0
 40
25.0
 40
26.0
 40
26.0
 40
26.0
 40
27.0
 40
27.0
 40
27.0
 40
28.0
 40
28.0
 40
28.0
 40
29.0
 40
29.0
 40
29.0
 40
30.0
 40
30.0
 40
30.0
 40
31.0
 40
31.0
 40
31.0
 40
31.0
 10
170.6227679355887
 20
128.5557512597718
 30
0.0
 10
170.6227679355887
 20
129.1078385772065
 30
0.0
 10
171.0704365620501
 20
129.5555179695914
 30
0.0
 10
171.6228899208801
 20
129.5555179695914
 30
0.0
 10
171.6228899208801
 20
129.5555179695914
 30
0.0
 10
222.5724608818569
 20
129.5555179695914
 30
0.0
 10
222.5724608818569
 20
129.5555179695914
 30
0.0
 10
222.5724608818569
 20
129.5555179695914
 30
0.0
 10
222.6634759982078
 20
129.5558732450633
 30
0.0
 10
222.6634759982078
 20
129.5558732450633
 30
0.0
 10
224.1433813594372
 20
129.5558732450633
 30
0.0
 10
225.5544924701956
 20
129.4779064278627
 30
0.0
 10
227.0252252646955
 20
129.3149211136402
 30
0.0
 10
228.280768782448
 20
129.1748672162414
 30
0.0
 10
229.4703171898113
 20
128.9737920650601
 30
0.0
 10
230.7022187397962
 20
128.6936842702625
 30
0.0
 10
231.7545662194594
 20
128.4527321388395
 30
0.0
 10
232.7451603625494
 20
128.1669830001848
 30
0.0
 10
233.7639827567717
 20
127.8103294900743
 30
0.0
 10
234.7845707624302
 20
127.4522548780762
 30
0.0
 10
235.7356539666737
 20
127.048328198354
 30
0.0
 10
236.7022616324477
 20
126.562548203087
 30
0.0
 10
237.7644922297841
 20
126.0273849172236
 30
0.0
 10
238.7374517903591
 20
125.4371862309833
 30
0.0
 10
239.7022938446968
 20
124.7418690687494
 30
0.0
 10
241.0117961704871
 20
123.7964164424395
 30
0.0
 10
242.155869317445
 20
122.7472556761003
 30
0.0
 10
243.2110159371899
 20
121.5245374587682
 30
0.0
 10
244.2732250026796
 20
120.2919253578393
 30
0.0
 10
245.1477624916102
 20
118.9947607802556
 30
0.0
 10
245.8928289858358
 20
117.5480252289951
 30
0.0
 10
246.5313559021801
 20
116.3108268447016
 30
0.0
 10
247.0301841965975
 20
115.0729286753876
 30
0.0
 10
247.4281357888374
 20
113.7383740458655
 30
0.0
 10
247.8158382220087
 20
112.4440301402104
 30
0.0
 10
248.0842972876968
 20
111.1789695461798
 30
0.0
 10
248.2553893422331
 20
109.8387735728007
 30
0.0
 10
248.4053155913818
 20
108.6802417907281
 30
0.0
 10
248.4769305137814
 20
107.5661732722621
 30
0.0
 10
248.4769305137814
 20
106.3981244139115
 30
0.0
 10
248.4769305137814
 20
106.3981244139115
 30
0.0
 10
248.4769305137814
 20
106.3152268037977
 30
0.0
 10
248.4769305137814
 20
106.3152268037977
 30
0.0
 10
248.4769305137814
 20
106.3152268037977
 30
0.0
 10
248.4769305137814
 20
106.3007574027597
 30
0.0
 10
248.4769305137814
 20
106.3007574027597
 30
0.0
 10
248.4769305137814
 20
104.9891341900613
 30
0.0
 10
248.405681632777
 20
103.7385322311454
 30
0.0
 10
248.2560998931769
 20
102.4353710342327
 30
0.0
 10
248.1291050608518
 20
101.3357719168047
 30
0.0
 10
247.947763847247
 20
100.2940181057587
 30
0.0
 10
247.6955397940332
 20
99.21627381281529
 30
0.0
 10
247.4609287914876
 20
98.22109338636053
 30
0.0
 10
247.1783663661568
 20
97.28552387772397
 30
0.0
 10
246.8227679165387
 20
96.32702295226373
 30
0.0
 10
246.4248163242988
 20
95.25917254291698
 30
0.0
 10
245.9633888477431
 20
94.27104379628358
 30
0.0
 10
245.4003525862193
 20
93.28043888727018
 30
0.0
 10
244.6341202866062
 20
91.93635641554672
 30
0.0
 10
243.7451349284843
 20
90.742200192972
 30
0.0
 10
242.6776290286861
 20
89.62284022315907
 30
0.0
 10
241.8168503898496
 20
88.7214955849838
 30
0.0
 10
240.9109194683096
 20
87.94220960325858
 30
0.0
 10
239.891731032692
 20
87.22536597720354
 30
0.0
 10
239.0334285562356
 20
86.61964282943287
 30
0.0
 10
238.1719393664553
 20
86.10317995250035
 30
0.0
 10
237.2335599518136
 20
85.63115880732757
 30
0.0
 10
236.3166908521079
 20
85.16796571933573
 30
0.0
 10
235.4146356629888
 20
84.7816736221287
 30
0.0
 10
234.4466068953272
 20
84.43806841116858
 30
0.0
 10
233.5071724201931
 20
84.10187015550176
 30
0.0
 10
232.5941790529083
 20
83.82917469895916
 30
0.0
 10
231.6243846738105
 20
83.59492973780895
 30
0.0
 10
230.4468079732585
 20
83.30847543117213
 30
0.0
 10
229.3094527624969
 20
83.09610144339156
 30
0.0
 10
228.1078895846289
 20
82.93876285598786
 30
0.0
 10
226.9349206992884
 20
82.78283460454844
 30
0.0
 10
225.8099032367333
 20
82.68405725743228
 30
0.0
 10
224.6273957432681
 20
82.63290297243802
 30
0.0
 10
223.948302827585
 20
82.6018594323389
 30
0.0
 10
223.3006033445112
 20
82.58739541426255
 30
0.0
 10
222.6207998778843
 20
82.58739541426255
 30
0.0
 10
222.6207998778843
 20
82.58739541426255
 30
0.0
 10
222.5752815537854
 20
82.58739541426255
 30
0.0
 10
222.5752815537854
 20
82.58739541426255
 30
0.0
 10
222.5752815537854
 20
82.58739541426255
 30
0.0
 10
171.6228899208801
 20
82.58739541426255
 30
0.0
 10
171.6228899208801
 20
82.58739541426255
 30
0.0
 10
171.0704365620501
 20
82.58739541426255
 30
0.0
 10
170.6227679355887
 20
83.03506942368569
 30
0.0
 10
170.6227679355887
 20
83.58751739955398
 30
0.0
 10
170.6227679355887
 20
83.58751739955398
 30
0.0
 10
170.6227679355887
 20
128.5557512597718
 30
0.0
 10
170.6227679355887
 20
128.5557512597718
 30
0.0
  0
SPLINE
  5
BA
330
B0
100
AcDbEntity
  8
レイヤー 1
 62
   255
370
    18
100
AcDbSpline
210
0.0
220
0.0
230
1.0
 70
     9
 71
     3
 72
    53
 73
    49
 74
     0
 42
0.0000000001
 43
0.0000000001
 40
0.0
 40
0.0
 40
0.0
 40
0.0
 40
1.0
 40
1.0
 40
1.0
 40
2.0
 40
2.0
 40
2.0
 40
3.0
 40
3.0
 40
3.0
 40
4.0
 40
4.0
 40
4.0
 40
5.0
 40
5.0
 40
5.0
 40
6.0
 40
6.0
 40
6.0
 40
7.0
 40
7.0
 40
7.0
 40
8.0
 40
8.0
 40
8.0
 40
9.0
 40
9.0
 40
9.0
 40
10.0
 40
10.0
 40
10.0
 40
11.0
 40
11.0
 40
11.0
 40
12.0
 40
12.0
 40
12.0
 40
13.0
 40
13.0
 40
13.0
 40
14.0
 40
14.0
 40
14.0
 40
15.0
 40
15.0
 40
15.0
 40
16.0
 40
16.0
 40
16.0
 40
16.0
 10
162.9305587361228
 20
134.7938502504541
 30
0.0
 10
163.0374428235527
 20
136.1767331100801
 30
0.0
 10
164.2023157345028
 20
137.255177188044
 30
0.0
 10
165.5894403679451
 20
137.2558769730645
 30
0.0
 10
165.5894403679451
 20
137.2558769730645
 30
0.0
 10
223.4453404185853
 20
137.2481147422993
 30
0.0
 10
223.4453404185853
 20
137.2481147422993
 30
0.0
 10
227.10329974113
 20
137.212845577269
 30
0.0
 10
230.5929661492203
 20
136.7281206424944
 30
0.0
 10
234.1225095375523
 20
135.7653994750647
 30
0.0
 10
237.7268545616078
 20
134.7850221932731
 30
0.0
 10
241.0097937087363
 20
133.2409196308608
 30
0.0
 10
244.0630957099261
 20
131.0889730337696
 30
0.0
 10
248.8167676515545
 20
127.6980732068721
 30
0.0
 10
252.3505528137027
 20
123.00365690759
 30
0.0
 10
254.2943618138678
 20
117.4975007505193
 30
0.0
 10
255.5594224078983
 20
113.911866901318
 30
0.0
 10
256.1820588213169
 20
110.2754394255561
 30
0.0
 10
256.1820588213169
 20
106.4731951977198
 30
0.0
 10
256.1820588213169
 20
106.1539317395477
 30
0.0
 10
256.1778385793474
 20
105.849837467434
 30
0.0
 10
256.1690105221665
 20
105.5309292847338
 30
0.0
 10
256.1302101342639
 20
102.0871149443675
 30
0.0
 10
255.6373676932521
 20
98.80204414440756
 30
0.0
 10
254.6647741740725
 20
95.49828370144011
 30
0.0
 10
253.6000889462028
 20
91.88442160110659
 30
0.0
 10
251.8820628914023
 20
88.63076038264102
 30
0.0
 10
249.4986812391661
 20
85.71364192939082
 30
0.0
 10
246.9406978413681
 20
82.64341589662974
 30
0.0
 10
243.8447197198548
 20
80.24064481636562
 30
0.0
 10
240.235443902886
 20
78.52543943349364
 30
0.0
 10
237.1306592560385
 20
77.05012573859066
 30
0.0
 10
233.9616451102379
 20
76.06587272437818
 30
0.0
 10
230.567214060468
 20
75.52259731523936
 30
0.0
 10
227.9467883069998
 20
75.09326843927519
 30
0.0
 10
225.4135019374618
 20
74.88724634629555
 30
0.0
 10
222.7577854871165
 20
74.88724634629555
 30
0.0
 10
222.7020395357958
 20
74.88724634629555
 30
0.0
 10
222.6487697468552
 20
74.88724634629555
 30
0.0
 10
222.5930237955345
 20
74.88724634629555
 30
0.0
 10
222.5930237955345
 20
74.88724634629555
 30
0.0
 10
165.3841234429476
 20
74.89500319409906
 30
0.0
 10
165.3841234429476
 20
74.89500319409906
 30
0.0
 10
164.0012298173981
 20
75.00260321543446
 30
0.0
 10
162.9231410149061
 20
76.16712085091265
 30
0.0
 10
162.9227965053576
 20
77.55424548435494
 30
0.0
 10
162.9227965053576
 20
77.55424548435494
 30
0.0
 10
162.9305587361228
 20
134.7938502504541
 30
0.0
 10
162.9305587361228
 20
134.7938502504541
 30
0.0
  0
SPLINE
  5
BB
330
B0
100
AcDbEntity
  8
レイヤー 1
 62
   255
370
    18
100
AcDbSpline
210
0.0
220
0.0
230
1.0
 70
     9
 71
     3
 72
    53
 73
    49
 74
     0
 42
0.0000000001
 43
0.0000000001
 40
0.0
 40
0.0
 40
0.0
 40
0.0
 40
1.0
 40
1.0
 40
1.0
 40
2.0
 40
2.0
 40
2.0
 40
3.0
 40
3.0
 40
3.0
 40
4.0
 40
4.0
 40
4.0
 40
5.0
 40
5.0
 40
5.0
 40
6.0
 40
6.0
 40
6.0
 40
7.0
 40
7.0
 40
7.0
 40
8.0
 40
8.0
 40
8.0
 40
9.0
 40
9.0
 40
9.0
 40
10.0
 40
10.0
 40
10.0
 40
11.0
 40
11.0
 40
11.0
 40
12.0
 40
12.0
 40
12.0
 40
13.0
 40
13.0
 40
13.0
 40
14.0
 40
14.0
 40
14.0
 40
15.0
 40
15.0
 40
15.0
 40
16.0
 40
16.0
 40
16.0
 40
16.0
 10
162.9227965053576
 20
219.446402770388
 30
0.0
 10
162.9231410149061
 20
220.8331613624349
 30
0.0
 10
164.0012298173981
 20
221.9980342733851
 30
0.0
 10
165.3841234429476
 20
222.1049398926617
 30
0.0
 10
165.3841234429476
 20
222.1049398926617
 30
0.0
 10
221.0933737308052
 20
222.1126913575035
 30
0.0
 10
221.0933737308052
 20
222.1126913575035
 30
0.0
 10
221.0933737308052
 20
222.1126913575035
 30
0.0
 10
221.1081876413918
 20
222.1126913575035
 30
0.0
 10
221.1081876413918
 20
222.1126913575035
 30
0.0
 10
222.0709195747449
 20
222.1126913575035
 30
0.0
 10
222.9881547158459
 20
222.0837740872742
 30
0.0
 10
223.9487549963674
 20
222.022731301645
 30
0.0
 10
227.4391319554015
 20
221.826231667905
 30
0.0
 10
230.7471341721852
 20
221.1598425418237
 30
0.0
 10
234.0410330293261
 20
219.9893282870166
 30
0.0
 10
237.5935078344818
 20
218.7263778139708
 30
0.0
 10
240.7480310473976
 20
216.825266465976
 30
0.0
 10
243.5247564766622
 20
214.2746684916245
 30
0.0
 10
246.7882954298394
 20
211.2256082642509
 30
0.0
 10
249.1766078749888
 20
207.5101589107961
 30
0.0
 10
250.5947598996452
 20
203.2754260084802
 30
0.0
 10
251.726839807945
 20
199.8866363025674
 30
0.0
 10
252.2821030727802
 20
196.47103944741
 30
0.0
 10
252.2821030727802
 20
192.8984538973591
 30
0.0
 10
252.2821030727802
 20
192.6515051466071
 30
0.0
 10
252.2796269104002
 20
192.4162051249645
 30
0.0
 10
252.2739855665431
 20
192.1692779060592
 30
0.0
 10
252.2450682963138
 20
188.478848558566
 30
0.0
 10
251.6037207080409
 20
184.9539129854455
 30
0.0
 10
250.3312531587171
 20
181.4896326247122
 30
0.0
 10
248.5765368369987
 20
176.7232461275585
 30
0.0
 10
245.5267660586812
 20
172.6532533849779
 30
0.0
 10
241.4454690965397
 20
169.6299452463566
 30
0.0
 10
238.6063228434517
 20
167.5563207419379
 30
0.0
 10
235.5322210782698
 20
166.0626565306143
 30
0.0
 10
232.1473071047779
 20
165.1122731113912
 30
0.0
 10
228.776173513227
 20
164.1647103640966
 30
0.0
 10
225.4367778638339
 20
163.6867033655182
 30
0.0
 10
221.9350966852389
 20
163.6507128836207
 30
0.0
 10
221.9350966852389
 20
163.6507128836207
 30
0.0
 10
165.5894403679451
 20
163.642606143307
 30
0.0
 10
165.5894403679451
 20
163.642606143307
 30
0.0
 10
164.116941962009
 20
163.6429506528555
 30
0.0
 10
162.9231410149061
 20
164.8367515999583
 30
0.0
 10
162.9227965053576
 20
166.3092500058945
 30
0.0
 10
162.9227965053576
 20
166.3092500058945
 30
0.0
 10
162.9227965053576
 20
219.446402770388
 30
0.0
 10
162.9227965053576
 20
219.446402770388
 30
0.0
  0
SPLINE
  5
BC
330
B0
100
AcDbEntity
  8
レイヤー 1
 62
   255
370
    18
100
AcDbSpline
210
0.0
220
0.0
230
1.0
 70
     9
 71
     3
 72
    86
 73
    82
 74
     0
 42
0.0000000001
 43
0.0000000001
 40
0.0
 40
0.0
 40
0.0
 40
0.0
 40
1.0
 40
1.0
 40
1.0
 40
2.0
 40
2.0
 40
2.0
 40
3.0
 40
3.0
 40
3.0
 40
4.0
 40
4.0
 40
4.0
 40
5.0
 40
5.0
 40
5.0
 40
6.0
 40
6.0
 40
6.0
 40
7.0
 40
7.0
 40
7.0
 40
8.0
 40
8.0
 40
8.0
 40
9.0
 40
9.0
 40
9.0
 40
10.0
 40
10.0
 40
10.0
 40
11.0
 40
11.0
 40
11.0
 40
12.0
 40
12.0
 40
12.0
 40
13.0
 40
13.0
 40
13.0
 40
14.0
 40
14.0
 40
14.0
 40
15.0
 40
15.0
 40
15.0
 40
16.0
 40
16.0
 40
16.0
 40
17.0
 40
17.0
 40
17.0
 40
18.0
 40
18.0
 40
18.0
 40
19.0
 40
19.0
 40
19.0
 40
20.0
 40
20.0
 40
20.0
 40
21.0
 40
21.0
 40
21.0
 40
22.0
 40
22.0
 40
22.0
 40
23.0
 40
23.0
 40
23.0
 40
24.0
 40
24.0
 40
24.0
 40
25.0
 40
25.0
 40
25.0
 40
26.0
 40
26.0
 40
26.0
 40
27.0
 40
27.0
 40
27.0
 40
27.0
 10
135.6054501512386
 20
48.50017266650452
 30
0.0
 10
135.6054501512386
 20
48.50017266650452
 30
0.0
 10
230.3735566305034
 20
48.50793489726972
 30
0.0
 10
230.3735566305034
 20
48.50793489726972
 30
0.0
 10
235.7819905009503
 20
48.55238201199114
 30
0.0
 10
240.9395998882243
 20
49.13481846746619
 30
0.0
 10
246.2217279454433
 20
50.2979257669801
 30
0.0
 10
251.2537636022799
 20
51.40459271311456
 30
0.0
 10
255.921717261866
 20
53.08945972386957
 30
0.0
 10
260.5004214165372
 20
55.45200931434338
 30
0.0
 10
265.9695320312181
 20
58.27564725478602
 30
0.0
 10
270.6875902982678
 20
61.97628269765426
 30
0.0
 10
274.7325415030399
 20
66.61566359655951
 30
0.0
 10
278.7658439787027
 20
71.29632104574743
 30
0.0
 10
281.7704409424698
 20
76.51249167330894
 30
0.0
 10
283.7954034731593
 20
82.35025980268174
 30
0.0
 10
285.5324636805158
 20
87.35934789380959
 30
0.0
 10
286.5460107722762
 20
92.36808070946549
 30
0.0
 10
286.8931472061088
 20
97.65833703884496
 30
0.0
 10
287.0046175769034
 20
99.18163983726515
 30
0.0
 10
287.0578873658441
 20
100.6371926797832
 30
0.0
 10
287.0578873658441
 20
102.1643712106243
 30
0.0
 10
287.0578873658441
 20
103.4738843023379
 30
0.0
 10
287.0187209365461
 20
104.7220100988737
 30
0.0
 10
286.9368783869246
 20
106.0290470282073
 30
0.0
 10
286.0630514489378
 20
118.1448557240445
 30
0.0
 10
281.0945347401105
 20
129.4700796015572
 30
0.0
 10
272.7707318789645
 20
138.3170417439852
 30
0.0
 10
269.1071312125627
 20
142.2187631039581
 30
0.0
 10
264.9591716527815
 20
145.3457793826088
 30
0.0
 10
260.199858367296
 20
147.7944132965203
 30
0.0
 10
258.9517218048367
 20
148.4230570951913
 30
0.0
 10
257.736055267326
 20
148.9702243856361
 30
0.0
 10
256.4378356292499
 20
149.4873978135125
 30
0.0
 10
255.5386011120594
 20
149.934711164502
 30
0.0
 10
254.9586408189643
 20
150.8706359486104
 30
0.0
 10
254.9586408189643
 20
151.8749889417947
 30
0.0
 10
254.9586408189643
 20
152.9897680112046
 30
0.0
 10
255.67405796017
 20
154.0071800694626
 30
0.0
 10
256.7228742169608
 20
154.3842995999401
 30
0.0
 10
265.4435520780076
 20
158.3308287330681
 30
0.0
 10
272.5499012583599
 20
164.9055458504294
 30
0.0
 10
277.1613984156815
 20
173.2935459127584
 30
0.0
 10
280.0309045727331
 20
178.5210046109958
 30
0.0
 10
281.8459531291371
 20
184.0335126628675
 30
0.0
 10
282.6442894123033
 20
189.943229458265
 30
0.0
 10
282.9959905976538
 20
192.5269864766621
 30
0.0
 10
283.1649725312053
 20
195.0137209934558
 30
0.0
 10
283.1649725312053
 20
197.621442957322
 30
0.0
 10
283.1649725312053
 20
202.0671448944159
 30
0.0
 10
282.6724961315889
 20
206.3114164048566
 30
0.0
 10
281.6547287978589
 20
210.639296076355
 30
0.0
 10
280.2524457442816
 20
216.6015936415961
 30
0.0
 10
277.8126291216276
 20
222.0495384508895
 30
0.0
 10
274.298610194826
 20
227.0663941557442
 30
0.0
 10
270.4829731582908
 20
232.4483869183419
 30
0.0
 10
265.7331769490832
 20
236.8260051559085
 30
0.0
 10
260.0583941339329
 20
240.1914974036023
 30
0.0
 10
255.5929259614924
 20
242.8376752458227
 30
0.0
 10
250.9754214189185
 20
244.7726777206536
 30
0.0
 10
245.9578551631199
 20
246.1001806703543
 30
0.0
 10
240.7787354609099
 20
247.4710702913224
 30
0.0
 10
235.6892097731632
 20
248.2291850846984
 30
0.0
 10
230.3358113030931
 20
248.4263952693821
 30
0.0
 10
229.1374133067022
 20
248.4764783449989
 30
0.0
 10
227.9940722425349
 20
248.500464822315
 30
0.0
 10
226.7946191856516
 20
248.500464822315
 30
0.0
 10
226.7946191856516
 20
248.500464822315
 30
0.0
 10
226.7907434532307
 20
248.500464822315
 30
0.0
 10
226.7907434532307
 20
248.500464822315
 30
0.0
 10
226.7907434532307
 20
248.500464822315
 30
0.0
 10
135.4001332262411
 20
248.4923688479247
 30
0.0
 10
135.4001332262411
 20
248.4923688479247
 30
0.0
 10
134.0172396006916
 20
248.385463228648
 30
0.0
 10
132.9387955227277
 20
247.2205903176979
 30
0.0
 10
132.9387955227277
 20
245.8331211747071
 30
0.0
 10
132.9387955227277
 20
245.8331211747071
 30
0.0
 10
132.9387955227277
 20
51.16717180456389
 30
0.0
 10
132.9387955227277
 20
51.16717180456389
 30
0.0
 10
132.9384510131792
 20
49.69432350611755
 30
0.0
 10
134.1325964698305
 20
48.50017266650452
 30
0.0
 10
135.6054501512386
 20
48.50017266650452
 30
0.0
  0
SPLINE
  5
BD
330
B0
100
AcDbEntity
  8
レイヤー 1
  6
AI-Linetype-10
 62
   112
370
    18
100
AcDbSpline
210
0.0
220
0.0
230
1.0
 70
    11
 71
     3
 72
    92
 73
    88
 74
     0
 42
0.0000000001
 43
0.0000000001
 40
0.0
 40
0.0
 40
0.0
 40
0.0
 40
1.0
 40
1.0
 40
1.0
 40
2.0
 40
2.0
 40
2.0
 40
3.0
 40
3.0
 40
3.0
 40
4.0
 40
4.0
 40
4.0
 40
5.0
 40
5.0
 40
5.0
 40
6.0
 40
6.0
 40
6.0
 40
7.0
 40
7.0
 40
7.0
 40
8.0
 40
8.0
 40
8.0
 40
9.0
 40
9.0
 40
9.0
 40
10.0
 40
10.0
 40
10.0
 40
11.0
 40
11.0
 40
11.0
 40
12.0
 40
12.0
 40
12.0
 40
13.0
 40
13.0
 40
13.0
 40
14.0
 40
14.0
 40
14.0
 40
15.0
 40
15.0
 40
15.0
 40
16.0
 40
16.0
 40
16.0
 40
17.0
 40
17.0
 40
17.0
 40
18.0
 40
18.0
 40
18.0
 40
19.0
 40
19.0
 40
19.0
 40
20.0
 40
20.0
 40
20.0
 40
21.0
 40
21.0
 40
21.0
 40
22.0
 40
22.0
 40
22.0
 40
23.0
 40
23.0
 40
23.0
 40
24.0
 40
24.0
 40
24.0
 40
25.0
 40
25.0
 40
25.0
 40
26.0
 40
26.0
 40
26.0
 40
27.0
 40
27.0
 40
27.0
 40
28.0
 40
28.0
 40
28.0
 40
29.0
 40
29.0
 40
29.0
 40
29.0
 10
178.6222150567984
 20
121.5557263388331
 30
0.0
 10
178.6222150567984
 20
121.5557263388331
 30
0.0
 10
222.5814827256589
 20
121.5557263388331
 30
0.0
 10
222.5814827256589
 20
121.5557263388331
 30
0.0
 10
222.5814827256589
 20
121.5557263388331
 30
0.0
 10
222.6629807657318
 20
121.5557263388331
 30
0.0
 10
222.6629807657318
 20
121.5557263388331
 30
0.0
 10
223.8430336286638
 20
121.5557263388331
 30
0.0
 10
224.9680295593722
 20
121.4936284927114
 30
0.0
 10
226.1406754670109
 20
121.3638129884579
 30
0.0
 10
227.0903375693667
 20
121.2579731955969
 30
0.0
 10
227.9902826375011
 20
121.1059260595401
 30
0.0
 10
228.9223101573419
 20
120.8939127301932
 30
0.0
 10
229.676549218297
 20
120.7213995737693
 30
0.0
 10
230.3863465474924
 20
120.5164379242437
 30
0.0
 10
231.1165991311314
 20
120.261027157706
 30
0.0
 10
231.8076852854725
 20
120.0183201807701
 30
0.0
 10
232.4518535456739
 20
119.7445642807735
 30
0.0
 10
233.1066154744925
 20
119.4157729803999
 30
0.0
 10
233.7843088201347
 20
119.0742778904246
 30
0.0
 10
234.4055456635123
 20
118.6975136354189
 30
0.0
 10
235.0218517139768
 20
118.2540760168503
 30
0.0
 10
235.8163122647221
 20
117.6794017921405
 30
0.0
 10
236.5112741514842
 20
117.0422852117605
 30
0.0
 10
237.1522772302085
 20
116.3000393894634
 30
0.0
 10
237.7975005509022
 20
115.550386611873
 30
0.0
 10
238.3291433798166
 20
114.7619226804566
 30
0.0
 10
238.7813982896428
 20
113.8824543986127
 30
0.0
 10
239.189922018653
 20
113.0915250707397
 30
0.0
 10
239.5088302013533
 20
112.3005957428667
 30
0.0
 10
239.7624753564548
 20
111.4475793347954
 30
0.0
 10
240.0242380177934
 20
110.5751627327729
 30
0.0
 10
240.2052131900029
 20
109.7225016001735
 30
0.0
 10
240.3198702741214
 20
108.8190360750902
 30
0.0
 10
240.4256993010589
 20
108.0041202699011
 30
0.0
 10
240.4764929276196
 20
107.2202426218494
 30
0.0
 10
240.4764929276196
 20
106.398275136839
 30
0.0
 10
240.4764929276196
 20
106.398275136839
 30
0.0
 10
240.4764929276196
 20
106.3263049389674
 30
0.0
 10
240.4764929276196
 20
106.3263049389674
 30
0.0
 10
240.4764929276196
 20
106.3263049389674
 30
0.0
 10
240.4764929276196
 20
106.3009081256871
 30
0.0
 10
240.4764929276196
 20
106.3009081256871
 30
0.0
 10
240.4764929276196
 20
105.299365038508
 30
0.0
 10
240.421823568638
 20
104.3443953359202
 30
0.0
 10
240.3078770354634
 20
103.3492149094654
 30
0.0
 10
240.217206428661
 20
102.5625165894852
 30
0.0
 10
240.0873909244074
 20
101.8174500952596
 30
0.0
 10
239.9067602617464
 20
101.0459317272613
 30
0.0
 10
239.7497715668529
 20
100.3809421712209
 30
0.0
 10
239.5610449298016
 20
99.75581882949898
 30
0.0
 10
239.3236132553275
 20
99.1151710262466
 30
0.0
 10
239.0780856064631
 20
98.45759919142293
 30
0.0
 10
238.7941020792446
 20
97.8487000962518
 30
0.0
 10
238.4473101549607
 20
97.23840143103979
 30
0.0
 10
238.0088140952287
 20
96.46969296904664
 30
0.0
 10
237.500102683138
 20
95.78671355501926
 30
0.0
 10
236.889804017926
 20
95.14607651769026
 30
0.0
 10
236.3934518858886
 20
94.62713747837772
 30
0.0
 10
235.8716921746475
 20
94.17840302550054
 30
0.0
 10
235.2839588848639
 20
93.76564828859743
 30
0.0
 10
234.7509164859086
 20
93.38888403359181
 30
0.0
 10
234.2153979245733
 20
93.06785496398347
 30
0.0
 10
233.6322509181544
 20
92.77505414550741
 30
0.0
 10
233.0166554186339
 20
92.46355291810047
 30
0.0
 10
232.4109430367866
 20
92.20425565321846
 30
0.0
 10
231.7607673913328
 20
91.97389719041256
 30
0.0
 10
231.0876603290553
 20
91.73294505898951
 30
0.0
 10
230.4336304830274
 20
91.53751125166532
 30
0.0
 10
229.7386470644187
 20
91.36958437860618
 30
0.0
 10
228.8418887096081
 20
91.15121915445829
 30
0.0
 10
227.9758132364631
 20
90.98964417620008
 30
0.0
 10
227.0607097481936
 20
90.86970102369642
 30
0.0
 10
226.1209092316642
 20
90.74481631235611
 30
0.0
 10
225.2199091030375
 20
90.6657944346632
 30
0.0
 10
224.2730676726101
 20
90.62487315985247
 30
0.0
 10
223.7139071435073
 20
90.59947634657214
 30
0.0
 10
223.1801541936082
 20
90.58748310791411
 30
0.0
 10
222.6203046454083
 20
90.58748310791411
 30
0.0
 10
222.6203046454083
 20
90.58748310791411
 30
0.0
 10
222.5790280951257
 20
90.58748310791411
 30
0.0
 10
222.5790280951257
 20
90.58748310791411
 30
0.0
 10
222.5790280951257
 20
90.58748310791411
 30
0.0
 10
178.6222150567984
 20
90.58748310791411
 30
0.0
 10
178.6222150567984
 20
90.58748310791411
 30
0.0
 10
178.6222150567984
 20
90.58748310791411
 30
0.0
 10
178.6222150567984
 20
121.5557263388331
 30
0.0
 10
178.6222150567984
 20
121.5557263388331
 30
0.0
  0
SPLINE
  5
BF
330
B0
100
AcDbEntity
  8
レイヤー 1
  6
AI-Linetype-11
 62
   112
370
    18
100
AcDbSpline
210
0.0
220
0.0
230
1.0
 70
    11
 71
     3
 72
    80
 73
    76
 74
     0
 42
0.0000000001
 43
0.0000000001
 40
0.0
 40
0.0
 40
0.0
 40
0.0
 40
1.0
 40
1.0
 40
1.0
 40
2.0
 40
2.0
 40
2.0
 40
3.0
 40
3.0
 40
3.0
 40
4.0
 40
4.0
 40
4.0
 40
5.0
 40
5.0
 40
5.0
 40
6.0
 40
6.0
 40
6.0
 40
7.0
 40
7.0
 40
7.0
 40
8.0
 40
8.0
 40
8.0
 40
9.0
 40
9.0
 40
9.0
 40
10.0
 40
10.0
 40
10.0
 40
11.0
 40
11.0
 40
11.0
 40
12.0
 40
12.0
 40
12.0
 40
13.0
 40
13.0
 40
13.0
 40
14.0
 40
14.0
 40
14.0
 40
15.0
 40
15.0
 40
15.0
 40
16.0
 40
16.0
 40
16.0
 40
17.0
 40
17.0
 40
17.0
 40
18.0
 40
18.0
 40
18.0
 40
19.0
 40
19.0
 40
19.0
 40
20.0
 40
20.0
 40
20.0
 40
21.0
 40
21.0
 40
21.0
 40
22.0
 40
22.0
 40
22.0
 40
23.0
 40
23.0
 40
23.0
 40
24.0
 40
24.0
 40
24.0
 40
25.0
 40
25.0
 40
25.0
 40
25.0
 10
178.6222150567984
 20
206.4128744668972
 30
0.0
 10
178.6222150567984
 20
206.4128744668972
 30
0.0
 10
221.0814881513811
 20
206.4128744668972
 30
0.0
 10
221.0814881513811
 20
206.4128744668972
 30
0.0
 10
221.0814881513811
 20
206.4128744668972
 30
0.0
 10
221.1481507490207
 20
206.4128744668972
 30
0.0
 10
221.1481507490207
 20
206.4128744668972
 30
0.0
 10
222.2043739611047
 20
206.4128744668972
 30
0.0
 10
223.211203116669
 20
206.3564394964795
 30
0.0
 10
224.2603638830082
 20
206.2382511894886
 30
0.0
 10
225.0826866434906
 20
206.1444154012091
 30
0.0
 10
225.8616227327056
 20
206.0110686740832
 30
0.0
 10
226.668076522109
 20
205.8262177694528
 30
0.0
 10
227.3623278579272
 20
205.6660638930822
 30
0.0
 10
228.0153241753096
 20
205.4734399917632
 30
0.0
 10
228.6852445242632
 20
205.2317880753196
 30
0.0
 10
229.322027361018
 20
205.000363786098
 30
0.0
 10
229.9136363832225
 20
204.7371800228717
 30
0.0
 10
230.5115757683812
 20
204.4193484325106
 30
0.0
 10
231.1585862323579
 20
204.0732670591705
 30
0.0
 10
231.7452429298024
 20
203.6855646259992
 30
0.0
 10
232.3167412071118
 20
203.2255367194844
 30
0.0
 10
233.3154528564389
 20
202.4137860957724
 30
0.0
 10
234.1272034801509
 20
201.4602482609956
 30
0.0
 10
234.7689171098191
 20
200.3447478747185
 30
0.0
 10
235.0401968474357
 20
199.8752028919257
 30
0.0
 10
235.2677454042364
 20
199.4095336415539
 30
0.0
 10
235.4712859518744
 20
198.9071956561108
 30
0.0
 10
235.7496281352358
 20
198.2238609666115
 30
0.0
 10
235.9627072909985
 20
197.5504093947856
 30
0.0
 10
236.1285025112262
 20
196.8314394988607
 30
0.0
 10
236.3204158616013
 20
196.0091167383783
 30
0.0
 10
236.4442455124493
 20
195.2114910061559
 30
0.0
 10
236.5109296419356
 20
194.3701125612707
 30
0.0
 10
236.5571369851316
 20
193.8144832550403
 30
0.0
 10
236.5793578510114
 20
193.2832064675212
 30
0.0
 10
236.5793578510114
 20
192.7258115498545
 30
0.0
 10
236.5793578510114
 20
192.0509388761409
 30
0.0
 10
236.5469093579097
 20
191.4071366573348
 30
0.0
 10
236.4788256583825
 20
190.735450696945
 30
0.0
 10
236.4213140956256
 20
190.1731034545183
 30
0.0
 10
236.3398160555526
 20
189.640061055563
 30
0.0
 10
236.2272906242657
 20
189.0861973607688
 30
0.0
 10
236.1010063428845
 20
188.4702573516997
 30
0.0
 10
235.9422520365548
 20
187.8906415681532
 30
0.0
 10
235.7376348965777
 20
187.2958673644716
 30
0.0
 10
235.5033899354276
 20
186.6188845697732
 30
0.0
 10
235.221882570589
 20
185.993039911184
 30
0.0
 10
234.8701598533919
 20
185.3686378863293
 30
0.0
 10
234.1032170028349
 20
184.015016806481
 30
0.0
 10
233.064628373266
 20
182.8893103248289
 30
0.0
 10
231.7770024038071
 20
182.0158278963906
 30
0.0
 10
231.1980971712044
 20
181.6214290588698
 30
0.0
 10
230.6135290628978
 20
181.2922932489478
 30
0.0
 10
229.9757126974974
 20
181.0023023364768
 30
0.0
 10
229.3276687048751
 20
180.7049044687127
 30
0.0
 10
228.6898308076279
 20
180.4646736541568
 30
0.0
 10
228.0065176499753
 20
180.2600672801032
 30
0.0
 10
227.3549209026339
 20
180.0628570954194
 30
0.0
 10
226.7231119224859
 20
179.907989287434
 30
0.0
 10
226.0538805926293
 20
179.7820495156013
 30
0.0
 10
225.186750058992
 20
179.6165988049222
 30
0.0
 10
224.3510344898107
 20
179.5047623927323
 30
0.0
 10
223.4708341251761
 20
179.4363234177331
 30
0.0
 10
222.6813258991908
 20
179.3728260015706
 30
0.0
 10
221.9267423286872
 20
179.3428429049256
 30
0.0
 10
221.1347579403218
 20
179.3428429049256
 30
0.0
 10
221.1347579403218
 20
179.3428429049256
 30
0.0
 10
221.0800670494935
 20
179.3428429049256
 30
0.0
 10
221.0800670494935
 20
179.3428429049256
 30
0.0
 10
221.0800670494935
 20
179.3428429049256
 30
0.0
 10
178.6222150567984
 20
179.3428429049256
 30
0.0
 10
178.6222150567984
 20
179.3428429049256
 30
0.0
 10
178.6222150567984
 20
179.3428429049256
 30
0.0
 10
178.6222150567984
 20
206.4128744668972
 30
0.0
 10
178.6222150567984
 20
206.4128744668972
 30
0.0
  0
SPLINE
  5
C1
330
B0
100
AcDbEntity
  8
レイヤー 1
  6
AI-Linetype-12
 62
   112
370
    18
100
AcDbSpline
210
0.0
220
0.0
230
1.0
 70
     9
 71
     3
 72
   137
 73
   133
 74
     0
 42
0.0000000001
 43
0.0000000001
 40
0.0
 40
0.0
 40
0.0
 40
0.0
 40
1.0
 40
1.0
 40
1.0
 40
2.0
 40
2.0
 40
2.0
 40
3.0
 40
3.0
 40
3.0
 40
4.0
 40
4.0
 40
4.0
 40
5.0
 40
5.0
 40
5.0
 40
6.0
 40
6.0
 40
6.0
 40
7.0
 40
7.0
 40
7.0
 40
8.0
 40
8.0
 40
8.0
 40
9.0
 40
9.0
 40
9.0
 40
10.0
 40
10.0
 40
10.0
 40
11.0
 40
11.0
 40
11.0
 40
12.0
 40
12.0
 40
12.0
 40
13.0
 40
13.0
 40
13.0
 40
14.0
 40
14.0
 40
14.0
 40
15.0
 40
15.0
 40
15.0
 40
16.0
 40
16.0
 40
16.0
 40
17.0
 40
17.0
 40
17.0
 40
18.0
 40
18.0
 40
18.0
 40
19.0
 40
19.0
 40
19.0
 40
20.0
 40
20.0
 40
20.0
 40
21.0
 40
21.0
 40
21.0
 40
22.0
 40
22.0
 40
22.0
 40
23.0
 40
23.0
 40
23.0
 40
24.0
 40
24.0
 40
24.0
 40
25.0
 40
25.0
 40
25.0
 40
26.0
 40
26.0
 40
26.0
 40
27.0
 40
27.0
 40
27.0
 40
28.0
 40
28.0
 40
28.0
 40
29.0
 40
29.0
 40
29.0
 40
30.0
 40
30.0
 40
30.0
 40
31.0
 40
31.0
 40
31.0
 40
32.0
 40
32.0
 40
32.0
 40
33.0
 40
33.0
 40
33.0
 40
34.0
 40
34.0
 40
34.0
 40
35.0
 40
35.0
 40
35.0
 40
36.0
 40
36.0
 40
36.0
 40
37.0
 40
37.0
 40
37.0
 40
38.0
 40
38.0
 40
38.0
 40
39.0
 40
39.0
 40
39.0
 40
40.0
 40
40.0
 40
40.0
 40
41.0
 40
41.0
 40
41.0
 40
42.0
 40
42.0
 40
42.0
 40
43.0
 40
43.0
 40
43.0
 40
44.0
 40
44.0
 40
44.0
 40
44.0
 10
135.6044919840567
 20
32.8000112663497
 30
0.0
 10
135.6044919840567
 20
32.8000112663497
 30
0.0
 10
135.6048364936053
 20
32.8000112663497
 30
0.0
 10
135.6048364936053
 20
32.8000112663497
 30
0.0
 10
135.6048364936053
 20
32.8000112663497
 30
0.0
 10
229.1844388600758
 20
32.8000112663497
 30
0.0
 10
229.1844388600758
 20
32.8000112663497
 30
0.0
 10
229.2271149803994
 20
32.8000112663497
 30
0.0
 10
229.2676809797382
 20
32.8000112663497
 30
0.0
 10
229.3103786319085
 20
32.8000112663497
 30
0.0
 10
232.9266953627753
 20
32.8000112663497
 30
0.0
 10
236.3743962014858
 20
32.98522282941374
 30
0.0
 10
239.9699131683604
 20
33.37327515509527
 30
0.0
 10
242.8439840769301
 20
33.68654199393839
 30
0.0
 10
245.5695498382387
 20
34.11693131335662
 30
0.0
 10
248.400234075541
 20
34.70465922017855
 30
0.0
 10
251.3057199485668
 20
35.31073226045942
 30
0.0
 10
254.0443340090258
 20
36.03992440064442
 30
0.0
 10
256.866211720994
 20
36.95961417227866
 30
0.0
 10
259.7600273330635
 20
37.90541130813704
 30
0.0
 10
262.4637167380408
 20
38.97679832331787
 30
0.0
 10
265.2199869128617
 20
40.27008178551896
 30
0.0
 10
268.3621723775709
 20
41.74751636733005
 30
0.0
 10
271.251767747671
 20
43.38475493300147
 30
0.0
 10
274.1339776943246
 20
45.32080170240135
 30
0.0
 10
277.1936100584686
 20
47.37925702076152
 30
0.0
 10
279.9438728480371
 20
49.5932906980509
 30
0.0
 10
282.6083958237164
 20
52.14281746302495
 30
0.0
 10
287.3049222439832
 20
56.64425996847782
 30
0.0
 10
291.1286767867556
 20
61.64100492843741
 30
0.0
 10
294.2461867550517
 20
67.35106767454135
 30
0.0
 10
295.975150988018
 20
70.5126640991253
 30
0.0
 10
297.3795656944268
 20
73.66191200957931
 30
0.0
 10
298.5765425889301
 20
77.06092395975224
 30
0.0
 10
299.6034609575427
 20
79.96957501425511
 30
0.0
 10
300.4028523012014
 20
82.80661652932005
 30
0.0
 10
301.0452764818134
 20
85.82392266565069
 30
0.0
 10
301.6975622482518
 20
88.87650873293495
 30
0.0
 10
302.1431207537286
 20
91.8250260017562
 30
0.0
 10
302.422151956187
 20
94.93440769789184
 30
0.0
 10
302.6511216148754
 20
97.45253564729486
 30
0.0
 10
302.7604818646854
 20
99.8634134678727
 30
0.0
 10
302.7604818646854
 20
102.3921243199694
 30
0.0
 10
302.7604818646854
 20
102.6355418478491
 30
0.0
 10
302.7597713137415
 20
102.8676766880146
 30
0.0
 10
302.7576611927567
 20
103.1110834499709
 30
0.0
 10
302.693797735199
 20
109.3460818547164
 30
0.0
 10
301.814329453355
 20
115.2939207848429
 30
0.0
 10
300.0708958193508
 20
121.2802048274002
 30
0.0
 10
297.7908885635189
 20
129.1305654414858
 30
0.0
 10
294.2733384138449
 20
136.2517392983481
 30
0.0
 10
289.4237205629523
 20
142.8328083105103
 30
0.0
 10
287.5790441853752
 20
145.3347120133625
 30
0.0
 10
285.6556904396538
 20
147.5998945926844
 30
0.0
 10
283.4854094750271
 20
149.8255662331599
 30
0.0
 10
282.6288510781601
 20
150.7029243940191
 30
0.0
 10
281.7888937351626
 20
151.5160853536954
 30
0.0
 10
280.8847284250587
 20
152.3440494580349
 30
0.0
 10
282.7897370373212
 20
154.2592856975192
 30
0.0
 10
284.4844656339027
 20
156.2069704301052
 30
0.0
 10
286.1181945085486
 20
158.3582064762524
 30
0.0
 10
288.7537786821519
 20
161.827417629899
 30
0.0
 10
290.9177292838244
 20
165.405644523807
 30
0.0
 10
292.7655708428785
 20
169.3511185964426
 30
0.0
 10
294.2610006656384
 20
172.5402219552916
 30
0.0
 10
295.434335592374
 20
175.7007633193832
 30
0.0
 10
296.3822536151405
 20
179.0930734822449
 30
0.0
 10
297.2077630889468
 20
182.0384148036657
 30
0.0
 10
297.8011161907407
 20
184.9015475340697
 30
0.0
 10
298.2145922445111
 20
187.9322626279844
 30
0.0
 10
298.5888803371366
 20
190.6652353445863
 30
0.0
 10
298.7938419866623
 20
193.2916684833068
 30
0.0
 10
298.8478223265468
 20
196.0493382281686
 30
0.0
 10
298.8587605047124
 20
196.5686217770297
 30
0.0
 10
298.8636912976257
 20
197.0635743390262
 30
0.0
 10
298.8636912976257
 20
197.5828578878873
 30
0.0
 10
298.8636912976257
 20
201.0115030421951
 30
0.0
 10
298.6396739636973
 20
204.2810493806246
 30
0.0
 10
298.1718945923407
 20
207.6775905513792
 30
0.0
 10
297.7044597305327
 20
211.0536764676901
 30
0.0
 10
297.0222016333725
 20
214.2410357469497
 30
0.0
 10
296.0661661043689
 20
217.512692206364
 30
0.0
 10
295.0769715313198
 20
220.8866464698434
 30
0.0
 10
293.8740087834109
 20
224.0288534663995
 30
0.0
 10
292.3574131552635
 20
227.2010327936772
 30
0.0
 10
290.506040373337
 20
231.0656978453369
 30
0.0
 10
288.3593798446311
 20
234.5719653072967
 30
0.0
 10
285.7594093456066
 20
237.9783895957246
 30
0.0
 10
282.5120838730569
 20
242.227936408627
 30
0.0
 10
278.887649635953
 20
245.8866062821156
 30
0.0
 10
274.6691302142646
 20
249.1734426935118
 30
0.0
 10
271.8564466008727
 20
251.367365625906
 30
0.0
 10
269.0028094148999
 20
253.2413253151077
 30
0.0
 10
265.8715621283564
 20
254.9501788031787
 30
0.0
 10
263.1816315734733
 20
256.4212561072272
 30
0.0
 10
260.5245155530872
 20
257.6556338195922
 30
0.0
 10
257.6652370232573
 20
258.7622846168415
 30
0.0
 10
254.8521873684701
 20
259.8537769939558
 30
0.0
 10
252.107931964154
 20
260.7346663776874
 30
0.0
 10
249.1855220595569
 20
261.4846636648263
 30
0.0
 10
246.3322509149795
 20
262.2191580222816
 30
0.0
 10
243.574947211513
 20
262.7754978794559
 30
0.0
 10
240.6602887717577
 20
263.2044553310631
 30
0.0
 10
237.8546460722638
 20
263.6200415058181
 30
0.0
 10
235.1615503359036
 20
263.8923763039271
 30
0.0
 10
232.3294449967137
 20
264.0472548778359
 30
0.0
 10
230.4688996480577
 20
264.1509737837886
 30
0.0
 10
228.6930175209518
 20
264.2003463084616
 30
0.0
 10
226.8296515003672
 20
264.2003463084616
 30
0.0
 10
226.8296515003672
 20
264.2003463084616
 30
0.0
 10
226.7887194596331
 20
264.2003463084616
 30
0.0
 10
226.7887194596331
 20
264.2003463084616
 30
0.0
 10
226.7887194596331
 20
264.2003463084616
 30
0.0
 10
135.6048364936053
 20
264.2003463084616
 30
0.0
 10
135.6048364936053
 20
264.2003463084616
 30
0.0
 10
135.6048364936053
 20
264.2003463084616
 30
0.0
 10
135.6044919840567
 20
264.2003463084616
 30
0.0
 10
135.6044919840567
 20
264.2003463084616
 30
0.0
 10
125.4610758149889
 20
264.2003463084616
 30
0.0
 10
117.2381711878671
 20
255.9774632131866
 30
0.0
 10
117.2381711878671
 20
245.8340470441187
 30
0.0
 10
117.2381711878671
 20
245.8340470441187
 30
0.0
 10
117.2381711878671
 20
245.8329919836264
 30
0.0
 10
117.2381711878671
 20
245.8329919836264
 30
0.0
 10
117.2381711878671
 20
245.8329919836264
 30
0.0
 10
117.2381711878671
 20
51.16738712303172
 30
0.0
 10
117.2381711878671
 20
51.16738712303172
 30
0.0
 10
117.2381711878671
 20
51.16738712303172
 30
0.0
 10
117.2381711878671
 20
51.16597678706745
 30
0.0
 10
117.2381711878671
 20
51.16597678706745
 30
0.0
 10
117.2381711878671
 20
41.02291051050978
 30
0.0
 10
125.4610758149889
 20
32.8000112663497
 30
0.0
 10
135.6044919840567
 20
32.8000112663497
 30
0.0
  0
LWPOLYLINE
  5
C3
330
B0
100
AcDbEntity
  8
レイヤー 1
100
AcDbPolyline
 90
        4
 70
     1
 43
0.0
 10
0.0
 20
297.0000884267266
 10
419.9999449633593
 20
297.0000884267266
 10
419.9999449633593
 20
0.0
 10
0.0
 20
0.0
  0
ENDBLK
  5
B3
330
B0
100
AcDbEntity
  8
0
100
AcDbBlockEnd
  0
BLOCK
  5
D0
330
CE
100
AcDbEntity
  8
0
100
AcDbBlockBegin
  2
Block_5
 70
     0
 10
0.0
 20
0.0
 30
0.0
  3
Block_5
  1

  0
SPLINE
  5
D2
330
CE
100
AcDbEntity
  8
レイヤー 1
 62
   252
370
    18
100
AcDbSpline
210
0.0
220
0.0
230
1.0
 70
     9
 71
     3
 72
    17
 73
    13
 74
     0
 42
0.0000000001
 43
0.0000000001
 40
0.0
 40
0.0
 40
0.0
 40
0.0
 40
1.0
 40
1.0
 40
1.0
 40
2.0
 40
2.0
 40
2.0
 40
3.0
 40
3.0
 40
3.0
 40
4.0
 40
4.0
 40
4.0
 40
4.0
 10
243.3799117433542
 20
163.5000114879878
 30
0.0
 10
243.3799117433542
 20
165.7091036064405
 30
0.0
 10
241.5888496642665
 20
167.500154919605
 30
0.0
 10
239.3797467798903
 20
167.500154919605
 30
0.0
 10
237.170665427361
 20
167.500154919605
 30
0.0
 10
235.3799693896685
 20
165.7091036064405
 30
0.0
 10
235.3799693896685
 20
163.5000114879878
 30
0.0
 10
235.3799693896685
 20
161.2909086036117
 30
0.0
 10
237.170665427361
 20
159.4998572904473
 30
0.0
 10
239.3797467798903
 20
159.4998572904473
 30
0.0
 10
241.5888496642665
 20
159.4998572904473
 30
0.0
 10
243.3799117433542
 20
161.2909086036117
 30
0.0
 10
243.3799117433542
 20
163.5000114879878
 30
0.0
  0
LWPOLYLINE
  5
D3
330
CE
100
AcDbEntity
  8
レイヤー 1
100
AcDbPolyline
 90
        4
 70
     1
 43
0.0
 10
0.0
 20
297.0000884267266
 10
419.9999449633593
 20
297.0000884267266
 10
419.9999449633593
 20
0.0
 10
0.0
 20
0.0
  0
ENDBLK
  5
D1
330
CE
100
AcDbEntity
  8
0
100
AcDbBlockEnd
  0
BLOCK
  5
E1
330
DF
100
AcDbEntity
  8
0
100
AcDbBlockBegin
  2
Block_6
 70
     0
 10
0.0
 20
0.0
 30
0.0
  3
Block_6
  1

  0
SPLINE
  5
E3
330
DF
100
AcDbEntity
  8
レイヤー 1
 62
   112
370
    18
100
AcDbSpline
210
0.0
220
0.0
230
1.0
 70
     9
 71
     3
 72
    65
 73
    61
 74
     0
 42
0.0000000001
 43
0.0000000001
 40
0.0
 40
0.0
 40
0.0
 40
0.0
 40
1.0
 40
1.0
 40
1.0
 40
2.0
 40
2.0
 40
2.0
 40
3.0
 40
3.0
 40
3.0
 40
4.0
 40
4.0
 40
4.0
 40
5.0
 40
5.0
 40
5.0
 40
6.0
 40
6.0
 40
6.0
 40
7.0
 40
7.0
 40
7.0
 40
8.0
 40
8.0
 40
8.0
 40
9.0
 40
9.0
 40
9.0
 40
10.0
 40
10.0
 40
10.0
 40
11.0
 40
11.0
 40
11.0
 40
12.0
 40
12.0
 40
12.0
 40
13.0
 40
13.0
 40
13.0
 40
14.0
 40
14.0
 40
14.0
 40
15.0
 40
15.0
 40
15.0
 40
16.0
 40
16.0
 40
16.0
 40
17.0
 40
17.0
 40
17.0
 40
18.0
 40
18.0
 40
18.0
 40
19.0
 40
19.0
 40
19.0
 40
20.0
 40
20.0
 40
20.0
 40
20.0
 10
364.0530153847897
 20
253.2064221914727
 30
0.0
 10
366.6529858838142
 20
253.9031496896709
 30
0.0
 10
368.5001168919245
 20
255.8102684229181
 30
0.0
 10
368.5001168919245
 20
258.5019645892374
 30
0.0
 10
368.5001168919245
 20
258.5019645892374
 30
0.0
 10
368.5001168919245
 20
264.205664674617
 30
0.0
 10
368.5001168919245
 20
264.205664674617
 30
0.0
 10
368.5001168919245
 20
264.205664674617
 30
0.0
 10
366.5001958990434
 20
264.205664674617
 30
0.0
 10
366.5001958990434
 20
264.205664674617
 30
0.0
 10
366.5001958990434
 20
264.205664674617
 30
0.0
 10
366.5001958990434
 20
258.5019645892374
 30
0.0
 10
366.5001958990434
 20
258.5019645892374
 30
0.0
 10
366.5001958990434
 20
257.1561165060777
 30
0.0
 10
365.576651926835
 20
255.952443207225
 30
0.0
 10
364.276645145476
 20
255.6042517129001
 30
0.0
 10
364.276645145476
 20
255.6042517129001
 30
0.0
 10
339.9473377649481
 20
249.6916927137273
 30
0.0
 10
339.9473377649481
 20
249.6916927137273
 30
0.0
 10
337.3473672659236
 20
248.9949436836823
 30
0.0
 10
335.5002362578133
 20
246.5875970859768
 30
0.0
 10
335.5002362578133
 20
243.8959009196576
 30
0.0
 10
335.5002362578133
 20
243.8959009196576
 30
0.0
 10
335.5002362578133
 20
53.11191744006404
 30
0.0
 10
335.5002362578133
 20
53.11191744006404
 30
0.0
 10
335.5002362578133
 20
50.42022127374477
 30
0.0
 10
337.3473672659236
 20
48.01287467603931
 30
0.0
 10
339.9473377649481
 20
47.3161471778411
 30
0.0
 10
339.9473377649481
 20
47.3161471778411
 30
0.0
 10
364.276645145476
 20
41.4035881786682
 30
0.0
 10
364.276645145476
 20
41.4035881786682
 30
0.0
 10
365.5763074172865
 20
41.05539668434335
 30
0.0
 10
366.5001958990434
 20
39.85172338549063
 30
0.0
 10
366.5001958990434
 20
38.505875302331
 30
0.0
 10
366.5001958990434
 20
38.505875302331
 30
0.0
 10
366.5001958990434
 20
32.80568490797697
 30
0.0
 10
366.5001958990434
 20
32.80568490797697
 30
0.0
 10
366.5001958990434
 20
32.80568490797697
 30
0.0
 10
368.5001168919245
 20
32.80568490797697
 30
0.0
 10
368.5001168919245
 20
32.80568490797697
 30
0.0
 10
368.5001168919245
 20
32.80568490797697
 30
0.0
 10
368.5001168919245
 20
38.505875302331
 30
0.0
 10
368.5001168919245
 20
38.505875302331
 30
0.0
 10
368.5001168919245
 20
41.19757146865025
 30
0.0
 10
366.6529858838142
 20
43.10466867005065
 30
0.0
 10
364.0530153847897
 20
43.80141770009565
 30
0.0
 10
364.0530153847897
 20
43.80141770009565
 30
0.0
 10
339.723686472415
 20
49.71397669926855
 30
0.0
 10
339.723686472415
 20
49.71397669926855
 30
0.0
 10
338.4240457324513
 20
50.06251270314193
 30
0.0
 10
337.5001357188476
 20
51.7660693569044
 30
0.0
 10
337.5001357188476
 20
53.11191744006404
 30
0.0
 10
337.5001357188476
 20
53.11191744006404
 30
0.0
 10
337.5001357188476
 20
243.8959009196576
 30
0.0
 10
337.5001357188476
 20
243.8959009196576
 30
0.0
 10
337.5001357188476
 20
245.2417490028172
 30
0.0
 10
338.4240457324513
 20
246.9453056565797
 30
0.0
 10
339.723686472415
 20
247.2938631922998
 30
0.0
 10
339.723686472415
 20
247.2938631922998
 30
0.0
 10
364.0530153847897
 20
253.2064221914727
 30
0.0
 10
364.0530153847897
 20
253.2064221914727
 30
0.0
  0
LWPOLYLINE
  5
E4
330
DF
100
AcDbEntity
  8
レイヤー 1
100
AcDbPolyline
 90
        4
 70
     1
 43
0.0
 10
0.0
 20
297.0000884267266
 10
419.9999449633593
 20
297.0000884267266
 10
419.9999449633593
 20
0.0
 10
0.0
 20
0.0
  0
ENDBLK
  5
E2
330
DF
100
AcDbEntity
  8
0
100
AcDbBlockEnd
  0
BLOCK
  5
F9
330
F7
100
AcDbEntity
  8
0
100
AcDbBlockBegin
  2
Block_7
 70
     0
 10
0.0
 20
0.0
 30
0.0
  3
Block_7
  1

  0
CIRCLE
  5
FB
330
F7
100
AcDbEntity
  8
レイヤー 1
 62
   252
370
    18
100
AcDbCircle
 10
15.14019914619443
 20
21.27267534465911
 30
0.0
 40
2.296229988425062
  0
SPLINE
  5
FC
330
F7
100
AcDbEntity
  8
レイヤー 1
100
AcDbSpline
210
0.0
220
0.0
230
1.0
 70
     9
 71
     3
 72
    17
 73
    13
 74
     0
 42
0.0000000001
 43
0.0000000001
 40
0.0
 40
0.0
 40
0.0
 40
0.0
 40
1.0
 40
1.0
 40
1.0
 40
2.0
 40
2.0
 40
2.0
 40
3.0
 40
3.0
 40
3.0
 40
4.0
 40
4.0
 40
4.0
 40
4.0
 10
15.1402701340018
 20
16.34818116944947
 30
0.0
 10
15.93296103608973
 20
16.34818116944947
 30
0.0
 10
16.57536906781661
 20
15.70577179198217
 30
0.0
 10
16.57536906781661
 20
14.91308088989423
 30
0.0
 10
16.57536906781661
 20
14.12038864206588
 30
0.0
 10
15.93296103608973
 20
13.477980610339
 30
0.0
 10
15.1402701340018
 20
13.477980610339
 30
0.0
 10
14.34757788617344
 20
13.477980610339
 30
0.0
 10
13.70516985444656
 20
14.12038864206588
 30
0.0
 10
13.70516985444656
 20
14.91308088989423
 30
0.0
 10
13.70516985444656
 20
15.70577179198217
 30
0.0
 10
14.34757788617344
 20
16.34818116944947
 30
0.0
 10
15.1402701340018
 20
16.34818116944947
 30
0.0
  0
CIRCLE
  5
FD
330
F7
100
AcDbEntity
  8
レイヤー 1
 62
    29
370
    18
100
AcDbCircle
 10
15.14026979756669
 20
14.91308088989423
 30
0.0
 40
1.435099774902663
  0
LWPOLYLINE
  5
FE
330
F7
100
AcDbEntity
  8
レイヤー 1
100
AcDbPolyline
 90
        4
 70
     1
 43
0.0
 10
0.0
 20
297.0000884267266
 10
419.9999449633593
 20
297.0000884267266
 10
419.9999449633593
 20
0.0
 10
0.0
 20
0.0
  0
ENDBLK
  5
FA
330
F7
100
AcDbEntity
  8
0
100
AcDbBlockEnd
  0
BLOCK
  5
104
330
102
100
AcDbEntity
  8
0
100
AcDbBlockBegin
  2
Block_8
 70
     0
 10
0.0
 20
0.0
 30
0.0
  3
Block_8
  1

  0
LWPOLYLINE
  5
106
330
102
100
AcDbEntity
  8
レイヤー 1
100
AcDbPolyline
 90
        4
 70
     1
 43
0.0
 10
224.9480480055577
 20
291.8618792334039
 10
194.853287203077
 20
291.8618792334039
 10
194.853287203077
 20
278.7085692662604
 10
224.9480480055577
 20
278.7085692662604
  0
LWPOLYLINE
  5
107
330
102
100
AcDbEntity
  8
レイヤー 1
100
AcDbPolyline
 90
        4
 70
     1
 43
0.0
 10
0.0
 20
297.0000884267266
 10
419.9999449633593
 20
297.0000884267266
 10
419.9999449633593
 20
0.0
 10
0.0
 20
0.0
  0
ENDBLK
  5
105
330
102
100
AcDbEntity
  8
0
100
AcDbBlockEnd
  0
ENDSEC
  0
SECTION
  2
ENTITIES
  0
INSERT
  5
7A
330
70
100
AcDbEntity
  8
レイヤー 1
100
AcDbBlockReference
  2
Block_0
 10
0.0
 20
0.0
 30
0.0
  0
LINE
  5
8B
330
70
100
AcDbEntity
  8
レイヤー 1
  6
AI-Linetype-0
 62
    29
370
    25
100
AcDbLine
 10
3.347543771224779
 20
148.4999365541293
 30
0.0
 11
4.400232396085373
 21
148.4999365541293
 31
0.0
  0
LINE
  5
8D
330
70
100
AcDbEntity
  8
レイヤー 1
  6
AI-Linetype-1
 62
    29
370
    25
100
AcDbLine
 10
4.750893660523227
 20
148.4999365541293
 30
0.0
 11
417.0034439739827
 21
148.4999365541293
 31
0.0
  0
INSERT
  5
90
330
70
100
AcDbEntity
  8
レイヤー 1
100
AcDbBlockReference
  2
Block_1
 10
0.0
 20
0.0
 30
0.0
  0
LINE
  5
98
330
70
100
AcDbEntity
  8
レイヤー 1
  6
AI-Linetype-3
 62
    29
370
    25
100
AcDbLine
 10
1.057521935701899
 20
248.5000126535326
 30
0.0
 11
2.114444175827386
 21
248.5000126535326
 31
0.0
  0
LINE
  5
9A
330
70
100
AcDbEntity
  8
レイヤー 1
  6
AI-Linetype-4
 62
    29
370
    25
100
AcDbLine
 10
2.466904526994476
 20
248.5000126535326
 30
0.0
 11
419.2950353633837
 21
248.5000126535326
 31
0.0
  0
INSERT
  5
9D
330
70
100
AcDbEntity
  8
レイヤー 1
100
AcDbBlockReference
  2
Block_2
 10
0.0
 20
0.0
 30
0.0
  0
LINE
  5
A3
330
70
100
AcDbEntity
  8
レイヤー 1
  6
AI-Linetype-5
 62
    29
370
    25
100
AcDbLine
 10
1.057521935701899
 20
48.49999502876856
 30
0.0
 11
2.114444175827386
 21
48.49999502876856
 31
0.0
  0
LINE
  5
A5
330
70
100
AcDbEntity
  8
レイヤー 1
  6
AI-Linetype-6
 62
    29
370
    25
100
AcDbLine
 10
2.466904526994476
 20
48.49999502876856
 30
0.0
 11
419.2950353633837
 21
48.49999502876856
 31
0.0
  0
INSERT
  5
A8
330
70
100
AcDbEntity
  8
レイヤー 1
100
AcDbBlockReference
  2
Block_3
 10
0.0
 20
0.0
 30
0.0
  0
LWPOLYLINE
  5
AE
330
70
100
AcDbEntity
  8
レイヤー 1
100
AcDbPolyline
 90
        4
 70
     1
 43
0.0
 10
0.0
 20
29.41778608222482
 10
420.0002894729079
 20
29.41778608222482
 10
420.0002894729079
 20
29.59417497106961
 10
0.0
 20
29.59417497106961
  0
HATCH
  5
AF
330
70
100
AcDbEntity
  8
レイヤー 1
 62
    29
440
 33554687
100
AcDbHatch
 10
0.0
 20
0.0
 30
0.0
210
0.0
220
0.0
230
1.0
  2
SOLID
 70
     1
 71
     1
 91
        1
 92
        1
 93
        4
 72
     1
 10
0.0
 20
29.41778608222482
 11
420.0002894729079
 21
29.41778608222482
 72
     1
 10
420.0002894729079
 20
29.41778608222482
 11
420.0002894729079
 21
29.59417497106961
 72
     1
 10
420.0002894729079
 20
29.59417497106961
 11
0.0
 21
29.59417497106961
 72
     1
 10
0.0
 20
29.59417497106961
 11
0.0
 21
29.41778608222482
 97
        1
330
AE
 75
     2
 76
     1
 98
        1
 10
0.0
 20
0.0
450
        0
451
        0
460
0.0
461
0.0
452
        0
462
0.0
453
        0
470

  0
INSERT
  5
B1
330
70
100
AcDbEntity
  8
レイヤー 1
100
AcDbBlockReference
  2
Block_4
 10
0.0
 20
0.0
 30
0.0
  0
LINE
  5
C4
330
70
100
AcDbEntity
  8
レイヤー 1
 62
   252
370
    18
100
AcDbLine
 10
142.9307782133721
 20
61.69370950640003
 30
0.0
 11
152.9306092621688
 21
61.69370950640003
 31
0.0
  0
LINE
  5
C5
330
70
100
AcDbEntity
  8
レイヤー 1
 62
   252
370
    18
100
AcDbLine
 10
147.9307637162725
 20
56.69371862053794
 30
0.0
 11
147.9307637162725
 21
66.69355505229635
 31
0.0
  0
LINE
  5
C6
330
70
100
AcDbEntity
  8
レイヤー 1
 62
   252
370
    18
100
AcDbLine
 10
142.9307782133721
 20
223.7912926008447
 30
0.0
 11
152.9306092621688
 21
223.7912926008447
 31
0.0
  0
LINE
  5
C7
330
70
100
AcDbEntity
  8
レイヤー 1
 62
   252
370
    18
100
AcDbLine
 10
147.9307637162725
 20
218.7912532683274
 30
0.0
 11
147.9307637162725
 21
228.7910735512006
 31
0.0
  0
LINE
  5
C8
330
70
100
AcDbEntity
  8
レイヤー 1
 62
   252
370
    18
100
AcDbLine
 10
251.2816258120168
 20
223.7912926008447
 30
0.0
 11
261.2814460948901
 21
223.7912926008447
 31
0.0
  0
LINE
  5
C9
330
70
100
AcDbEntity
  8
レイヤー 1
 62
   252
370
    18
100
AcDbLine
 10
256.2816220808406
 20
218.7912532683274
 30
0.0
 11
256.2816220808406
 21
228.7910735512006
 31
0.0
  0
LINE
  5
CA
330
70
100
AcDbEntity
  8
レイヤー 1
 62
   252
370
    18
100
AcDbLine
 10
251.2816258120168
 20
70.13956025807274
 30
0.0
 11
261.2814460948901
 21
70.13956025807274
 31
0.0
  0
LINE
  5
CB
330
70
100
AcDbEntity
  8
レイヤー 1
 62
   252
370
    18
100
AcDbLine
 10
256.2816220808406
 20
65.13956937221066
 30
0.0
 11
256.2816220808406
 21
75.13940580396905
 31
0.0
  0
LINE
  5
CC
330
70
100
AcDbEntity
  8
レイヤー 1
 62
   252
370
    18
100
AcDbLine
 10
234.3798797021472
 20
163.5000114879878
 30
0.0
 11
244.3796999850206
 21
163.5000114879878
 31
0.0
  0
LINE
  5
CD
330
70
100
AcDbEntity
  8
レイヤー 1
 62
   252
370
    18
100
AcDbLine
 10
239.379875970971
 20
158.5000259850874
 30
0.0
 11
239.379875970971
 21
168.4998570338841
 31
0.0
  0
INSERT
  5
CF
330
70
100
AcDbEntity
  8
レイヤー 1
100
AcDbBlockReference
  2
Block_5
 10
0.0
 20
0.0
 30
0.0
  0
LWPOLYLINE
  5
D4
330
70
100
AcDbEntity
  8
レイヤー 1
 62
   140
370
    18
100
AcDbPolyline
 90
        4
 70
     1
 43
0.0
 10
365.999881907198
 20
267.5057431717846
 10
364.9997706878299
 20
267.5057431717846
 10
364.9997706878299
 20
261.4058571056012
 10
365.999881907198
 20
261.4058571056012
  0
LWPOLYLINE
  5
D5
330
70
100
AcDbEntity
  8
レイヤー 1
 62
   140
370
    18
100
AcDbPolyline
 90
        4
 70
     1
 43
0.0
 10
415.0000348219228
 20
267.5057431717846
 10
365.9999249708915
 20
267.5057431717846
 10
365.9999249708915
 20
267.0058598168749
 10
415.0000348219228
 20
267.0058598168749
  0
LWPOLYLINE
  5
D6
330
70
100
AcDbEntity
  8
レイヤー 1
 62
     1
370
    18
100
AcDbPolyline
 90
        4
 70
     1
 43
0.0
 10
370.0000253388151
 20
266.2057579222724
 10
368.9999141194471
 20
266.2057579222724
 10
368.9999141194471
 20
260.4057458862332
 10
370.0000253388151
 20
260.4057458862332
  0
LWPOLYLINE
  5
D7
330
70
100
AcDbEntity
  8
レイヤー 1
 62
     1
370
    18
100
AcDbPolyline
 90
        4
 70
     1
 43
0.0
 10
413.9998805388611
 20
266.2057579222724
 10
370.0000253388151
 20
266.2057579222724
 10
370.0000253388151
 20
265.7058745673626
 10
413.9998805388611
 20
265.7058745673626
  0
LWPOLYLINE
  5
D8
330
70
100
AcDbEntity
  8
レイヤー 1
 62
     1
370
    18
100
AcDbPolyline
 90
        7
 70
     0
 43
0.0
 10
414.9999917582292
 20
266.205693326732
 10
413.9998374751675
 20
266.205693326732
 10
413.9998374751675
 20
185.3860571503766
 10
413.9998374751675
 20
30.80554859662804
 10
414.9999917582292
 20
30.80554859662804
 10
414.9999917582292
 20
185.3860571503766
 10
414.9999917582292
 20
266.205693326732
  0
LINE
  5
D9
330
70
100
AcDbEntity
  8
レイヤー 1
 62
   133
370
    18
100
AcDbLine
 10
390.4999798964071
 20
274.3765770120266
 30
0.0
 11
390.4999798964071
 21
262.5257069249285
 31
0.0
  0
LWPOLYLINE
  5
DA
330
70
100
AcDbEntity
  8
レイヤー 1
 62
   140
370
    18
100
AcDbPolyline
 90
        4
 70
     1
 43
0.0
 10
365.999881907198
 20
29.50562794265615
 10
364.9997706878299
 20
29.50562794265615
 10
364.9997706878299
 20
35.60550862587781
 10
365.999881907198
 20
35.60550862587781
  0
LWPOLYLINE
  5
DB
330
70
100
AcDbEntity
  8
レイヤー 1
 62
   140
370
    18
100
AcDbPolyline
 90
        4
 70
     1
 43
0.0
 10
415.0000348219228
 20
29.50562794265615
 10
365.9999249708915
 20
29.50562794265615
 10
365.9999249708915
 20
30.00551398904675
 10
415.0000348219228
 20
30.00551398904675
  0
LWPOLYLINE
  5
DC
330
70
100
AcDbEntity
  8
レイヤー 1
 62
     1
370
    18
100
AcDbPolyline
 90
        4
 70
     1
 43
0.0
 10
370.0000253388151
 20
30.80561319216839
 10
368.9999141194471
 20
30.80561319216839
 10
368.9999141194471
 20
36.60563330265008
 10
370.0000253388151
 20
36.60563330265008
  0
LWPOLYLINE
  5
DD
330
70
100
AcDbEntity
  8
レイヤー 1
 62
     1
370
    18
100
AcDbPolyline
 90
        4
 70
     1
 43
0.0
 10
413.9998805388611
 20
30.80561319216839
 10
370.0000253388151
 20
30.80561319216839
 10
370.0000253388151
 20
31.30549923855899
 10
413.9998805388611
 20
31.30549923855899
  0
LINE
  5
DE
330
70
100
AcDbEntity
  8
レイヤー 1
 62
   133
370
    18
100
AcDbLine
 10
390.4999798964071
 20
22.63475103872066
 30
0.0
 11
390.4999798964071
 21
34.48561305137616
 31
0.0
  0
INSERT
  5
E0
330
70
100
AcDbEntity
  8
レイヤー 1
100
AcDbBlockReference
  2
Block_6
 10
0.0
 20
0.0
 30
0.0
  0
LINE
  5
E5
330
70
100
AcDbEntity
  8
レイヤー 1
 62
    29
370
    35
100
AcDbLine
 10
78.32749716601925
 20
48.49999502876856
 30
0.0
 11
78.32749716601925
 21
248.4999480579922
 31
0.0
  0
LINE
  5
E6
330
70
100
AcDbEntity
  8
レイヤー 1
 62
    29
370
    35
100
AcDbLine
 10
78.32749716601925
 20
248.4999911216858
 30
0.0
 11
75.75539425969342
 21
240.9537032478671
 31
0.0
  0
LINE
  5
E7
330
70
100
AcDbEntity
  8
レイヤー 1
 62
    29
370
    35
100
AcDbLine
 10
78.32749716601925
 20
248.4999911216858
 30
0.0
 11
80.89959468938339
 21
240.9537032478671
 31
0.0
  0
LINE
  5
E8
330
70
100
AcDbEntity
  8
レイヤー 1
 62
    29
370
    35
100
AcDbLine
 10
78.32749716601925
 20
48.49999502876856
 30
0.0
 11
80.89959468938339
 21
56.04626137074049
 31
0.0
  0
LINE
  5
E9
330
70
100
AcDbEntity
  8
レイヤー 1
 62
    29
370
    35
100
AcDbLine
 10
78.32749716601925
 20
48.49999502876856
 30
0.0
 11
75.75539425969342
 21
56.04626137074049
 31
0.0
  0
MTEXT
  5
EA
330
70
100
AcDbEntity
  8
レイヤー 1
100
AcDbMText
 10
75.23324159224855
 20
109.3990071341086
 30
0.0
 40
0.2
 41
0.0
 46
0.0
 71
     7
 72
     1
  1
\C29;\FMS UI Gothic|b0|i0|c128;\H5.696928;\W1.000000;TOP面 H200(基準寸)
 11
-0.0000000000000002
 21
1.0
 31
0.0
 73
     1
 44
1.0
  0
MTEXT
  5
EB
330
70
100
AcDbEntity
  8
レイヤー 1
100
AcDbMText
 10
332.2202039100005
 20
16.17920192737817
 30
0.0
 40
0.2
 41
0.0
 46
0.0
 71
     7
 72
     1
  1
\C29;\FKozuka Gothic Pr6N R|b0|i0|c128;\H3.102177;\W1.000000;※成型文字の断面は
 73
     1
 44
1.0
  0
MTEXT
  5
EC
330
70
100
AcDbEntity
  8
レイヤー 1
100
AcDbMText
 10
332.2202039100005
 20
8.511452905857606
 30
0.0
 40
0.2
 41
0.0
 46
0.0
 71
     7
 72
     1
  1
\C29;\FKozuka Gothic Pr6N R|b0|i0|c128;\H3.102177;\W1.000000;　実際のものと異なる場合があります
 73
     1
 44
1.0
  0
MTEXT
  5
ED
330
70
100
AcDbEntity
  8
レイヤー 1
100
AcDbMText
 10
20.53173556344313
 20
40.79992132226466
 30
0.0
 40
0.2
 41
0.0
 46
0.0
 71
     7
 72
     1
  1
\C29;\FKozuka Gothic Pr6N R|b0|i0|c128;\H2.497667;\W1.000000;材質：アクリル
 73
     1
 44
1.0
  0
MTEXT
  5
EE
330
70
100
AcDbEntity
  8
レイヤー 1
100
AcDbMText
 10
20.53173556344313
 20
34.62631021269695
 30
0.0
 40
0.2
 41
0.0
 46
0.0
 71
     7
 72
     1
  1
\C29;\FKozuka Gothic Pr6N R|b0|i0|c128;\H2.497667;\W1.000000;色：乳白色
 73
     1
 44
1.0
  0
SPLINE
  5
EF
330
70
100
AcDbEntity
  8
レイヤー 1
100
AcDbSpline
210
0.0
220
0.0
230
1.0
 70
    11
 71
     3
 72
    17
 73
    13
 74
     0
 42
0.0000000001
 43
0.0000000001
 40
0.0
 40
0.0
 40
0.0
 40
0.0
 40
1.0
 40
1.0
 40
1.0
 40
2.0
 40
2.0
 40
2.0
 40
3.0
 40
3.0
 40
3.0
 40
4.0
 40
4.0
 40
4.0
 40
4.0
 10
61.45600330087949
 20
10.50819189550697
 30
0.0
 10
61.45600330087949
 20
10.50819189550697
 30
0.0
 10
10.38471819300115
 20
10.50819189550697
 30
0.0
 10
10.38471819300115
 20
10.50819189550697
 30
0.0
 10
10.38471819300115
 20
10.50819189550697
 30
0.0
 10
10.38471819300115
 20
29.41778608222482
 30
0.0
 10
10.38471819300115
 20
29.41778608222482
 30
0.0
 10
10.38471819300115
 20
29.41778608222482
 30
0.0
 10
61.45600330087949
 20
29.41778608222482
 30
0.0
 10
61.45600330087949
 20
29.41778608222482
 30
0.0
 10
61.45600330087949
 20
29.41778608222482
 30
0.0
 10
61.45600330087949
 20
10.50819189550697
 30
0.0
 10
61.45600330087949
 20
10.50819189550697
 30
0.0
  0
SPLINE
  5
F0
330
70
100
AcDbEntity
  8
レイヤー 1
100
AcDbSpline
210
0.0
220
0.0
230
1.0
 70
    11
 71
     3
 72
    17
 73
    13
 74
     0
 42
0.0000000001
 43
0.0000000001
 40
0.0
 40
0.0
 40
0.0
 40
0.0
 40
1.0
 40
1.0
 40
1.0
 40
2.0
 40
2.0
 40
2.0
 40
3.0
 40
3.0
 40
3.0
 40
4.0
 40
4.0
 40
4.0
 40
4.0
 10
61.45600330087949
 20
29.59382238707854
 30
0.0
 10
61.45600330087949
 20
29.59382238707854
 30
0.0
 10
10.38471819300115
 20
29.59382238707854
 30
0.0
 10
10.38471819300115
 20
29.59382238707854
 30
0.0
 10
10.38471819300115
 20
29.59382238707854
 30
0.0
 10
10.38471819300115
 20
32.50812016840021
 30
0.0
 10
10.38471819300115
 20
32.50812016840021
 30
0.0
 10
10.38471819300115
 20
32.50812016840021
 30
0.0
 10
61.45600330087949
 20
32.50812016840021
 30
0.0
 10
61.45600330087949
 20
32.50812016840021
 30
0.0
 10
61.45600330087949
 20
32.50812016840021
 30
0.0
 10
61.45600330087949
 20
29.59382238707854
 30
0.0
 10
61.45600330087949
 20
29.59382238707854
 30
0.0
  0
LWPOLYLINE
  5
F1
330
70
100
AcDbEntity
  8
レイヤー 1
100
AcDbPolyline
 90
        4
 70
     1
 43
0.0
 10
10.3843669547505
 20
29.41778608222482
 10
61.45600868384119
 20
29.41778608222482
 10
61.45600868384119
 20
29.59417497106961
 10
10.3843669547505
 20
29.59417497106961
  0
HATCH
  5
F2
330
70
100
AcDbEntity
  8
レイヤー 1
 62
   255
440
 33554687
100
AcDbHatch
 10
0.0
 20
0.0
 30
0.0
210
0.0
220
0.0
230
1.0
  2
SOLID
 70
     1
 71
     1
 91
        1
 92
        1
 93
        4
 72
     1
 10
10.3843669547505
 20
29.41778608222482
 11
61.45600868384119
 21
29.41778608222482
 72
     1
 10
61.45600868384119
 20
29.41778608222482
 11
61.45600868384119
 21
29.59417497106961
 72
     1
 10
61.45600868384119
 20
29.59417497106961
 11
10.3843669547505
 21
29.59417497106961
 72
     1
 10
10.3843669547505
 20
29.59417497106961
 11
10.3843669547505
 21
29.41778608222482
 97
        1
330
F1
 75
     2
 76
     1
 98
        1
 10
0.0
 20
0.0
450
        0
451
        0
460
0.0
461
0.0
452
        0
462
0.0
453
        0
470

  0
LINE
  5
F3
330
70
100
AcDbEntity
  8
レイヤー 1
 62
   252
370
    18
100
AcDbLine
 10
12.26999959638929
 20
27.94384504255424
 30
0.0
 11
18.0103993688698
 21
27.94384504255424
 31
0.0
  0
LINE
  5
F4
330
70
100
AcDbEntity
  8
レイヤー 1
 62
   252
370
    18
100
AcDbLine
 10
15.14023379901035
 20
25.07357450494173
 30
0.0
 11
15.14023379901035
 21
30.81397293168182
 31
0.0
  0
LINE
  5
F5
330
70
100
AcDbEntity
  8
レイヤー 1
 62
   252
370
    18
100
AcDbLine
 10
12.26999959638929
 20
21.27267601752933
 30
0.0
 11
18.0103993688698
 21
21.27267601752933
 31
0.0
  0
LINE
  5
F6
330
70
100
AcDbEntity
  8
レイヤー 1
 62
   252
370
    18
100
AcDbLine
 10
15.14023379901035
 20
18.40240547991681
 30
0.0
 11
15.14023379901035
 21
24.1428039066569
 31
0.0
  0
INSERT
  5
F8
330
70
100
AcDbEntity
  8
レイヤー 1
100
AcDbBlockReference
  2
Block_7
 10
0.0
 20
0.0
 30
0.0
  0
MTEXT
  5
FF
330
70
100
AcDbEntity
  8
レイヤー 1
100
AcDbMText
 10
20.84110513801857
 20
26.58407931192973
 30
0.0
 40
0.2
 41
0.0
 46
0.0
 71
     7
 72
     1
  1
\C29;\FKozuka Gothic Pr6N R|b0|i0|c128;\H2.437423;\W1.000000;ベース仮固定穴位置
 73
     1
 44
1.0
  0
MTEXT
  5
100
330
70
100
AcDbEntity
  8
レイヤー 1
100
AcDbMText
 10
20.84110513801857
 20
19.95709363650314
 30
0.0
 40
0.2
 41
0.0
 46
0.0
 71
     7
 72
     1
  1
\C29;\FKozuka Gothic Pr6N R|b0|i0|c128;\H2.437423;\W1.000000;ベース電源穴位置 
 73
     1
 44
1.0
  0
MTEXT
  5
101
330
70
100
AcDbEntity
  8
レイヤー 1
100
AcDbMText
 10
20.84110513801857
 20
13.65704752262676
 30
0.0
 40
0.2
 41
0.0
 46
0.0
 71
     7
 72
     1
  1
\C29;\FKozuka Gothic Pr6N R|b0|i0|c128;\H2.437423;\W1.000000;本体/ベース仮固定穴位置
 73
     1
 44
1.0
  0
INSERT
  5
103
330
70
100
AcDbEntity
  8
レイヤー 1
100
AcDbBlockReference
  2
Block_8
 10
0.0
 20
0.0
 30
0.0
  0
MTEXT
  5
108
330
70
100
AcDbEntity
  8
レイヤー 1
100
AcDbMText
 10
197.823067170596
 20
282.3257472709978
 30
0.0
 40
0.2
 41
0.0
 46
0.0
 71
     7
 72
     1
  1
\C29;\FA-OTF Shin Go Pro B|b0|i0|c128;\H5.696928;\W1.000000;↑上↑
 73
     1
 44
1.0
  0
ENDSEC
  0
SECTION
  2
OBJECTS
  0
DICTIONARY
  5
C
330
0
100
AcDbDictionary
281
     1
  3
ACAD_COLOR
350
63
  3
ACAD_DETAILVIEWSTYLE
350
6A
  3
ACAD_GROUP
350
D
  3
ACAD_LAYOUT
350
62
  3
ACAD_MATERIAL
350
10
  3
ACAD_MLEADERSTYLE
350
66
  3
ACAD_MLINESTYLE
350
5F
  3
ACAD_PLOTSETTINGS
350
61
  3
ACAD_PLOTSTYLENAME
350
E
  3
ACAD_SCALELIST
350
42
  3
ACAD_SECTIONVIEWSTYLE
350
68
  3
ACAD_TABLESTYLE
350
64
  3
ACAD_VISUALSTYLE
350
29
  3
ACDB_RECOMPOSE_DATA
350
114
  3
AcDbVariableDictionary
350
109
  0
DICTIONARY
  5
63
102
{ACAD_REACTORS
330
C
102
}
330
C
100
AcDbDictionary
281
     1
  0
DICTIONARY
  5
6A
102
{ACAD_REACTORS
330
C
102
}
330
C
100
AcDbDictionary
281
     1
  3
Imperial24
350
6B
  0
DICTIONARY
  5
D
102
{ACAD_REACTORS
330
C
102
}
330
C
100
AcDbDictionary
281
     1
  0
DICTIONARY
  5
62
102
{ACAD_REACTORS
330
C
102
}
330
C
100
AcDbDictionary
281
     1
  3
Layout1
350
6F
  3
Layout2
350
77
  3
Model
350
73
  0
DICTIONARY
  5
10
102
{ACAD_REACTORS
330
C
102
}
330
C
100
AcDbDictionary
281
     1
  3
ByBlock
350
19
  3
ByLayer
350
11
  3
Global
350
21
  0
DICTIONARY
  5
66
102
{ACAD_REACTORS
330
C
102
}
330
C
100
AcDbDictionary
281
     1
  3
Standard
350
67
  0
DICTIONARY
  5
5F
102
{ACAD_REACTORS
330
C
102
}
330
C
100
AcDbDictionary
281
     1
  3
Standard
350
60
  0
DICTIONARY
  5
61
102
{ACAD_REACTORS
330
C
102
}
330
C
100
AcDbDictionary
281
     1
  0
ACDBDICTIONARYWDFLT
  5
E
102
{ACAD_REACTORS
330
C
102
}
330
C
100
AcDbDictionary
281
     1
  3
Normal
350
F
100
AcDbDictionaryWithDefault
340
F
  0
DICTIONARY
  5
42
102
{ACAD_REACTORS
330
C
102
}
330
C
100
AcDbDictionary
281
     1
  3
A0
350
43
  3
A1
350
44
  3
A2
350
45
  3
A3
350
46
  3
A4
350
47
  3
A5
350
48
  3
A6
350
49
  3
A7
350
4A
  3
A8
350
4B
  3
A9
350
4C
  3
B0
350
4D
  3
B1
350
4E
  3
B2
350
4F
  3
B3
350
50
  3
B4
350
51
  3
B5
350
52
  3
B6
350
53
  0
DICTIONARY
  5
68
102
{ACAD_REACTORS
330
C
102
}
330
C
100
AcDbDictionary
281
     1
  3
Imperial24
350
69
  0
DICTIONARY
  5
64
102
{ACAD_REACTORS
330
C
102
}
330
C
100
AcDbDictionary
281
     1
  3
Standard
350
65
  0
DICTIONARY
  5
29
102
{ACAD_REACTORS
330
C
102
}
330
C
100
AcDbDictionary
281
     1
  3
2dWireframe
350
2F
  3
Basic
350
2E
  3
Brighten
350
35
  3
ColorChange
350
39
  3
Conceptual
350
32
  3
Dim
350
34
  3
EdgeColorOff
350
41
  3
Facepattern
350
38
  3
Flat
350
2A
  3
FlatWithEdges
350
2B
  3
Gouraud
350
2C
  3
GouraudWithEdges
350
2D
  3
Hidden
350
31
  3
JitterOff
350
3F
  3
Linepattern
350
37
  3
OverhangOff
350
40
  3
Realistic
350
33
  3
Shaded
350
3E
  3
Shaded with edges
350
3D
  3
Shades of Gray
350
3A
  3
Sketchy
350
3B
  3
Thicken
350
36
  3
Wireframe
350
30
  3
X-Ray
350
3C
  0
XRECORD
  5
114
102
{ACAD_REACTORS
330
C
102
}
330
C
100
AcDbXrecord
280
     1
 90
        1
330
65
  0
DICTIONARY
  5
109
102
{ACAD_REACTORS
330
C
102
}
330
C
100
AcDbDictionary
281
     1
  3
CANNOSCALE
350
10E
  3
CMLEADERSTYLE
350
10B
  3
CTABLESTYLE
350
10A
  3
CVIEWDETAILSTYLE
350
10C
  3
CVIEWSECTIONSTYLE
350
10D
  0
ACDBDETAILVIEWSTYLE
  5
6B
102
{ACAD_XDICTIONARY
360
149
102
}
102
{ACAD_REACTORS
330
6A
102
}
330
6A
100
AcDbModelDocViewStyle
 70
     0
  3
Imperial24
290
     0
100
AcDbDetailViewStyle
 70
     0
 71
     0
 90
        3
 71
     1
340
55
 62
   256
 40
0.24
340
0
 62
   256
 40
0.24
300

 40
0.36
280
     3
 71
     2
340
5D
 90
       25
 62
   256
 71
     3
340
55
 62
   256
 40
0.24
 90
        1
 40
0.75
 90
        1
300
%<\AcVar ViewType \f "%tc1">% %<\AcVar ViewDetailId>%\PSCALE %<\AcVar ViewScale \f "%sn">%
 71
     4
340
5D
 90
       25
 62
   256
340
5D
 90
       25
 62
   256
280
     0
  0
LAYOUT
  5
6F
102
{ACAD_REACTORS
330
62
102
}
330
62
100
AcDbPlotSettings
  1

  2

  4

  6

 40
0.0
 41
0.0
 42
0.0
 43
0.0
 44
0.0
 45
0.0
 46
0.0
 47
0.0
 48
0.0
 49
0.0
140
0.0
141
0.0
142
1.0
143
1.0
 70
   688
 72
     0
 73
     0
 74
     5
  7

 75
    16
147
1.0
 76
     0
 77
     2
 78
   300
148
0.0
149
0.0
100
AcDbLayout
  1
Layout1
 70
     1
 71
     1
 10
0.0
 20
0.0
 11
12.0
 21
9.0
 12
0.0
 22
0.0
 32
0.0
 14
0.0
 24
0.0
 34
0.0
 15
0.0
 25
0.0
 35
0.0
146
0.0
 13
0.0
 23
0.0
 33
0.0
 16
1.0
 26
0.0
 36
0.0
 17
0.0
 27
1.0
 37
0.0
 76
     0
330
6C
  0
LAYOUT
  5
77
102
{ACAD_REACTORS
330
62
102
}
330
62
100
AcDbPlotSettings
  1

  2

  4

  6

 40
0.0
 41
0.0
 42
0.0
 43
0.0
 44
0.0
 45
0.0
 46
0.0
 47
0.0
 48
0.0
 49
0.0
140
0.0
141
0.0
142
1.0
143
1.0
 70
   688
 72
     0
 73
     0
 74
     5
  7

 75
    16
147
1.0
 76
     0
 77
     2
 78
   300
148
0.0
149
0.0
100
AcDbLayout
  1
Layout2
 70
     1
 71
     2
 10
0.0
 20
0.0
 11
12.0
 21
9.0
 12
0.0
 22
0.0
 32
0.0
 14
0.0
 24
0.0
 34
0.0
 15
0.0
 25
0.0
 35
0.0
146
0.0
 13
0.0
 23
0.0
 33
0.0
 16
1.0
 26
0.0
 36
0.0
 17
0.0
 27
1.0
 37
0.0
 76
     0
330
74
  0
LAYOUT
  5
73
102
{ACAD_REACTORS
330
62
102
}
330
62
100
AcDbPlotSettings
  1

  2

  4

  6

 40
0.0
 41
0.0
 42
0.0
 43
0.0
 44
0.0
 45
0.0
 46
0.0
 47
0.0
 48
0.0
 49
0.0
140
0.0
141
0.0
142
1.0
143
1.0
 70
  1712
 72
     0
 73
     0
 74
     0
  7

 75
     0
147
1.0
 76
     0
 77
     2
 78
   300
148
0.0
149
0.0
100
AcDbLayout
  1
Model
 70
     1
 71
     0
 10
0.0
 20
0.0
 11
12.0
 21
9.0
 12
0.0
 22
0.0
 32
0.0
 14
0.0
 24
0.0
 34
0.0
 15
0.0
 25
0.0
 35
0.0
146
0.0
 13
0.0
 23
0.0
 33
0.0
 16
1.0
 26
0.0
 36
0.0
 17
0.0
 27
1.0
 37
0.0
 76
     0
330
70
  0
MATERIAL
  5
19
102
{ACAD_XDICTIONARY
360
1A
102
}
102
{ACAD_REACTORS
330
10
102
}
330
10
100
AcDbMaterial
  1
ByBlock
 72
     0
 43
0.0208333333333333
 43
0.0
 43
0.0
 43
0.0
 43
0.0
 43
0.0208333333333333
 43
0.0
 43
0.0
 43
0.0
 43
0.0
 43
1.0
 43
0.0
 43
0.0
 43
0.0
 43
0.0
 43
1.0
 77
     0
 47
0.0208333333333333
 47
0.0
 47
0.0
 47
0.0
 47
0.0
 47
0.0208333333333333
 47
0.0
 47
0.0
 47
0.0
 47
0.0
 47
1.0
 47
0.0
 47
0.0
 47
0.0
 47
0.0
 47
1.0
171
     0
 49
0.0208333333333333
 49
0.0
 49
0.0
 49
0.0
 49
0.0
 49
0.0208333333333333
 49
0.0
 49
0.0
 49
0.0
 49
0.0
 49
1.0
 49
0.0
 49
0.0
 49
0.0
 49
0.0
 49
1.0
175
     0
142
0.0208333333333333
142
0.0
142
0.0
142
0.0
142
0.0
142
0.0208333333333333
142
0.0
142
0.0
142
0.0
142
0.0
142
1.0
142
0.0
142
0.0
142
0.0
142
0.0
142
1.0
179
     0
144
0.0208333333333333
144
0.0
144
0.0
144
0.0
144
0.0
144
0.0208333333333333
144
0.0
144
0.0
144
0.0
144
0.0
144
1.0
144
0.0
144
0.0
144
0.0
144
0.0
144
1.0
147
0.0208333333333333
147
0.0
147
0.0
147
0.0
147
0.0
147
0.0208333333333333
147
0.0
147
0.0
147
0.0
147
0.0
147
1.0
147
0.0
147
0.0
147
0.0
147
0.0
147
1.0
  0
MATERIAL
  5
11
102
{ACAD_XDICTIONARY
360
12
102
}
102
{ACAD_REACTORS
330
10
102
}
330
10
100
AcDbMaterial
  1
ByLayer
 72
     0
 43
0.0208333333333333
 43
0.0
 43
0.0
 43
0.0
 43
0.0
 43
0.0208333333333333
 43
0.0
 43
0.0
 43
0.0
 43
0.0
 43
1.0
 43
0.0
 43
0.0
 43
0.0
 43
0.0
 43
1.0
 77
     0
 47
0.0208333333333333
 47
0.0
 47
0.0
 47
0.0
 47
0.0
 47
0.0208333333333333
 47
0.0
 47
0.0
 47
0.0
 47
0.0
 47
1.0
 47
0.0
 47
0.0
 47
0.0
 47
0.0
 47
1.0
171
     0
 49
0.0208333333333333
 49
0.0
 49
0.0
 49
0.0
 49
0.0
 49
0.0208333333333333
 49
0.0
 49
0.0
 49
0.0
 49
0.0
 49
1.0
 49
0.0
 49
0.0
 49
0.0
 49
0.0
 49
1.0
175
     0
142
0.0208333333333333
142
0.0
142
0.0
142
0.0
142
0.0
142
0.0208333333333333
142
0.0
142
0.0
142
0.0
142
0.0
142
1.0
142
0.0
142
0.0
142
0.0
142
0.0
142
1.0
179
     0
144
0.0208333333333333
144
0.0
144
0.0
144
0.0
144
0.0
144
0.0208333333333333
144
0.0
144
0.0
144
0.0
144
0.0
144
1.0
144
0.0
144
0.0
144
0.0
144
0.0
144
1.0
147
0.0208333333333333
147
0.0
147
0.0
147
0.0
147
0.0
147
0.0208333333333333
147
0.0
147
0.0
147
0.0
147
0.0
147
1.0
147
0.0
147
0.0
147
0.0
147
0.0
147
1.0
  0
MATERIAL
  5
21
102
{ACAD_XDICTIONARY
360
22
102
}
102
{ACAD_REACTORS
330
10
102
}
330
10
100
AcDbMaterial
  1
Global
 72
     0
 43
0.0208333333333333
 43
0.0
 43
0.0
 43
0.0
 43
0.0
 43
0.0208333333333333
 43
0.0
 43
0.0
 43
0.0
 43
0.0
 43
1.0
 43
0.0
 43
0.0
 43
0.0
 43
0.0
 43
1.0
 77
     0
 47
0.0208333333333333
 47
0.0
 47
0.0
 47
0.0
 47
0.0
 47
0.0208333333333333
 47
0.0
 47
0.0
 47
0.0
 47
0.0
 47
1.0
 47
0.0
 47
0.0
 47
0.0
 47
0.0
 47
1.0
171
     0
 49
0.0208333333333333
 49
0.0
 49
0.0
 49
0.0
 49
0.0
 49
0.0208333333333333
 49
0.0
 49
0.0
 49
0.0
 49
0.0
 49
1.0
 49
0.0
 49
0.0
 49
0.0
 49
0.0
 49
1.0
175
     0
142
0.0208333333333333
142
0.0
142
0.0
142
0.0
142
0.0
142
0.0208333333333333
142
0.0
142
0.0
142
0.0
142
0.0
142
1.0
142
0.0
142
0.0
142
0.0
142
0.0
142
1.0
179
     0
144
0.0208333333333333
144
0.0
144
0.0
144
0.0
144
0.0
144
0.0208333333333333
144
0.0
144
0.0
144
0.0
144
0.0
144
1.0
144
0.0
144
0.0
144
0.0
144
0.0
144
1.0
147
0.0208333333333333
147
0.0
147
0.0
147
0.0
147
0.0
147
0.0208333333333333
147
0.0
147
0.0
147
0.0
147
0.0
147
1.0
147
0.0
147
0.0
147
0.0
147
0.0
147
1.0
  0
MLEADERSTYLE
  5
67
102
{ACAD_XDICTIONARY
360
145
102
}
102
{ACAD_REACTORS
330
66
102
}
330
66
100
AcDbMLeaderStyle
179
     2
170
     2
171
     1
172
     0
 90
        2
 40
0.0
 41
0.0
173
     1
 91
-1056964608
340
5B
 92
       -2
290
     1
 42
0.09
291
     1
 43
0.36
  3
Standard
 44
0.18
300

342
55
174
     1
178
     6
175
     1
176
     0
 93
-1056964608
 45
0.18
292
     0
297
     0
 46
0.18
 94
-1056964608
 47
1.0
 49
1.0
140
1.0
293
     1
141
0.0
294
     1
177
     0
142
1.0
295
     0
296
     0
143
0.125
271
     0
272
     9
273
     9
  0
MLINESTYLE
  5
60
102
{ACAD_REACTORS
330
5F
102
}
330
5F
100
AcDbMlineStyle
  2
STANDARD
 70
     0
  3

 62
   256
 51
90.0
 52
90.0
 71
     2
 49
0.5
 62
   256
  6
BYLAYER
 49
-0.5
 62
   256
  6
BYLAYER
  0
ACDBPLACEHOLDER
  5
F
102
{ACAD_REACTORS
330
E
102
}
330
E
  0
SCALE
  5
43
102
{ACAD_REACTORS
330
42
102
}
330
42
100
AcDbScale
 70
     0
300
1:1
140
1.0
141
1.0
290
     1
  0
SCALE
  5
44
102
{ACAD_REACTORS
330
42
102
}
330
42
100
AcDbScale
 70
     0
300
1/128" = 1'-0"
140
0.0078125
141
12.0
290
     0
  0
SCALE
  5
45
102
{ACAD_REACTORS
330
42
102
}
330
42
100
AcDbScale
 70
     0
300
1/64" = 1'-0"
140
0.015625
141
12.0
290
     0
  0
SCALE
  5
46
102
{ACAD_REACTORS
330
42
102
}
330
42
100
AcDbScale
 70
     0
300
1/32" = 1'-0"
140
0.03125
141
12.0
290
     0
  0
SCALE
  5
47
102
{ACAD_REACTORS
330
42
102
}
330
42
100
AcDbScale
 70
     0
300
1/16" = 1'-0"
140
0.0625
141
12.0
290
     0
  0
SCALE
  5
48
102
{ACAD_REACTORS
330
42
102
}
330
42
100
AcDbScale
 70
     0
300
3/32" = 1'-0"
140
0.09375
141
12.0
290
     0
  0
SCALE
  5
49
102
{ACAD_REACTORS
330
42
102
}
330
42
100
AcDbScale
 70
     0
300
1/8" = 1'-0"
140
0.125
141
12.0
290
     0
  0
SCALE
  5
4A
102
{ACAD_REACTORS
330
42
102
}
330
42
100
AcDbScale
 70
     0
300
3/16" = 1'-0"
140
0.1875
141
12.0
290
     0
  0
SCALE
  5
4B
102
{ACAD_REACTORS
330
42
102
}
330
42
100
AcDbScale
 70
     0
300
1/4" = 1'-0"
140
0.25
141
12.0
290
     0
  0
SCALE
  5
4C
102
{ACAD_REACTORS
330
42
102
}
330
42
100
AcDbScale
 70
     0
300
3/8" = 1'-0"
140
0.375
141
12.0
290
     0
  0
SCALE
  5
4D
102
{ACAD_REACTORS
330
42
102
}
330
42
100
AcDbScale
 70
     0
300
1/2" = 1'-0"
140
0.5
141
12.0
290
     0
  0
SCALE
  5
4E
102
{ACAD_REACTORS
330
42
102
}
330
42
100
AcDbScale
 70
     0
300
3/4" = 1'-0"
140
0.75
141
12.0
290
     0
  0
SCALE
  5
4F
102
{ACAD_REACTORS
330
42
102
}
330
42
100
AcDbScale
 70
     0
300
1" = 1'-0"
140
1.0
141
12.0
290
     0
  0
SCALE
  5
50
102
{ACAD_REACTORS
330
42
102
}
330
42
100
AcDbScale
 70
     0
300
1-1/2" = 1'-0"
140
1.5
141
12.0
290
     0
  0
SCALE
  5
51
102
{ACAD_REACTORS
330
42
102
}
330
42
100
AcDbScale
 70
     0
300
3" = 1'-0"
140
3.0
141
12.0
290
     0
  0
SCALE
  5
52
102
{ACAD_REACTORS
330
42
102
}
330
42
100
AcDbScale
 70
     0
300
6" = 1'-0"
140
6.0
141
12.0
290
     0
  0
SCALE
  5
53
102
{ACAD_REACTORS
330
42
102
}
330
42
100
AcDbScale
 70
     0
300
1'-0" = 1'-0"
140
12.0
141
12.0
290
     0
  0
ACDBSECTIONVIEWSTYLE
  5
69
102
{ACAD_XDICTIONARY
360
147
102
}
102
{ACAD_REACTORS
330
68
102
}
330
68
100
AcDbModelDocViewStyle
 70
     0
  3
Imperial24
290
     0
100
AcDbSectionViewStyle
 70
     0
 71
     0
 90
       78
 71
     1
340
55
 62
   256
 40
0.24
340
0
340
0
 62
   256
 40
0.24
300
I, O, Q, S, X, Z
 40
0.48
 90
        3
 40
0.18
 90
        1
 71
     2
340
5D
 90
       25
 62
   256
340
5D
 90
       50
 62
   256
 40
0.24
 40
0.0
 40
0.24
 71
     3
340
55
 62
   256
 40
0.24
 90
        1
 40
0.75
 90
        1
300
%<\AcVar ViewType \f "%tc1">% %<\AcVar ViewSectionStartId>%-%<\AcVar ViewSectionEndId>%\PSCALE %<\AcVar ViewScale \f "%sn">%
 71
     4
 62
   256
 62
   257
300
ANSI31
 40
1.0
 90
        0
290
     0
290
     0
 90
        6
 40
0.0
 40
1.570796326794896
 40
0.2617993877991494
 40
1.308996938995747
 40
-0.2617993877991494
 40
1.832595714594046
  0
TABLESTYLE
  5
65
102
{ACAD_XDICTIONARY
360
10F
102
}
102
{ACAD_REACTORS
330
64
102
}
330
64
100
AcDbTableStyle
280
     0
  3
Standard
 70
     0
 71
     0
 40
0.06
 41
0.06
280
     0
281
     0
  7
Standard
140
0.18
170
     2
 62
     0
 63
     7
283
     0
 90
      512
 91
        0
  1

274
    -2
284
     1
 64
     0
275
    -2
285
     1
 65
     0
276
    -2
286
     1
 66
     0
277
    -2
287
     1
 67
     0
278
    -2
288
     1
 68
     0
279
    -2
289
     1
 69
     0
  7
Standard
140
0.25
170
     5
 62
     0
 63
     7
283
     0
 90
      512
 91
        0
  1

274
    -2
284
     1
 64
     0
275
    -2
285
     1
 65
     0
276
    -2
286
     1
 66
     0
277
    -2
287
     1
 67
     0
278
    -2
288
     1
 68
     0
279
    -2
289
     1
 69
     0
  7
Standard
140
0.18
170
     5
 62
     0
 63
     7
283
     0
 90
      512
 91
        0
  1

274
    -2
284
     1
 64
     0
275
    -2
285
     1
 65
     0
276
    -2
286
     1
 66
     0
277
    -2
287
     1
 67
     0
278
    -2
288
     1
 68
     0
279
    -2
289
     1
 69
     0
  0
VISUALSTYLE
  5
2F
102
{ACAD_XDICTIONARY
360
11F
102
}
102
{ACAD_REACTORS
330
29
102
}
330
29
100
AcDbVisualStyle
  2
2dWireframe
 70
     4
177
     2
291
     0
 71
     0
176
     1
 72
     2
176
     1
 73
     0
176
     1
 90
        0
176
     1
 40
0.6
176
     1
 41
30.0
176
     1
 63
     7
421
 16777215
176
     1
 74
     1
176
     1
 91
        4
176
     1
 64
     7
176
     1
 65
   257
176
     1
 75
     1
176
     1
175
     1
176
     1
 42
1.0
176
     1
 92
        0
176
     1
 66
   257
176
     1
 43
1.0
176
     1
 76
     1
176
     1
 77
     6
176
     1
 78
     2
176
     1
 67
     7
176
     1
 79
     5
176
     1
170
     0
176
     1
171
     0
176
     1
290
     0
176
     1
 93
        1
176
     1
 44
0.0
176
     1
173
     0
176
     1
1001
ACAD
1000
AcDbSavedByObjectVersion
1070
     0
  0
VISUALSTYLE
  5
2E
102
{ACAD_XDICTIONARY
360
11D
102
}
102
{ACAD_REACTORS
330
29
102
}
330
29
100
AcDbVisualStyle
  2
Basic
 70
     7
177
     2
291
     1
 71
     1
176
     1
 72
     0
176
     1
 73
     1
176
     1
 90
        0
176
     1
 40
0.6
176
     1
 41
30.0
176
     1
 63
     7
421
 16777215
176
     1
 74
     0
176
     1
 91
        4
176
     1
 64
     7
176
     1
 65
   257
176
     1
 75
     1
176
     1
175
     1
176
     1
 42
1.0
176
     1
 92
        8
176
     1
 66
     7
176
     1
 43
1.0
176
     1
 76
     1
176
     1
 77
     6
176
     1
 78
     2
176
     1
 67
     7
176
     1
 79
     5
176
     1
170
     0
176
     1
171
     0
176
     1
290
     0
176
     1
 93
        1
176
     1
 44
0.0
176
     1
173
     0
176
     1
1001
ACAD
1000
AcDbSavedByObjectVersion
1070
     0
  0
VISUALSTYLE
  5
35
102
{ACAD_XDICTIONARY
360
12B
102
}
102
{ACAD_REACTORS
330
29
102
}
330
29
100
AcDbVisualStyle
  2
Brighten
 70
    12
177
     2
291
     1
 71
     2
176
     1
 72
     2
176
     1
 73
     0
176
     1
 90
        0
176
     1
 40
0.6
176
     1
 41
30.0
176
     1
 63
     7
421
 16777215
176
     1
 74
     1
176
     1
 91
        4
176
     1
 64
     7
176
     1
 65
   257
176
     1
 75
     1
176
     1
175
     1
176
     1
 42
1.0
176
     1
 92
        8
176
     1
 66
     7
176
     1
 43
1.0
176
     1
 76
     1
176
     1
 77
     6
176
     1
 78
     2
176
     1
 67
     7
176
     1
 79
     5
176
     1
170
     0
176
     1
171
     0
176
     1
290
     0
176
     1
 93
        1
176
     1
 44
50.0
176
     1
173
     0
176
     1
1001
ACAD
1000
AcDbSavedByObjectVersion
1070
     0
  0
VISUALSTYLE
  5
39
102
{ACAD_XDICTIONARY
360
133
102
}
102
{ACAD_REACTORS
330
29
102
}
330
29
100
AcDbVisualStyle
  2
ColorChange
 70
    16
177
     2
291
     1
 71
     2
176
     1
 72
     2
176
     1
 73
     3
176
     1
 90
        0
176
     1
 40
0.6
176
     1
 41
30.0
176
     1
 63
     8
421
  8421504
176
     1
 74
     1
176
     1
 91
        4
176
     1
 64
     7
176
     1
 65
   257
176
     1
 75
     1
176
     1
175
     1
176
     1
 42
1.0
176
     1
 92
        8
176
     1
 66
     8
424
  8421504
176
     1
 43
1.0
176
     1
 76
     1
176
     1
 77
     6
176
     1
 78
     2
176
     1
 67
     7
176
     1
 79
     5
176
     1
170
     0
176
     1
171
     0
176
     1
290
     0
176
     1
 93
        1
176
     1
 44
0.0
176
     1
173
     0
176
     1
1001
ACAD
1000
AcDbSavedByObjectVersion
1070
     0
  0
VISUALSTYLE
  5
32
102
{ACAD_XDICTIONARY
360
125
102
}
102
{ACAD_REACTORS
330
29
102
}
330
29
100
AcDbVisualStyle
  2
Conceptual
 70
     9
177
     2
291
     0
 71
     3
176
     1
 72
     2
176
     1
 73
     0
176
     1
 90
        0
176
     1
 40
0.6
176
     1
 41
30.0
176
     1
 63
     7
421
 16777215
176
     1
 74
     2
176
     1
 91
        2
176
     1
 64
     7
176
     1
 65
   257
176
     1
 75
     1
176
     1
175
     1
176
     1
 42
179.0
176
     1
 92
        8
176
     1
 66
     7
176
     1
 43
1.0
176
     1
 76
     1
176
     1
 77
     6
176
     1
 78
     2
176
     1
 67
     7
176
     1
 79
     3
176
     1
170
     0
176
     1
171
     0
176
     1
290
     0
176
     1
 93
        1
176
     1
 44
0.0
176
     1
173
     0
176
     1
1001
ACAD
1000
AcDbSavedByObjectVersion
1070
     0
  0
VISUALSTYLE
  5
34
102
{ACAD_XDICTIONARY
360
129
102
}
102
{ACAD_REACTORS
330
29
102
}
330
29
100
AcDbVisualStyle
  2
Dim
 70
    11
177
     2
291
     1
 71
     2
176
     1
 72
     2
176
     1
 73
     0
176
     1
 90
        0
176
     1
 40
0.6
176
     1
 41
30.0
176
     1
 63
     7
421
 16777215
176
     1
 74
     1
176
     1
 91
        4
176
     1
 64
     7
176
     1
 65
   257
176
     1
 75
     1
176
     1
175
     1
176
     1
 42
1.0
176
     1
 92
        8
176
     1
 66
     7
176
     1
 43
1.0
176
     1
 76
     1
176
     1
 77
     6
176
     1
 78
     2
176
     1
 67
     7
176
     1
 79
     5
176
     1
170
     0
176
     1
171
     0
176
     1
290
     0
176
     1
 93
        1
176
     1
 44
-50.0
176
     1
173
     0
176
     1
1001
ACAD
1000
AcDbSavedByObjectVersion
1070
     0
  0
VISUALSTYLE
  5
41
102
{ACAD_XDICTIONARY
360
143
102
}
102
{ACAD_REACTORS
330
29
102
}
330
29
100
AcDbVisualStyle
  2
EdgeColorOff
 70
    22
177
     2
291
     1
 71
     2
176
     0
 72
     2
176
     0
 73
     0
176
     0
 90
        0
176
     0
 40
0.6
176
     0
 41
30.0
176
     0
 63
     7
421
 16777215
176
     0
 74
     1
176
     0
 91
        4
176
     0
 64
     7
176
     0
 65
   257
176
     0
 75
     1
176
     0
175
     1
176
     0
 42
1.0
176
     0
 92
        8
176
     2
 66
     7
176
     0
 43
1.0
176
     0
 76
     1
176
     0
 77
     6
176
     0
 78
     2
176
     0
 67
     7
176
     0
 79
     5
176
     0
170
     0
176
     0
171
     0
176
     0
290
     0
176
     0
 93
        1
176
     0
 44
0.0
176
     0
173
     0
176
     0
1001
ACAD
1000
AcDbSavedByObjectVersion
1070
     0
  0
VISUALSTYLE
  5
38
102
{ACAD_XDICTIONARY
360
131
102
}
102
{ACAD_REACTORS
330
29
102
}
330
29
100
AcDbVisualStyle
  2
Facepattern
 70
    15
177
     2
291
     1
 71
     2
176
     1
 72
     2
176
     1
 73
     0
176
     1
 90
        0
176
     1
 40
0.6
176
     1
 41
30.0
176
     1
 63
     7
421
 16777215
176
     1
 74
     1
176
     1
 91
        4
176
     1
 64
     7
176
     1
 65
   257
176
     1
 75
     1
176
     1
175
     1
176
     1
 42
1.0
176
     1
 92
        8
176
     1
 66
     7
176
     1
 43
1.0
176
     1
 76
     1
176
     1
 77
     6
176
     1
 78
     2
176
     1
 67
     7
176
     1
 79
     5
176
     1
170
     0
176
     1
171
     0
176
     1
290
     0
176
     1
 93
        1
176
     1
 44
0.0
176
     1
173
     0
176
     1
1001
ACAD
1000
AcDbSavedByObjectVersion
1070
     0
  0
VISUALSTYLE
  5
2A
102
{ACAD_XDICTIONARY
360
115
102
}
102
{ACAD_REACTORS
330
29
102
}
330
29
100
AcDbVisualStyle
  2
Flat
 70
     0
177
     2
291
     1
 71
     2
176
     1
 72
     1
176
     1
 73
     1
176
     1
 90
        2
176
     1
 40
0.6
176
     1
 41
30.0
176
     1
 63
     7
421
 16777215
176
     1
 74
     0
176
     1
 91
        0
176
     1
 64
     7
176
     1
 65
   257
176
     1
 75
     1
176
     1
175
     1
176
     1
 42
1.0
176
     1
 92
        8
176
     1
 66
     7
176
     1
 43
1.0
176
     1
 76
     1
176
     1
 77
     6
176
     1
 78
     2
176
     1
 67
     7
176
     1
 79
     5
176
     1
170
     0
176
     1
171
     0
176
     1
290
     0
176
     1
 93
       13
176
     1
 44
0.0
176
     1
173
     0
176
     1
1001
ACAD
1000
AcDbSavedByObjectVersion
1070
     0
  0
VISUALSTYLE
  5
2B
102
{ACAD_XDICTIONARY
360
117
102
}
102
{ACAD_REACTORS
330
29
102
}
330
29
100
AcDbVisualStyle
  2
FlatWithEdges
 70
     1
177
     2
291
     1
 71
     2
176
     1
 72
     1
176
     1
 73
     1
176
     1
 90
        2
176
     1
 40
0.6
176
     1
 41
30.0
176
     1
 63
     7
421
 16777215
176
     1
 74
     1
176
     1
 91
        0
176
     1
 64
     7
176
     1
 65
   257
176
     1
 75
     1
176
     1
175
     1
176
     1
 42
1.0
176
     1
 92
        0
176
     1
 66
   257
176
     1
 43
1.0
176
     1
 76
     1
176
     1
 77
     6
176
     1
 78
     2
176
     1
 67
     7
176
     1
 79
     5
176
     1
170
     0
176
     1
171
     0
176
     1
290
     0
176
     1
 93
       13
176
     1
 44
0.0
176
     1
173
     0
176
     1
1001
ACAD
1000
AcDbSavedByObjectVersion
1070
     0
  0
VISUALSTYLE
  5
2C
102
{ACAD_XDICTIONARY
360
119
102
}
102
{ACAD_REACTORS
330
29
102
}
330
29
100
AcDbVisualStyle
  2
Gouraud
 70
     2
177
     2
291
     1
 71
     2
176
     1
 72
     2
176
     1
 73
     1
176
     1
 90
        2
176
     1
 40
0.6
176
     1
 41
30.0
176
     1
 63
     7
421
 16777215
176
     1
 74
     0
176
     1
 91
        0
176
     1
 64
     7
176
     1
 65
   257
176
     1
 75
     1
176
     1
175
     1
176
     1
 42
1.0
176
     1
 92
        0
176
     1
 66
     7
176
     1
 43
1.0
176
     1
 76
     1
176
     1
 77
     6
176
     1
 78
     2
176
     1
 67
     7
176
     1
 79
     5
176
     1
170
     0
176
     1
171
     0
176
     1
290
     0
176
     1
 93
       13
176
     1
 44
0.0
176
     1
173
     0
176
     1
1001
ACAD
1000
AcDbSavedByObjectVersion
1070
     0
  0
VISUALSTYLE
  5
2D
102
{ACAD_XDICTIONARY
360
11B
102
}
102
{ACAD_REACTORS
330
29
102
}
330
29
100
AcDbVisualStyle
  2
GouraudWithEdges
 70
     3
177
     2
291
     1
 71
     2
176
     1
 72
     2
176
     1
 73
     1
176
     1
 90
        2
176
     1
 40
0.6
176
     1
 41
30.0
176
     1
 63
     7
421
 16777215
176
     1
 74
     1
176
     1
 91
        0
176
     1
 64
     7
176
     1
 65
   257
176
     1
 75
     1
176
     1
175
     1
176
     1
 42
1.0
176
     1
 92
        0
176
     1
 66
   257
176
     1
 43
1.0
176
     1
 76
     1
176
     1
 77
     6
176
     1
 78
     2
176
     1
 67
     7
176
     1
 79
     5
176
     1
170
     0
176
     1
171
     0
176
     1
290
     0
176
     1
 93
       13
176
     1
 44
0.0
176
     1
173
     0
176
     1
1001
ACAD
1000
AcDbSavedByObjectVersion
1070
     0
  0
VISUALSTYLE
  5
31
102
{ACAD_XDICTIONARY
360
123
102
}
102
{ACAD_REACTORS
330
29
102
}
330
29
100
AcDbVisualStyle
  2
Hidden
 70
     6
177
     2
291
     0
 71
     1
176
     1
 72
     2
176
     1
 73
     2
176
     1
 90
        0
176
     1
 40
0.6
176
     1
 41
30.0
176
     1
 63
     7
421
 16777215
176
     1
 74
     2
176
     1
 91
        2
176
     1
 64
     7
176
     1
 65
   257
176
     1
 75
     2
176
     1
175
     1
176
     1
 42
40.0
176
     1
 92
        0
176
     1
 66
   257
176
     1
 43
1.0
176
     1
 76
     1
176
     1
 77
     6
176
     1
 78
     2
176
     1
 67
     7
176
     1
 79
     3
176
     1
170
     0
176
     1
171
     0
176
     1
290
     0
176
     1
 93
        1
176
     1
 44
0.0
176
     1
173
     0
176
     1
1001
ACAD
1000
AcDbSavedByObjectVersion
1070
     0
  0
VISUALSTYLE
  5
3F
102
{ACAD_XDICTIONARY
360
13F
102
}
102
{ACAD_REACTORS
330
29
102
}
330
29
100
AcDbVisualStyle
  2
JitterOff
 70
    20
177
     2
291
     1
 71
     2
176
     0
 72
     2
176
     0
 73
     0
176
     0
 90
        0
176
     0
 40
0.6
176
     0
 41
30.0
176
     0
 63
     7
421
 16777215
176
     0
 74
     1
176
     0
 91
        4
176
     0
 64
     7
176
     0
 65
   257
176
     0
 75
     1
176
     0
175
     1
176
     0
 42
1.0
176
     0
 92
       10
176
     2
 66
     7
176
     0
 43
1.0
176
     0
 76
     1
176
     0
 77
     6
176
     0
 78
     2
176
     0
 67
     7
176
     0
 79
     5
176
     0
170
     0
176
     0
171
     0
176
     0
290
     0
176
     0
 93
        1
176
     0
 44
0.0
176
     0
173
     0
176
     0
1001
ACAD
1000
AcDbSavedByObjectVersion
1070
     0
  0
VISUALSTYLE
  5
37
102
{ACAD_XDICTIONARY
360
12F
102
}
102
{ACAD_REACTORS
330
29
102
}
330
29
100
AcDbVisualStyle
  2
Linepattern
 70
    14
177
     2
291
     1
 71
     2
176
     1
 72
     2
176
     1
 73
     0
176
     1
 90
        0
176
     1
 40
0.6
176
     1
 41
30.0
176
     1
 63
     7
421
 16777215
176
     1
 74
     1
176
     1
 91
        4
176
     1
 64
     7
176
     1
 65
   257
176
     1
 75
     7
176
     1
175
     7
176
     1
 42
1.0
176
     1
 92
        8
176
     1
 66
     7
176
     1
 43
1.0
176
     1
 76
     1
176
     1
 77
     6
176
     1
 78
     2
176
     1
 67
     7
176
     1
 79
     5
176
     1
170
     0
176
     1
171
     0
176
     1
290
     0
176
     1
 93
        1
176
     1
 44
0.0
176
     1
173
     0
176
     1
1001
ACAD
1000
AcDbSavedByObjectVersion
1070
     0
  0
VISUALSTYLE
  5
40
102
{ACAD_XDICTIONARY
360
141
102
}
102
{ACAD_REACTORS
330
29
102
}
330
29
100
AcDbVisualStyle
  2
OverhangOff
 70
    21
177
     2
291
     1
 71
     2
176
     0
 72
     2
176
     0
 73
     0
176
     0
 90
        0
176
     0
 40
0.6
176
     0
 41
30.0
176
     0
 63
     7
421
 16777215
176
     0
 74
     1
176
     0
 91
        4
176
     0
 64
     7
176
     0
 65
   257
176
     0
 75
     1
176
     0
175
     1
176
     0
 42
1.0
176
     0
 92
        9
176
     2
 66
     7
176
     0
 43
1.0
176
     0
 76
     1
176
     0
 77
     6
176
     0
 78
     2
176
     0
 67
     7
176
     0
 79
     5
176
     0
170
     0
176
     0
171
     0
176
     0
290
     0
176
     0
 93
        1
176
     0
 44
0.0
176
     0
173
     0
176
     0
1001
ACAD
1000
AcDbSavedByObjectVersion
1070
     0
  0
VISUALSTYLE
  5
33
102
{ACAD_XDICTIONARY
360
127
102
}
102
{ACAD_REACTORS
330
29
102
}
330
29
100
AcDbVisualStyle
  2
Realistic
 70
     8
177
     2
291
     0
 71
     2
176
     1
 72
     3
176
     1
 73
     0
176
     1
 90
        2
176
     1
 40
0.6
176
     1
 41
30.0
176
     1
 63
     7
421
 16777215
176
     1
 74
     0
176
     1
 91
        0
176
     1
 64
     7
176
     1
 65
   257
176
     1
 75
     1
176
     1
175
     1
176
     1
 42
1.0
176
     1
 92
        8
176
     1
 66
   257
176
     1
 43
1.0
176
     1
 76
     1
176
     1
 77
     6
176
     1
 78
     2
176
     1
 67
     7
176
     1
 79
     3
176
     1
170
     0
176
     1
171
     0
176
     1
290
     0
176
     1
 93
       13
176
     1
 44
0.0
176
     1
173
     0
176
     1
1001
ACAD
1000
AcDbSavedByObjectVersion
1070
     0
  0
VISUALSTYLE
  5
3E
102
{ACAD_XDICTIONARY
360
13D
102
}
102
{ACAD_REACTORS
330
29
102
}
330
29
100
AcDbVisualStyle
  2
Shaded
 70
    27
177
     2
291
     0
 71
     2
176
     1
 72
     2
176
     1
 73
     1
176
     1
 90
        2
176
     1
 40
0.6
176
     1
 41
30.0
176
     1
 63
     7
421
 16777215
176
     1
 74
     0
176
     1
 91
        4
176
     1
 64
     7
176
     1
 65
   257
176
     1
 75
     1
176
     1
175
     1
176
     1
 42
1.0
176
     1
 92
        8
176
     1
 66
   257
176
     1
 43
1.0
176
     1
 76
     1
176
     1
 77
     6
176
     1
 78
     2
176
     1
 67
     8
425
  7895160
176
     1
 79
     3
176
     1
170
     0
176
     1
171
     0
176
     1
290
     0
176
     1
 93
        5
176
     1
 44
0.0
176
     1
173
     0
176
     1
1001
ACAD
1000
AcDbSavedByObjectVersion
1070
     0
  0
VISUALSTYLE
  5
3D
102
{ACAD_XDICTIONARY
360
13B
102
}
102
{ACAD_REACTORS
330
29
102
}
330
29
100
AcDbVisualStyle
  2
Shaded with edges
 70
    26
177
     2
291
     0
 71
     2
176
     1
 72
     2
176
     1
 73
     1
176
     1
 90
        2
176
     1
 40
0.6
176
     1
 41
30.0
176
     1
 63
     7
421
 16777215
176
     1
 74
     1
176
     1
 91
        2
176
     1
 64
     7
176
     1
 65
   257
176
     1
 75
     2
176
     1
175
     1
176
     1
 42
1.0
176
     1
 92
        8
176
     1
 66
   257
176
     1
 43
1.0
176
     1
 76
     1
176
     1
 77
     6
176
     1
 78
     2
176
     1
 67
     7
176
     1
 79
     3
176
     1
170
     0
176
     1
171
     0
176
     1
290
     0
176
     1
 93
        5
176
     1
 44
0.0
176
     1
173
     0
176
     1
1001
ACAD
1000
AcDbSavedByObjectVersion
1070
     0
  0
VISUALSTYLE
  5
3A
102
{ACAD_XDICTIONARY
360
135
102
}
102
{ACAD_REACTORS
330
29
102
}
330
29
100
AcDbVisualStyle
  2
Shades of Gray
 70
    23
177
     2
291
     0
 71
     2
176
     1
 72
     2
176
     1
 73
     3
176
     1
 90
        0
176
     1
 40
0.6
176
     1
 41
30.0
176
     1
 63
     7
421
 16777215
176
     1
 74
     2
176
     1
 91
        2
176
     1
 64
     7
176
     1
 65
     7
176
     1
 75
     1
176
     1
175
     1
176
     1
 42
40.0
176
     1
 92
        8
176
     1
 66
     7
176
     1
 43
1.0
176
     1
 76
     1
176
     1
 77
     6
176
     1
 78
     2
176
     1
 67
     7
176
     1
 79
     3
176
     1
170
     0
176
     1
171
     0
176
     1
290
     0
176
     1
 93
        1
176
     1
 44
0.0
176
     1
173
     0
176
     1
1001
ACAD
1000
AcDbSavedByObjectVersion
1070
     0
  0
VISUALSTYLE
  5
3B
102
{ACAD_XDICTIONARY
360
137
102
}
102
{ACAD_REACTORS
330
29
102
}
330
29
100
AcDbVisualStyle
  2
Sketchy
 70
    24
177
     2
291
     0
 71
     1
176
     1
 72
     2
176
     1
 73
     2
176
     1
 90
        0
176
     1
 40
0.6
176
     1
 41
30.0
176
     1
 63
     7
421
 16777215
176
     1
 74
     2
176
     1
 91
        2
176
     1
 64
     7
176
     1
 65
     7
176
     1
 75
     1
176
     1
175
     1
176
     1
 42
40.0
176
     1
 92
       11
176
     1
 66
     7
176
     1
 43
1.0
176
     1
 76
     1
176
     1
 77
     6
176
     1
 78
     2
176
     1
 67
     7
176
     1
 79
     6
176
     1
170
     0
176
     1
171
     0
176
     1
290
     0
176
     1
 93
        1
176
     1
 44
0.0
176
     1
173
     0
176
     1
1001
ACAD
1000
AcDbSavedByObjectVersion
1070
     0
  0
VISUALSTYLE
  5
36
102
{ACAD_XDICTIONARY
360
12D
102
}
102
{ACAD_REACTORS
330
29
102
}
330
29
100
AcDbVisualStyle
  2
Thicken
 70
    13
177
     2
291
     1
 71
     2
176
     1
 72
     2
176
     1
 73
     0
176
     1
 90
        0
176
     1
 40
0.6
176
     1
 41
30.0
176
     1
 63
     7
421
 16777215
176
     1
 74
     1
176
     1
 91
        4
176
     1
 64
     7
176
     1
 65
   257
176
     1
 75
     1
176
     1
175
     1
176
     1
 42
1.0
176
     1
 92
       12
176
     1
 66
     7
176
     1
 43
1.0
176
     1
 76
     1
176
     1
 77
     6
176
     1
 78
     2
176
     1
 67
     7
176
     1
 79
     5
176
     1
170
     0
176
     1
171
     0
176
     1
290
     0
176
     1
 93
        1
176
     1
 44
0.0
176
     1
173
     0
176
     1
1001
ACAD
1000
AcDbSavedByObjectVersion
1070
     0
  0
VISUALSTYLE
  5
30
102
{ACAD_XDICTIONARY
360
121
102
}
102
{ACAD_REACTORS
330
29
102
}
330
29
100
AcDbVisualStyle
  2
Wireframe
 70
     5
177
     2
291
     0
 71
     0
176
     1
 72
     2
176
     1
 73
     0
176
     1
 90
        0
176
     1
 40
0.6
176
     1
 41
30.0
176
     1
 63
     7
421
 16777215
176
     1
 74
     1
176
     1
 91
        4
176
     1
 64
     7
176
     1
 65
   257
176
     1
 75
     1
176
     1
175
     1
176
     1
 42
1.0
176
     1
 92
        0
176
     1
 66
   257
176
     1
 43
1.0
176
     1
 76
     1
176
     1
 77
     6
176
     1
 78
     2
176
     1
 67
     7
176
     1
 79
     3
176
     1
170
     0
176
     1
171
     0
176
     1
290
     0
176
     1
 93
        1
176
     1
 44
0.0
176
     1
173
     0
176
     1
1001
ACAD
1000
AcDbSavedByObjectVersion
1070
     0
  0
VISUALSTYLE
  5
3C
102
{ACAD_XDICTIONARY
360
139
102
}
102
{ACAD_REACTORS
330
29
102
}
330
29
100
AcDbVisualStyle
  2
X-Ray
 70
    25
177
     2
291
     0
 71
     2
176
     1
 72
     2
176
     1
 73
     1
176
     1
 90
        1
176
     1
 40
0.5
176
     1
 41
30.0
176
     1
 63
     7
421
 16777215
176
     1
 74
     1
176
     1
 91
        0
176
     1
 64
     7
176
     1
 65
   257
176
     1
 75
     1
176
     1
175
     1
176
     1
 42
1.0
176
     1
 92
        8
176
     1
 66
     7
176
     1
 43
1.0
176
     1
 76
     1
176
     1
 77
     6
176
     1
 78
     2
176
     1
 67
     7
176
     1
 79
     3
176
     1
170
     0
176
     1
171
     0
176
     1
290
     0
176
     1
 93
       13
176
     1
 44
0.0
176
     1
173
     0
176
     1
1001
ACAD
1000
AcDbSavedByObjectVersion
1070
     0
  0
DICTIONARYVAR
  5
10E
102
{ACAD_REACTORS
330
109
102
}
330
109
100
DictionaryVariables
280
     0
  1
1:1
  0
DICTIONARYVAR
  5
10B
102
{ACAD_REACTORS
330
109
102
}
330
109
100
DictionaryVariables
280
     0
  1
STANDARD
  0
DICTIONARYVAR
  5
10A
102
{ACAD_REACTORS
330
109
102
}
330
109
100
DictionaryVariables
280
     0
  1
STANDARD
  0
DICTIONARYVAR
  5
10C
102
{ACAD_REACTORS
330
109
102
}
330
109
100
DictionaryVariables
280
     0
  1
Imperial24
  0
DICTIONARYVAR
  5
10D
102
{ACAD_REACTORS
330
109
102
}
330
109
100
DictionaryVariables
280
     0
  1
Imperial24
  0
DICTIONARY
  5
149
330
6B
100
AcDbDictionary
280
     1
281
     1
  3
ACAD_XREC_ROUNDTRIP
360
14A
  0
DICTIONARY
  5
1A
330
19
100
AcDbDictionary
280
     1
281
     1
  3
BUMPTILE
360
1C
  3
DIFFUSETILE
360
1B
  3
OPACITYTILE
360
1F
  3
REFLECTIONTILE
360
1E
  3
REFRACTIONTILE
360
20
  3
SPECULARTILE
360
1D
  0
DICTIONARY
  5
12
330
11
100
AcDbDictionary
280
     1
281
     1
  3
BUMPTILE
360
14
  3
DIFFUSETILE
360
13
  3
OPACITYTILE
360
17
  3
REFLECTIONTILE
360
16
  3
REFRACTIONTILE
360
18
  3
SPECULARTILE
360
15
  0
DICTIONARY
  5
22
330
21
100
AcDbDictionary
280
     1
281
     1
  3
BUMPTILE
360
24
  3
DIFFUSETILE
360
23
  3
OPACITYTILE
360
27
  3
REFLECTIONTILE
360
26
  3
REFRACTIONTILE
360
28
  3
SPECULARTILE
360
25
  0
DICTIONARY
  5
145
330
67
100
AcDbDictionary
280
     1
281
     1
  3
ACAD_XREC_ROUNDTRIP
360
146
  0
DICTIONARY
  5
147
330
69
100
AcDbDictionary
280
     1
281
     1
  3
ACAD_XREC_ROUNDTRIP
360
148
  0
DICTIONARY
  5
10F
330
65
100
AcDbDictionary
280
     1
281
     1
  3
ACAD_ROUNDTRIP_2008_TABLESTYLE_CELLSTYLEMAP
360
110
  0
DICTIONARY
  5
11F
330
2F
100
AcDbDictionary
280
     1
281
     1
  3
ACAD_XREC_ROUNDTRIP
360
120
  0
DICTIONARY
  5
11D
330
2E
100
AcDbDictionary
280
     1
281
     1
  3
ACAD_XREC_ROUNDTRIP
360
11E
  0
DICTIONARY
  5
12B
330
35
100
AcDbDictionary
280
     1
281
     1
  3
ACAD_XREC_ROUNDTRIP
360
12C
  0
DICTIONARY
  5
133
330
39
100
AcDbDictionary
280
     1
281
     1
  3
ACAD_XREC_ROUNDTRIP
360
134
  0
DICTIONARY
  5
125
330
32
100
AcDbDictionary
280
     1
281
     1
  3
ACAD_XREC_ROUNDTRIP
360
126
  0
DICTIONARY
  5
129
330
34
100
AcDbDictionary
280
     1
281
     1
  3
ACAD_XREC_ROUNDTRIP
360
12A
  0
DICTIONARY
  5
143
330
41
100
AcDbDictionary
280
     1
281
     1
  3
ACAD_XREC_ROUNDTRIP
360
144
  0
DICTIONARY
  5
131
330
38
100
AcDbDictionary
280
     1
281
     1
  3
ACAD_XREC_ROUNDTRIP
360
132
  0
DICTIONARY
  5
115
330
2A
100
AcDbDictionary
280
     1
281
     1
  3
ACAD_XREC_ROUNDTRIP
360
116
  0
DICTIONARY
  5
117
330
2B
100
AcDbDictionary
280
     1
281
     1
  3
ACAD_XREC_ROUNDTRIP
360
118
  0
DICTIONARY
  5
119
330
2C
100
AcDbDictionary
280
     1
281
     1
  3
ACAD_XREC_ROUNDTRIP
360
11A
  0
DICTIONARY
  5
11B
330
2D
100
AcDbDictionary
280
     1
281
     1
  3
ACAD_XREC_ROUNDTRIP
360
11C
  0
DICTIONARY
  5
123
330
31
100
AcDbDictionary
280
     1
281
     1
  3
ACAD_XREC_ROUNDTRIP
360
124
  0
DICTIONARY
  5
13F
330
3F
100
AcDbDictionary
280
     1
281
     1
  3
ACAD_XREC_ROUNDTRIP
360
140
  0
DICTIONARY
  5
12F
330
37
100
AcDbDictionary
280
     1
281
     1
  3
ACAD_XREC_ROUNDTRIP
360
130
  0
DICTIONARY
  5
141
330
40
100
AcDbDictionary
280
     1
281
     1
  3
ACAD_XREC_ROUNDTRIP
360
142
  0
DICTIONARY
  5
127
330
33
100
AcDbDictionary
280
     1
281
     1
  3
ACAD_XREC_ROUNDTRIP
360
128
  0
DICTIONARY
  5
13D
330
3E
100
AcDbDictionary
280
     1
281
     1
  3
ACAD_XREC_ROUNDTRIP
360
13E
  0
DICTIONARY
  5
13B
330
3D
100
AcDbDictionary
280
     1
281
     1
  3
ACAD_XREC_ROUNDTRIP
360
13C
  0
DICTIONARY
  5
135
330
3A
100
AcDbDictionary
280
     1
281
     1
  3
ACAD_XREC_ROUNDTRIP
360
136
  0
DICTIONARY
  5
137
330
3B
100
AcDbDictionary
280
     1
281
     1
  3
ACAD_XREC_ROUNDTRIP
360
138
  0
DICTIONARY
  5
12D
330
36
100
AcDbDictionary
280
     1
281
     1
  3
ACAD_XREC_ROUNDTRIP
360
12E
  0
DICTIONARY
  5
121
330
30
100
AcDbDictionary
280
     1
281
     1
  3
ACAD_XREC_ROUNDTRIP
360
122
  0
DICTIONARY
  5
139
330
3C
100
AcDbDictionary
280
     1
281
     1
  3
ACAD_XREC_ROUNDTRIP
360
13A
  0
XRECORD
  5
14A
102
{ACAD_REACTORS
330
149
102
}
330
149
100
AcDbXrecord
280
     1
102
DISPLAYNAME
  1
Imperial24
102
FLAGS
 90
        0
  0
XRECORD
  5
1C
102
{ACAD_REACTORS
330
1A
102
}
330
1A
100
AcDbXrecord
280
     1
270
     1
271
     1
  0
XRECORD
  5
1B
102
{ACAD_REACTORS
330
1A
102
}
330
1A
100
AcDbXrecord
280
     1
270
     1
271
     1
  0
XRECORD
  5
1F
102
{ACAD_REACTORS
330
1A
102
}
330
1A
100
AcDbXrecord
280
     1
270
     1
271
     1
  0
XRECORD
  5
1E
102
{ACAD_REACTORS
330
1A
102
}
330
1A
100
AcDbXrecord
280
     1
270
     1
271
     1
  0
XRECORD
  5
20
102
{ACAD_REACTORS
330
1A
102
}
330
1A
100
AcDbXrecord
280
     1
270
     1
271
     1
  0
XRECORD
  5
1D
102
{ACAD_REACTORS
330
1A
102
}
330
1A
100
AcDbXrecord
280
     1
270
     1
271
     1
  0
XRECORD
  5
14
102
{ACAD_REACTORS
330
12
102
}
330
12
100
AcDbXrecord
280
     1
270
     1
271
     1
  0
XRECORD
  5
13
102
{ACAD_REACTORS
330
12
102
}
330
12
100
AcDbXrecord
280
     1
270
     1
271
     1
  0
XRECORD
  5
17
102
{ACAD_REACTORS
330
12
102
}
330
12
100
AcDbXrecord
280
     1
270
     1
271
     1
  0
XRECORD
  5
16
102
{ACAD_REACTORS
330
12
102
}
330
12
100
AcDbXrecord
280
     1
270
     1
271
     1
  0
XRECORD
  5
18
102
{ACAD_REACTORS
330
12
102
}
330
12
100
AcDbXrecord
280
     1
270
     1
271
     1
  0
XRECORD
  5
15
102
{ACAD_REACTORS
330
12
102
}
330
12
100
AcDbXrecord
280
     1
270
     1
271
     1
  0
XRECORD
  5
24
102
{ACAD_REACTORS
330
22
102
}
330
22
100
AcDbXrecord
280
     1
270
     1
271
     1
  0
XRECORD
  5
23
102
{ACAD_REACTORS
330
22
102
}
330
22
100
AcDbXrecord
280
     1
270
     1
271
     1
  0
XRECORD
  5
27
102
{ACAD_REACTORS
330
22
102
}
330
22
100
AcDbXrecord
280
     1
270
     1
271
     1
  0
XRECORD
  5
26
102
{ACAD_REACTORS
330
22
102
}
330
22
100
AcDbXrecord
280
     1
270
     1
271
     1
  0
XRECORD
  5
28
102
{ACAD_REACTORS
330
22
102
}
330
22
100
AcDbXrecord
280
     1
270
     1
271
     1
  0
XRECORD
  5
25
102
{ACAD_REACTORS
330
22
102
}
330
22
100
AcDbXrecord
280
     1
270
     1
271
     1
  0
XRECORD
  5
146
102
{ACAD_REACTORS
330
145
102
}
330
145
100
AcDbXrecord
280
     1
102
ACAD_ROUNDTRIP_2012_MLEADER_STYLE
298
     1
  0
XRECORD
  5
148
102
{ACAD_REACTORS
330
147
102
}
330
147
100
AcDbXrecord
280
     1
102
DISPLAYNAME
  1
Imperial24
102
FLAGS
 90
        0
  0
CELLSTYLEMAP
  5
110
102
{ACAD_REACTORS
330
10F
102
}
330
10F
100
AcDbCellStyleMap
 90
        3
300
CELLSTYLE
  1
TABLEFORMAT_BEGIN
 90
        5
170
     1
 91
        0
 92
    32768
 62
   257
 93
        1
300
CONTENTFORMAT
  1
CONTENTFORMAT_BEGIN
 90
        0
 91
        0
 92
      512
 93
        0
300

 40
0.0
140
1.0
 94
        5
 62
     0
340
55
144
0.25
309
CONTENTFORMAT_END
171
     0
 94
        0
309
TABLEFORMAT_END
  1
CELLSTYLE_BEGIN
 90
        1
 91
        1
300
_TITLE
309
CELLSTYLE_END
300
CELLSTYLE
  1
TABLEFORMAT_BEGIN
 90
        5
170
     1
 91
        0
 92
        0
 62
   257
 93
        1
300
CONTENTFORMAT
  1
CONTENTFORMAT_BEGIN
 90
        0
 91
        0
 92
      512
 93
        0
300

 40
0.0
140
1.0
 94
        5
 62
     0
340
55
144
0.18
309
CONTENTFORMAT_END
171
     0
 94
        0
309
TABLEFORMAT_END
  1
CELLSTYLE_BEGIN
 90
        2
 91
        1
300
_HEADER
309
CELLSTYLE_END
300
CELLSTYLE
  1
TABLEFORMAT_BEGIN
 90
        5
170
     1
 91
        0
 92
        0
 62
   257
 93
        1
300
CONTENTFORMAT
  1
CONTENTFORMAT_BEGIN
 90
        0
 91
        0
 92
      512
 93
        0
300

 40
0.0
140
1.0
 94
        2
 62
     0
340
55
144
0.18
309
CONTENTFORMAT_END
171
     0
 94
        0
309
TABLEFORMAT_END
  1
CELLSTYLE_BEGIN
 90
        3
 91
        2
300
_DATA
309
CELLSTYLE_END
  0
XRECORD
  5
120
102
{ACAD_REACTORS
330
11F
102
}
330
11F
100
AcDbXrecord
280
     1
102
RTVSPost2010Prop28
280
     1
102
RTVSPost2010PropOp28
 70
     1
102
RTVSPost2010Prop29
280
     1
102
RTVSPost2010PropOp29
 70
     1
102
RTVSPost2010Prop30
280
     0
102
RTVSPost2010PropOp30
 70
     1
102
RTVSPost2010Prop31
280
     0
102
RTVSPost2010PropOp31
 70
     1
102
RTVSPost2010Prop32
280
     0
102
RTVSPost2010PropOp32
 70
     1
102
RTVSPost2010Prop33
280
     0
102
RTVSPost2010PropOp33
 70
     1
102
RTVSPost2010Prop34
280
     0
102
RTVSPost2010PropOp34
 70
     1
102
RTVSPost2010Prop35
280
     0
102
RTVSPost2010PropOp35
 70
     1
102
RTVSPost2010Prop36
280
     0
102
RTVSPost2010PropOp36
 70
     1
102
RTVSPost2010Prop37
 90
       50
102
RTVSPost2010PropOp37
 70
     1
102
RTVSPost2010Prop38
140
0.0
102
RTVSPost2010PropOp38
 70
     1
102
RTVSPost2010Prop39
140
1.0
102
RTVSPost2010PropOp39
 70
     1
102
RTVSPost2010Prop40
 90
        0
102
RTVSPost2010PropOp40
 70
     1
102
RTVSPost2010Prop41ColorIndex
 90
       18
102
RTVSPost2010Prop41ColorRGB
 90
        0
102
RTVSPost2010PropOp41
 70
     1
102
RTVSPost2010Prop42
 90
       50
102
RTVSPost2010PropOp42
 70
     1
102
RTVSPost2010Prop43
 90
        3
102
RTVSPost2010PropOp43
 70
     1
102
RTVSPost2010Prop44ColorIndex
 90
        5
102
RTVSPost2010Prop44ColorRGB
 90
      255
102
RTVSPost2010PropOp44
 70
     1
102
RTVSPost2010Prop45
280
     0
102
RTVSPost2010PropOp45
 70
     1
102
RTVSPost2010Prop46
 90
       50
102
RTVSPost2010PropOp46
 70
     1
102
RTVSPost2010Prop47
 90
       50
102
RTVSPost2010PropOp47
 70
     1
102
RTVSPost2010Prop48
 90
       50
102
RTVSPost2010PropOp48
 70
     1
102
RTVSPost2010Prop49
280
     0
102
RTVSPost2010PropOp49
 70
     1
102
RTVSPost2010Prop50
 90
       50
102
RTVSPost2010PropOp50
 70
     1
102
RTVSPost2010Prop51ColorIndex
 90
      256
102
RTVSPost2010Prop51ColorRGB
 90
-16777216
102
RTVSPost2010PropOp51
 70
     0
102
RTVSPost2010Prop52
140
1.0
102
RTVSPost2010PropOp52
 70
     0
102
RTVSPost2010Prop53
 90
        2
102
RTVSPost2010PropOp53
 70
     1
102
RTVSPost2010Prop54
  1
strokes_ogs.tif
102
RTVSPost2010PropOp54
 70
     1
102
RTVSPost2010Prop55
280
     0
102
RTVSPost2010PropOp55
 70
     1
102
RTVSPost2010Prop56
140
1.0
102
RTVSPost2010PropOp56
 70
     1
102
RTVSPost2010Prop57
140
1.0
102
RTVSPost2010PropOp57
 70
     1
  0
XRECORD
  5
11E
102
{ACAD_REACTORS
330
11D
102
}
330
11D
100
AcDbXrecord
280
     1
102
RTVSPost2010Prop28
280
     0
102
RTVSPost2010PropOp28
 70
     1
102
RTVSPost2010Prop29
280
     1
102
RTVSPost2010PropOp29
 70
     1
102
RTVSPost2010Prop30
280
     1
102
RTVSPost2010PropOp30
 70
     1
102
RTVSPost2010Prop31
280
     0
102
RTVSPost2010PropOp31
 70
     1
102
RTVSPost2010Prop32
280
     0
102
RTVSPost2010PropOp32
 70
     1
102
RTVSPost2010Prop33
280
     0
102
RTVSPost2010PropOp33
 70
     1
102
RTVSPost2010Prop34
280
     0
102
RTVSPost2010PropOp34
 70
     1
102
RTVSPost2010Prop35
280
     0
102
RTVSPost2010PropOp35
 70
     1
102
RTVSPost2010Prop36
280
     0
102
RTVSPost2010PropOp36
 70
     1
102
RTVSPost2010Prop37
 90
       50
102
RTVSPost2010PropOp37
 70
     1
102
RTVSPost2010Prop38
140
0.0
102
RTVSPost2010PropOp38
 70
     1
102
RTVSPost2010Prop39
140
1.0
102
RTVSPost2010PropOp39
 70
     1
102
RTVSPost2010Prop40
 90
        0
102
RTVSPost2010PropOp40
 70
     1
102
RTVSPost2010Prop41ColorIndex
 90
       18
102
RTVSPost2010Prop41ColorRGB
 90
        0
102
RTVSPost2010PropOp41
 70
     1
102
RTVSPost2010Prop42
 90
       50
102
RTVSPost2010PropOp42
 70
     1
102
RTVSPost2010Prop43
 90
        3
102
RTVSPost2010PropOp43
 70
     1
102
RTVSPost2010Prop44ColorIndex
 90
        5
102
RTVSPost2010Prop44ColorRGB
 90
      255
102
RTVSPost2010PropOp44
 70
     1
102
RTVSPost2010Prop45
280
     0
102
RTVSPost2010PropOp45
 70
     1
102
RTVSPost2010Prop46
 90
       50
102
RTVSPost2010PropOp46
 70
     1
102
RTVSPost2010Prop47
 90
       50
102
RTVSPost2010PropOp47
 70
     1
102
RTVSPost2010Prop48
 90
       50
102
RTVSPost2010PropOp48
 70
     1
102
RTVSPost2010Prop49
280
     0
102
RTVSPost2010PropOp49
 70
     1
102
RTVSPost2010Prop50
 90
       50
102
RTVSPost2010PropOp50
 70
     1
102
RTVSPost2010Prop51ColorIndex
 90
      256
102
RTVSPost2010Prop51ColorRGB
 90
-16777216
102
RTVSPost2010PropOp51
 70
     0
102
RTVSPost2010Prop52
140
1.0
102
RTVSPost2010PropOp52
 70
     0
102
RTVSPost2010Prop53
 90
        2
102
RTVSPost2010PropOp53
 70
     1
102
RTVSPost2010Prop54
  1
strokes_ogs.tif
102
RTVSPost2010PropOp54
 70
     1
102
RTVSPost2010Prop55
280
     0
102
RTVSPost2010PropOp55
 70
     1
102
RTVSPost2010Prop56
140
1.0
102
RTVSPost2010PropOp56
 70
     1
102
RTVSPost2010Prop57
140
1.0
102
RTVSPost2010PropOp57
 70
     1
  0
XRECORD
  5
12C
102
{ACAD_REACTORS
330
12B
102
}
330
12B
100
AcDbXrecord
280
     1
102
RTVSPost2010Prop28
280
     0
102
RTVSPost2010PropOp28
 70
     1
102
RTVSPost2010Prop29
280
     1
102
RTVSPost2010PropOp29
 70
     1
102
RTVSPost2010Prop30
280
     1
102
RTVSPost2010PropOp30
 70
     1
102
RTVSPost2010Prop31
280
     0
102
RTVSPost2010PropOp31
 70
     1
102
RTVSPost2010Prop32
280
     0
102
RTVSPost2010PropOp32
 70
     1
102
RTVSPost2010Prop33
280
     0
102
RTVSPost2010PropOp33
 70
     1
102
RTVSPost2010Prop34
280
     0
102
RTVSPost2010PropOp34
 70
     1
102
RTVSPost2010Prop35
280
     0
102
RTVSPost2010PropOp35
 70
     1
102
RTVSPost2010Prop36
280
     0
102
RTVSPost2010PropOp36
 70
     1
102
RTVSPost2010Prop37
 90
       50
102
RTVSPost2010PropOp37
 70
     1
102
RTVSPost2010Prop38
140
0.0
102
RTVSPost2010PropOp38
 70
     1
102
RTVSPost2010Prop39
140
1.0
102
RTVSPost2010PropOp39
 70
     1
102
RTVSPost2010Prop40
 90
        0
102
RTVSPost2010PropOp40
 70
     1
102
RTVSPost2010Prop41ColorIndex
 90
       18
102
RTVSPost2010Prop41ColorRGB
 90
        0
102
RTVSPost2010PropOp41
 70
     1
102
RTVSPost2010Prop42
 90
       50
102
RTVSPost2010PropOp42
 70
     1
102
RTVSPost2010Prop43
 90
        3
102
RTVSPost2010PropOp43
 70
     1
102
RTVSPost2010Prop44ColorIndex
 90
        5
102
RTVSPost2010Prop44ColorRGB
 90
      255
102
RTVSPost2010PropOp44
 70
     1
102
RTVSPost2010Prop45
280
     0
102
RTVSPost2010PropOp45
 70
     1
102
RTVSPost2010Prop46
 90
       50
102
RTVSPost2010PropOp46
 70
     1
102
RTVSPost2010Prop47
 90
       50
102
RTVSPost2010PropOp47
 70
     1
102
RTVSPost2010Prop48
 90
       50
102
RTVSPost2010PropOp48
 70
     1
102
RTVSPost2010Prop49
280
     0
102
RTVSPost2010PropOp49
 70
     1
102
RTVSPost2010Prop50
 90
       50
102
RTVSPost2010PropOp50
 70
     1
102
RTVSPost2010Prop51ColorIndex
 90
      256
102
RTVSPost2010Prop51ColorRGB
 90
-16777216
102
RTVSPost2010PropOp51
 70
     0
102
RTVSPost2010Prop52
140
1.0
102
RTVSPost2010PropOp52
 70
     0
102
RTVSPost2010Prop53
 90
        2
102
RTVSPost2010PropOp53
 70
     1
102
RTVSPost2010Prop54
  1
strokes_ogs.tif
102
RTVSPost2010PropOp54
 70
     1
102
RTVSPost2010Prop55
280
     0
102
RTVSPost2010PropOp55
 70
     1
102
RTVSPost2010Prop56
140
1.0
102
RTVSPost2010PropOp56
 70
     1
102
RTVSPost2010Prop57
140
1.0
102
RTVSPost2010PropOp57
 70
     1
  0
XRECORD
  5
134
102
{ACAD_REACTORS
330
133
102
}
330
133
100
AcDbXrecord
280
     1
102
RTVSPost2010Prop28
280
     0
102
RTVSPost2010PropOp28
 70
     1
102
RTVSPost2010Prop29
280
     1
102
RTVSPost2010PropOp29
 70
     1
102
RTVSPost2010Prop30
280
     1
102
RTVSPost2010PropOp30
 70
     1
102
RTVSPost2010Prop31
280
     0
102
RTVSPost2010PropOp31
 70
     1
102
RTVSPost2010Prop32
280
     0
102
RTVSPost2010PropOp32
 70
     1
102
RTVSPost2010Prop33
280
     0
102
RTVSPost2010PropOp33
 70
     1
102
RTVSPost2010Prop34
280
     0
102
RTVSPost2010PropOp34
 70
     1
102
RTVSPost2010Prop35
280
     0
102
RTVSPost2010PropOp35
 70
     1
102
RTVSPost2010Prop36
280
     0
102
RTVSPost2010PropOp36
 70
     1
102
RTVSPost2010Prop37
 90
       50
102
RTVSPost2010PropOp37
 70
     1
102
RTVSPost2010Prop38
140
0.0
102
RTVSPost2010PropOp38
 70
     1
102
RTVSPost2010Prop39
140
1.0
102
RTVSPost2010PropOp39
 70
     1
102
RTVSPost2010Prop40
 90
        0
102
RTVSPost2010PropOp40
 70
     1
102
RTVSPost2010Prop41ColorIndex
 90
       18
102
RTVSPost2010Prop41ColorRGB
 90
        0
102
RTVSPost2010PropOp41
 70
     1
102
RTVSPost2010Prop42
 90
       50
102
RTVSPost2010PropOp42
 70
     1
102
RTVSPost2010Prop43
 90
        3
102
RTVSPost2010PropOp43
 70
     1
102
RTVSPost2010Prop44ColorIndex
 90
        5
102
RTVSPost2010Prop44ColorRGB
 90
      255
102
RTVSPost2010PropOp44
 70
     1
102
RTVSPost2010Prop45
280
     0
102
RTVSPost2010PropOp45
 70
     1
102
RTVSPost2010Prop46
 90
       50
102
RTVSPost2010PropOp46
 70
     1
102
RTVSPost2010Prop47
 90
       50
102
RTVSPost2010PropOp47
 70
     1
102
RTVSPost2010Prop48
 90
       50
102
RTVSPost2010PropOp48
 70
     1
102
RTVSPost2010Prop49
280
     0
102
RTVSPost2010PropOp49
 70
     1
102
RTVSPost2010Prop50
 90
       50
102
RTVSPost2010PropOp50
 70
     1
102
RTVSPost2010Prop51ColorIndex
 90
      256
102
RTVSPost2010Prop51ColorRGB
 90
-16777216
102
RTVSPost2010PropOp51
 70
     0
102
RTVSPost2010Prop52
140
1.0
102
RTVSPost2010PropOp52
 70
     0
102
RTVSPost2010Prop53
 90
        2
102
RTVSPost2010PropOp53
 70
     1
102
RTVSPost2010Prop54
  1
strokes_ogs.tif
102
RTVSPost2010PropOp54
 70
     1
102
RTVSPost2010Prop55
280
     0
102
RTVSPost2010PropOp55
 70
     1
102
RTVSPost2010Prop56
140
1.0
102
RTVSPost2010PropOp56
 70
     1
102
RTVSPost2010Prop57
140
1.0
102
RTVSPost2010PropOp57
 70
     1
  0
XRECORD
  5
126
102
{ACAD_REACTORS
330
125
102
}
330
125
100
AcDbXrecord
280
     1
102
RTVSPost2010Prop28
280
     0
102
RTVSPost2010PropOp28
 70
     1
102
RTVSPost2010Prop29
280
     1
102
RTVSPost2010PropOp29
 70
     1
102
RTVSPost2010Prop30
280
     1
102
RTVSPost2010PropOp30
 70
     1
102
RTVSPost2010Prop31
280
     0
102
RTVSPost2010PropOp31
 70
     1
102
RTVSPost2010Prop32
280
     0
102
RTVSPost2010PropOp32
 70
     1
102
RTVSPost2010Prop33
280
     0
102
RTVSPost2010PropOp33
 70
     1
102
RTVSPost2010Prop34
280
     0
102
RTVSPost2010PropOp34
 70
     1
102
RTVSPost2010Prop35
280
     0
102
RTVSPost2010PropOp35
 70
     1
102
RTVSPost2010Prop36
280
     0
102
RTVSPost2010PropOp36
 70
     1
102
RTVSPost2010Prop37
 90
       50
102
RTVSPost2010PropOp37
 70
     1
102
RTVSPost2010Prop38
140
0.0
102
RTVSPost2010PropOp38
 70
     1
102
RTVSPost2010Prop39
140
1.0
102
RTVSPost2010PropOp39
 70
     1
102
RTVSPost2010Prop40
 90
        0
102
RTVSPost2010PropOp40
 70
     1
102
RTVSPost2010Prop41ColorIndex
 90
       18
102
RTVSPost2010Prop41ColorRGB
 90
        0
102
RTVSPost2010PropOp41
 70
     1
102
RTVSPost2010Prop42
 90
       50
102
RTVSPost2010PropOp42
 70
     1
102
RTVSPost2010Prop43
 90
        3
102
RTVSPost2010PropOp43
 70
     1
102
RTVSPost2010Prop44ColorIndex
 90
        5
102
RTVSPost2010Prop44ColorRGB
 90
      255
102
RTVSPost2010PropOp44
 70
     1
102
RTVSPost2010Prop45
280
     0
102
RTVSPost2010PropOp45
 70
     1
102
RTVSPost2010Prop46
 90
       50
102
RTVSPost2010PropOp46
 70
     1
102
RTVSPost2010Prop47
 90
       50
102
RTVSPost2010PropOp47
 70
     1
102
RTVSPost2010Prop48
 90
       50
102
RTVSPost2010PropOp48
 70
     1
102
RTVSPost2010Prop49
280
     0
102
RTVSPost2010PropOp49
 70
     1
102
RTVSPost2010Prop50
 90
       50
102
RTVSPost2010PropOp50
 70
     1
102
RTVSPost2010Prop51ColorIndex
 90
      256
102
RTVSPost2010Prop51ColorRGB
 90
-16777216
102
RTVSPost2010PropOp51
 70
     0
102
RTVSPost2010Prop52
140
1.0
102
RTVSPost2010PropOp52
 70
     0
102
RTVSPost2010Prop53
 90
        2
102
RTVSPost2010PropOp53
 70
     1
102
RTVSPost2010Prop54
  1
strokes_ogs.tif
102
RTVSPost2010PropOp54
 70
     1
102
RTVSPost2010Prop55
280
     0
102
RTVSPost2010PropOp55
 70
     1
102
RTVSPost2010Prop56
140
1.0
102
RTVSPost2010PropOp56
 70
     1
102
RTVSPost2010Prop57
140
1.0
102
RTVSPost2010PropOp57
 70
     1
  0
XRECORD
  5
12A
102
{ACAD_REACTORS
330
129
102
}
330
129
100
AcDbXrecord
280
     1
102
RTVSPost2010Prop28
280
     0
102
RTVSPost2010PropOp28
 70
     1
102
RTVSPost2010Prop29
280
     1
102
RTVSPost2010PropOp29
 70
     1
102
RTVSPost2010Prop30
280
     1
102
RTVSPost2010PropOp30
 70
     1
102
RTVSPost2010Prop31
280
     0
102
RTVSPost2010PropOp31
 70
     1
102
RTVSPost2010Prop32
280
     0
102
RTVSPost2010PropOp32
 70
     1
102
RTVSPost2010Prop33
280
     0
102
RTVSPost2010PropOp33
 70
     1
102
RTVSPost2010Prop34
280
     0
102
RTVSPost2010PropOp34
 70
     1
102
RTVSPost2010Prop35
280
     0
102
RTVSPost2010PropOp35
 70
     1
102
RTVSPost2010Prop36
280
     0
102
RTVSPost2010PropOp36
 70
     1
102
RTVSPost2010Prop37
 90
       50
102
RTVSPost2010PropOp37
 70
     1
102
RTVSPost2010Prop38
140
0.0
102
RTVSPost2010PropOp38
 70
     1
102
RTVSPost2010Prop39
140
1.0
102
RTVSPost2010PropOp39
 70
     1
102
RTVSPost2010Prop40
 90
        0
102
RTVSPost2010PropOp40
 70
     1
102
RTVSPost2010Prop41ColorIndex
 90
       18
102
RTVSPost2010Prop41ColorRGB
 90
        0
102
RTVSPost2010PropOp41
 70
     1
102
RTVSPost2010Prop42
 90
       50
102
RTVSPost2010PropOp42
 70
     1
102
RTVSPost2010Prop43
 90
        3
102
RTVSPost2010PropOp43
 70
     1
102
RTVSPost2010Prop44ColorIndex
 90
        5
102
RTVSPost2010Prop44ColorRGB
 90
      255
102
RTVSPost2010PropOp44
 70
     1
102
RTVSPost2010Prop45
280
     0
102
RTVSPost2010PropOp45
 70
     1
102
RTVSPost2010Prop46
 90
       50
102
RTVSPost2010PropOp46
 70
     1
102
RTVSPost2010Prop47
 90
       50
102
RTVSPost2010PropOp47
 70
     1
102
RTVSPost2010Prop48
 90
       50
102
RTVSPost2010PropOp48
 70
     1
102
RTVSPost2010Prop49
280
     0
102
RTVSPost2010PropOp49
 70
     1
102
RTVSPost2010Prop50
 90
       50
102
RTVSPost2010PropOp50
 70
     1
102
RTVSPost2010Prop51ColorIndex
 90
      256
102
RTVSPost2010Prop51ColorRGB
 90
-16777216
102
RTVSPost2010PropOp51
 70
     0
102
RTVSPost2010Prop52
140
1.0
102
RTVSPost2010PropOp52
 70
     0
102
RTVSPost2010Prop53
 90
        2
102
RTVSPost2010PropOp53
 70
     1
102
RTVSPost2010Prop54
  1
strokes_ogs.tif
102
RTVSPost2010PropOp54
 70
     1
102
RTVSPost2010Prop55
280
     0
102
RTVSPost2010PropOp55
 70
     1
102
RTVSPost2010Prop56
140
1.0
102
RTVSPost2010PropOp56
 70
     1
102
RTVSPost2010Prop57
140
1.0
102
RTVSPost2010PropOp57
 70
     1
  0
XRECORD
  5
144
102
{ACAD_REACTORS
330
143
102
}
330
143
100
AcDbXrecord
280
     1
102
RTVSPost2010Prop28
280
     0
102
RTVSPost2010PropOp28
 70
     0
102
RTVSPost2010Prop29
280
     1
102
RTVSPost2010PropOp29
 70
     0
102
RTVSPost2010Prop30
280
     1
102
RTVSPost2010PropOp30
 70
     0
102
RTVSPost2010Prop31
280
     0
102
RTVSPost2010PropOp31
 70
     0
102
RTVSPost2010Prop32
280
     0
102
RTVSPost2010PropOp32
 70
     0
102
RTVSPost2010Prop33
280
     0
102
RTVSPost2010PropOp33
 70
     0
102
RTVSPost2010Prop34
280
     0
102
RTVSPost2010PropOp34
 70
     0
102
RTVSPost2010Prop35
280
     0
102
RTVSPost2010PropOp35
 70
     0
102
RTVSPost2010Prop36
280
     0
102
RTVSPost2010PropOp36
 70
     0
102
RTVSPost2010Prop37
 90
       50
102
RTVSPost2010PropOp37
 70
     0
102
RTVSPost2010Prop38
140
0.0
102
RTVSPost2010PropOp38
 70
     0
102
RTVSPost2010Prop39
140
1.0
102
RTVSPost2010PropOp39
 70
     0
102
RTVSPost2010Prop40
 90
        0
102
RTVSPost2010PropOp40
 70
     0
102
RTVSPost2010Prop41ColorIndex
 90
       18
102
RTVSPost2010Prop41ColorRGB
 90
        0
102
RTVSPost2010PropOp41
 70
     0
102
RTVSPost2010Prop42
 90
       50
102
RTVSPost2010PropOp42
 70
     0
102
RTVSPost2010Prop43
 90
        3
102
RTVSPost2010PropOp43
 70
     0
102
RTVSPost2010Prop44ColorIndex
 90
        5
102
RTVSPost2010Prop44ColorRGB
 90
      255
102
RTVSPost2010PropOp44
 70
     0
102
RTVSPost2010Prop45
280
     0
102
RTVSPost2010PropOp45
 70
     0
102
RTVSPost2010Prop46
 90
       50
102
RTVSPost2010PropOp46
 70
     0
102
RTVSPost2010Prop47
 90
       50
102
RTVSPost2010PropOp47
 70
     0
102
RTVSPost2010Prop48
 90
       50
102
RTVSPost2010PropOp48
 70
     0
102
RTVSPost2010Prop49
280
     0
102
RTVSPost2010PropOp49
 70
     0
102
RTVSPost2010Prop50
 90
       50
102
RTVSPost2010PropOp50
 70
     0
102
RTVSPost2010Prop51ColorIndex
 90
      256
102
RTVSPost2010Prop51ColorRGB
 90
-16777216
102
RTVSPost2010PropOp51
 70
     0
102
RTVSPost2010Prop52
140
1.0
102
RTVSPost2010PropOp52
 70
     0
102
RTVSPost2010Prop53
 90
        2
102
RTVSPost2010PropOp53
 70
     0
102
RTVSPost2010Prop54
  1
strokes_ogs.tif
102
RTVSPost2010PropOp54
 70
     0
102
RTVSPost2010Prop55
280
     0
102
RTVSPost2010PropOp55
 70
     0
102
RTVSPost2010Prop56
140
1.0
102
RTVSPost2010PropOp56
 70
     0
102
RTVSPost2010Prop57
140
1.0
102
RTVSPost2010PropOp57
 70
     0
  0
XRECORD
  5
132
102
{ACAD_REACTORS
330
131
102
}
330
131
100
AcDbXrecord
280
     1
102
RTVSPost2010Prop28
280
     0
102
RTVSPost2010PropOp28
 70
     1
102
RTVSPost2010Prop29
280
     1
102
RTVSPost2010PropOp29
 70
     1
102
RTVSPost2010Prop30
280
     1
102
RTVSPost2010PropOp30
 70
     1
102
RTVSPost2010Prop31
280
     0
102
RTVSPost2010PropOp31
 70
     1
102
RTVSPost2010Prop32
280
     0
102
RTVSPost2010PropOp32
 70
     1
102
RTVSPost2010Prop33
280
     0
102
RTVSPost2010PropOp33
 70
     1
102
RTVSPost2010Prop34
280
     0
102
RTVSPost2010PropOp34
 70
     1
102
RTVSPost2010Prop35
280
     0
102
RTVSPost2010PropOp35
 70
     1
102
RTVSPost2010Prop36
280
     0
102
RTVSPost2010PropOp36
 70
     1
102
RTVSPost2010Prop37
 90
       50
102
RTVSPost2010PropOp37
 70
     1
102
RTVSPost2010Prop38
140
0.0
102
RTVSPost2010PropOp38
 70
     1
102
RTVSPost2010Prop39
140
1.0
102
RTVSPost2010PropOp39
 70
     1
102
RTVSPost2010Prop40
 90
        0
102
RTVSPost2010PropOp40
 70
     1
102
RTVSPost2010Prop41ColorIndex
 90
       18
102
RTVSPost2010Prop41ColorRGB
 90
        0
102
RTVSPost2010PropOp41
 70
     1
102
RTVSPost2010Prop42
 90
       50
102
RTVSPost2010PropOp42
 70
     1
102
RTVSPost2010Prop43
 90
        3
102
RTVSPost2010PropOp43
 70
     1
102
RTVSPost2010Prop44ColorIndex
 90
        5
102
RTVSPost2010Prop44ColorRGB
 90
      255
102
RTVSPost2010PropOp44
 70
     1
102
RTVSPost2010Prop45
280
     0
102
RTVSPost2010PropOp45
 70
     1
102
RTVSPost2010Prop46
 90
       50
102
RTVSPost2010PropOp46
 70
     1
102
RTVSPost2010Prop47
 90
       50
102
RTVSPost2010PropOp47
 70
     1
102
RTVSPost2010Prop48
 90
       50
102
RTVSPost2010PropOp48
 70
     1
102
RTVSPost2010Prop49
280
     0
102
RTVSPost2010PropOp49
 70
     1
102
RTVSPost2010Prop50
 90
       50
102
RTVSPost2010PropOp50
 70
     1
102
RTVSPost2010Prop51ColorIndex
 90
      256
102
RTVSPost2010Prop51ColorRGB
 90
-16777216
102
RTVSPost2010PropOp51
 70
     0
102
RTVSPost2010Prop52
140
1.0
102
RTVSPost2010PropOp52
 70
     0
102
RTVSPost2010Prop53
 90
        2
102
RTVSPost2010PropOp53
 70
     1
102
RTVSPost2010Prop54
  1
strokes_ogs.tif
102
RTVSPost2010PropOp54
 70
     1
102
RTVSPost2010Prop55
280
     0
102
RTVSPost2010PropOp55
 70
     1
102
RTVSPost2010Prop56
140
1.0
102
RTVSPost2010PropOp56
 70
     1
102
RTVSPost2010Prop57
140
1.0
102
RTVSPost2010PropOp57
 70
     1
  0
XRECORD
  5
116
102
{ACAD_REACTORS
330
115
102
}
330
115
100
AcDbXrecord
280
     1
102
RTVSPost2010Prop28
280
     0
102
RTVSPost2010PropOp28
 70
     1
102
RTVSPost2010Prop29
280
     1
102
RTVSPost2010PropOp29
 70
     1
102
RTVSPost2010Prop30
280
     1
102
RTVSPost2010PropOp30
 70
     1
102
RTVSPost2010Prop31
280
     0
102
RTVSPost2010PropOp31
 70
     1
102
RTVSPost2010Prop32
280
     0
102
RTVSPost2010PropOp32
 70
     1
102
RTVSPost2010Prop33
280
     0
102
RTVSPost2010PropOp33
 70
     1
102
RTVSPost2010Prop34
280
     0
102
RTVSPost2010PropOp34
 70
     1
102
RTVSPost2010Prop35
280
     0
102
RTVSPost2010PropOp35
 70
     1
102
RTVSPost2010Prop36
280
     0
102
RTVSPost2010PropOp36
 70
     1
102
RTVSPost2010Prop37
 90
       50
102
RTVSPost2010PropOp37
 70
     1
102
RTVSPost2010Prop38
140
0.0
102
RTVSPost2010PropOp38
 70
     1
102
RTVSPost2010Prop39
140
1.0
102
RTVSPost2010PropOp39
 70
     1
102
RTVSPost2010Prop40
 90
        0
102
RTVSPost2010PropOp40
 70
     1
102
RTVSPost2010Prop41ColorIndex
 90
       18
102
RTVSPost2010Prop41ColorRGB
 90
        0
102
RTVSPost2010PropOp41
 70
     1
102
RTVSPost2010Prop42
 90
       50
102
RTVSPost2010PropOp42
 70
     1
102
RTVSPost2010Prop43
 90
        3
102
RTVSPost2010PropOp43
 70
     1
102
RTVSPost2010Prop44ColorIndex
 90
        5
102
RTVSPost2010Prop44ColorRGB
 90
      255
102
RTVSPost2010PropOp44
 70
     1
102
RTVSPost2010Prop45
280
     0
102
RTVSPost2010PropOp45
 70
     1
102
RTVSPost2010Prop46
 90
       50
102
RTVSPost2010PropOp46
 70
     1
102
RTVSPost2010Prop47
 90
       50
102
RTVSPost2010PropOp47
 70
     1
102
RTVSPost2010Prop48
 90
       50
102
RTVSPost2010PropOp48
 70
     1
102
RTVSPost2010Prop49
280
     0
102
RTVSPost2010PropOp49
 70
     1
102
RTVSPost2010Prop50
 90
       50
102
RTVSPost2010PropOp50
 70
     1
102
RTVSPost2010Prop51ColorIndex
 90
      256
102
RTVSPost2010Prop51ColorRGB
 90
-16777216
102
RTVSPost2010PropOp51
 70
     0
102
RTVSPost2010Prop52
140
1.0
102
RTVSPost2010PropOp52
 70
     0
102
RTVSPost2010Prop53
 90
        2
102
RTVSPost2010PropOp53
 70
     1
102
RTVSPost2010Prop54
  1
strokes_ogs.tif
102
RTVSPost2010PropOp54
 70
     1
102
RTVSPost2010Prop55
280
     0
102
RTVSPost2010PropOp55
 70
     1
102
RTVSPost2010Prop56
140
1.0
102
RTVSPost2010PropOp56
 70
     1
102
RTVSPost2010Prop57
140
1.0
102
RTVSPost2010PropOp57
 70
     1
  0
XRECORD
  5
118
102
{ACAD_REACTORS
330
117
102
}
330
117
100
AcDbXrecord
280
     1
102
RTVSPost2010Prop28
280
     0
102
RTVSPost2010PropOp28
 70
     1
102
RTVSPost2010Prop29
280
     1
102
RTVSPost2010PropOp29
 70
     1
102
RTVSPost2010Prop30
280
     1
102
RTVSPost2010PropOp30
 70
     1
102
RTVSPost2010Prop31
280
     0
102
RTVSPost2010PropOp31
 70
     1
102
RTVSPost2010Prop32
280
     0
102
RTVSPost2010PropOp32
 70
     1
102
RTVSPost2010Prop33
280
     0
102
RTVSPost2010PropOp33
 70
     1
102
RTVSPost2010Prop34
280
     0
102
RTVSPost2010PropOp34
 70
     1
102
RTVSPost2010Prop35
280
     0
102
RTVSPost2010PropOp35
 70
     1
102
RTVSPost2010Prop36
280
     0
102
RTVSPost2010PropOp36
 70
     1
102
RTVSPost2010Prop37
 90
       50
102
RTVSPost2010PropOp37
 70
     1
102
RTVSPost2010Prop38
140
0.0
102
RTVSPost2010PropOp38
 70
     1
102
RTVSPost2010Prop39
140
1.0
102
RTVSPost2010PropOp39
 70
     1
102
RTVSPost2010Prop40
 90
        0
102
RTVSPost2010PropOp40
 70
     1
102
RTVSPost2010Prop41ColorIndex
 90
       18
102
RTVSPost2010Prop41ColorRGB
 90
        0
102
RTVSPost2010PropOp41
 70
     1
102
RTVSPost2010Prop42
 90
       50
102
RTVSPost2010PropOp42
 70
     1
102
RTVSPost2010Prop43
 90
        3
102
RTVSPost2010PropOp43
 70
     1
102
RTVSPost2010Prop44ColorIndex
 90
        5
102
RTVSPost2010Prop44ColorRGB
 90
      255
102
RTVSPost2010PropOp44
 70
     1
102
RTVSPost2010Prop45
280
     0
102
RTVSPost2010PropOp45
 70
     1
102
RTVSPost2010Prop46
 90
       50
102
RTVSPost2010PropOp46
 70
     1
102
RTVSPost2010Prop47
 90
       50
102
RTVSPost2010PropOp47
 70
     1
102
RTVSPost2010Prop48
 90
       50
102
RTVSPost2010PropOp48
 70
     1
102
RTVSPost2010Prop49
280
     0
102
RTVSPost2010PropOp49
 70
     1
102
RTVSPost2010Prop50
 90
       50
102
RTVSPost2010PropOp50
 70
     1
102
RTVSPost2010Prop51ColorIndex
 90
      256
102
RTVSPost2010Prop51ColorRGB
 90
-16777216
102
RTVSPost2010PropOp51
 70
     0
102
RTVSPost2010Prop52
140
1.0
102
RTVSPost2010PropOp52
 70
     0
102
RTVSPost2010Prop53
 90
        2
102
RTVSPost2010PropOp53
 70
     1
102
RTVSPost2010Prop54
  1
strokes_ogs.tif
102
RTVSPost2010PropOp54
 70
     1
102
RTVSPost2010Prop55
280
     0
102
RTVSPost2010PropOp55
 70
     1
102
RTVSPost2010Prop56
140
1.0
102
RTVSPost2010PropOp56
 70
     1
102
RTVSPost2010Prop57
140
1.0
102
RTVSPost2010PropOp57
 70
     1
  0
XRECORD
  5
11A
102
{ACAD_REACTORS
330
119
102
}
330
119
100
AcDbXrecord
280
     1
102
RTVSPost2010Prop28
280
     0
102
RTVSPost2010PropOp28
 70
     1
102
RTVSPost2010Prop29
280
     1
102
RTVSPost2010PropOp29
 70
     1
102
RTVSPost2010Prop30
280
     1
102
RTVSPost2010PropOp30
 70
     1
102
RTVSPost2010Prop31
280
     0
102
RTVSPost2010PropOp31
 70
     1
102
RTVSPost2010Prop32
280
     0
102
RTVSPost2010PropOp32
 70
     1
102
RTVSPost2010Prop33
280
     0
102
RTVSPost2010PropOp33
 70
     1
102
RTVSPost2010Prop34
280
     0
102
RTVSPost2010PropOp34
 70
     1
102
RTVSPost2010Prop35
280
     0
102
RTVSPost2010PropOp35
 70
     1
102
RTVSPost2010Prop36
280
     0
102
RTVSPost2010PropOp36
 70
     1
102
RTVSPost2010Prop37
 90
       50
102
RTVSPost2010PropOp37
 70
     1
102
RTVSPost2010Prop38
140
0.0
102
RTVSPost2010PropOp38
 70
     1
102
RTVSPost2010Prop39
140
1.0
102
RTVSPost2010PropOp39
 70
     1
102
RTVSPost2010Prop40
 90
        0
102
RTVSPost2010PropOp40
 70
     1
102
RTVSPost2010Prop41ColorIndex
 90
       18
102
RTVSPost2010Prop41ColorRGB
 90
        0
102
RTVSPost2010PropOp41
 70
     1
102
RTVSPost2010Prop42
 90
       50
102
RTVSPost2010PropOp42
 70
     1
102
RTVSPost2010Prop43
 90
        3
102
RTVSPost2010PropOp43
 70
     1
102
RTVSPost2010Prop44ColorIndex
 90
        5
102
RTVSPost2010Prop44ColorRGB
 90
      255
102
RTVSPost2010PropOp44
 70
     1
102
RTVSPost2010Prop45
280
     0
102
RTVSPost2010PropOp45
 70
     1
102
RTVSPost2010Prop46
 90
       50
102
RTVSPost2010PropOp46
 70
     1
102
RTVSPost2010Prop47
 90
       50
102
RTVSPost2010PropOp47
 70
     1
102
RTVSPost2010Prop48
 90
       50
102
RTVSPost2010PropOp48
 70
     1
102
RTVSPost2010Prop49
280
     0
102
RTVSPost2010PropOp49
 70
     1
102
RTVSPost2010Prop50
 90
       50
102
RTVSPost2010PropOp50
 70
     1
102
RTVSPost2010Prop51ColorIndex
 90
      256
102
RTVSPost2010Prop51ColorRGB
 90
-16777216
102
RTVSPost2010PropOp51
 70
     0
102
RTVSPost2010Prop52
140
1.0
102
RTVSPost2010PropOp52
 70
     0
102
RTVSPost2010Prop53
 90
        2
102
RTVSPost2010PropOp53
 70
     1
102
RTVSPost2010Prop54
  1
strokes_ogs.tif
102
RTVSPost2010PropOp54
 70
     1
102
RTVSPost2010Prop55
280
     0
102
RTVSPost2010PropOp55
 70
     1
102
RTVSPost2010Prop56
140
1.0
102
RTVSPost2010PropOp56
 70
     1
102
RTVSPost2010Prop57
140
1.0
102
RTVSPost2010PropOp57
 70
     1
  0
XRECORD
  5
11C
102
{ACAD_REACTORS
330
11B
102
}
330
11B
100
AcDbXrecord
280
     1
102
RTVSPost2010Prop28
280
     0
102
RTVSPost2010PropOp28
 70
     1
102
RTVSPost2010Prop29
280
     1
102
RTVSPost2010PropOp29
 70
     1
102
RTVSPost2010Prop30
280
     1
102
RTVSPost2010PropOp30
 70
     1
102
RTVSPost2010Prop31
280
     0
102
RTVSPost2010PropOp31
 70
     1
102
RTVSPost2010Prop32
280
     0
102
RTVSPost2010PropOp32
 70
     1
102
RTVSPost2010Prop33
280
     0
102
RTVSPost2010PropOp33
 70
     1
102
RTVSPost2010Prop34
280
     0
102
RTVSPost2010PropOp34
 70
     1
102
RTVSPost2010Prop35
280
     0
102
RTVSPost2010PropOp35
 70
     1
102
RTVSPost2010Prop36
280
     0
102
RTVSPost2010PropOp36
 70
     1
102
RTVSPost2010Prop37
 90
       50
102
RTVSPost2010PropOp37
 70
     1
102
RTVSPost2010Prop38
140
0.0
102
RTVSPost2010PropOp38
 70
     1
102
RTVSPost2010Prop39
140
1.0
102
RTVSPost2010PropOp39
 70
     1
102
RTVSPost2010Prop40
 90
        0
102
RTVSPost2010PropOp40
 70
     1
102
RTVSPost2010Prop41ColorIndex
 90
       18
102
RTVSPost2010Prop41ColorRGB
 90
        0
102
RTVSPost2010PropOp41
 70
     1
102
RTVSPost2010Prop42
 90
       50
102
RTVSPost2010PropOp42
 70
     1
102
RTVSPost2010Prop43
 90
        3
102
RTVSPost2010PropOp43
 70
     1
102
RTVSPost2010Prop44ColorIndex
 90
        5
102
RTVSPost2010Prop44ColorRGB
 90
      255
102
RTVSPost2010PropOp44
 70
     1
102
RTVSPost2010Prop45
280
     0
102
RTVSPost2010PropOp45
 70
     1
102
RTVSPost2010Prop46
 90
       50
102
RTVSPost2010PropOp46
 70
     1
102
RTVSPost2010Prop47
 90
       50
102
RTVSPost2010PropOp47
 70
     1
102
RTVSPost2010Prop48
 90
       50
102
RTVSPost2010PropOp48
 70
     1
102
RTVSPost2010Prop49
280
     0
102
RTVSPost2010PropOp49
 70
     1
102
RTVSPost2010Prop50
 90
       50
102
RTVSPost2010PropOp50
 70
     1
102
RTVSPost2010Prop51ColorIndex
 90
      256
102
RTVSPost2010Prop51ColorRGB
 90
-16777216
102
RTVSPost2010PropOp51
 70
     0
102
RTVSPost2010Prop52
140
1.0
102
RTVSPost2010PropOp52
 70
     0
102
RTVSPost2010Prop53
 90
        2
102
RTVSPost2010PropOp53
 70
     1
102
RTVSPost2010Prop54
  1
strokes_ogs.tif
102
RTVSPost2010PropOp54
 70
     1
102
RTVSPost2010Prop55
280
     0
102
RTVSPost2010PropOp55
 70
     1
102
RTVSPost2010Prop56
140
1.0
102
RTVSPost2010PropOp56
 70
     1
102
RTVSPost2010Prop57
140
1.0
102
RTVSPost2010PropOp57
 70
     1
  0
XRECORD
  5
124
102
{ACAD_REACTORS
330
123
102
}
330
123
100
AcDbXrecord
280
     1
102
RTVSPost2010Prop28
280
     0
102
RTVSPost2010PropOp28
 70
     1
102
RTVSPost2010Prop29
280
     1
102
RTVSPost2010PropOp29
 70
     1
102
RTVSPost2010Prop30
280
     1
102
RTVSPost2010PropOp30
 70
     1
102
RTVSPost2010Prop31
280
     0
102
RTVSPost2010PropOp31
 70
     1
102
RTVSPost2010Prop32
280
     0
102
RTVSPost2010PropOp32
 70
     1
102
RTVSPost2010Prop33
280
     0
102
RTVSPost2010PropOp33
 70
     1
102
RTVSPost2010Prop34
280
     0
102
RTVSPost2010PropOp34
 70
     1
102
RTVSPost2010Prop35
280
     0
102
RTVSPost2010PropOp35
 70
     1
102
RTVSPost2010Prop36
280
     0
102
RTVSPost2010PropOp36
 70
     1
102
RTVSPost2010Prop37
 90
       50
102
RTVSPost2010PropOp37
 70
     1
102
RTVSPost2010Prop38
140
0.0
102
RTVSPost2010PropOp38
 70
     1
102
RTVSPost2010Prop39
140
1.0
102
RTVSPost2010PropOp39
 70
     1
102
RTVSPost2010Prop40
 90
        0
102
RTVSPost2010PropOp40
 70
     1
102
RTVSPost2010Prop41ColorIndex
 90
       18
102
RTVSPost2010Prop41ColorRGB
 90
        0
102
RTVSPost2010PropOp41
 70
     1
102
RTVSPost2010Prop42
 90
       50
102
RTVSPost2010PropOp42
 70
     1
102
RTVSPost2010Prop43
 90
        3
102
RTVSPost2010PropOp43
 70
     1
102
RTVSPost2010Prop44ColorIndex
 90
        5
102
RTVSPost2010Prop44ColorRGB
 90
      255
102
RTVSPost2010PropOp44
 70
     1
102
RTVSPost2010Prop45
280
     0
102
RTVSPost2010PropOp45
 70
     1
102
RTVSPost2010Prop46
 90
       50
102
RTVSPost2010PropOp46
 70
     1
102
RTVSPost2010Prop47
 90
       50
102
RTVSPost2010PropOp47
 70
     1
102
RTVSPost2010Prop48
 90
       50
102
RTVSPost2010PropOp48
 70
     1
102
RTVSPost2010Prop49
280
     0
102
RTVSPost2010PropOp49
 70
     1
102
RTVSPost2010Prop50
 90
       50
102
RTVSPost2010PropOp50
 70
     1
102
RTVSPost2010Prop51ColorIndex
 90
      256
102
RTVSPost2010Prop51ColorRGB
 90
-16777216
102
RTVSPost2010PropOp51
 70
     0
102
RTVSPost2010Prop52
140
1.0
102
RTVSPost2010PropOp52
 70
     0
102
RTVSPost2010Prop53
 90
        2
102
RTVSPost2010PropOp53
 70
     1
102
RTVSPost2010Prop54
  1
strokes_ogs.tif
102
RTVSPost2010PropOp54
 70
     1
102
RTVSPost2010Prop55
280
     0
102
RTVSPost2010PropOp55
 70
     1
102
RTVSPost2010Prop56
140
1.0
102
RTVSPost2010PropOp56
 70
     1
102
RTVSPost2010Prop57
140
1.0
102
RTVSPost2010PropOp57
 70
     1
  0
XRECORD
  5
140
102
{ACAD_REACTORS
330
13F
102
}
330
13F
100
AcDbXrecord
280
     1
102
RTVSPost2010Prop28
280
     0
102
RTVSPost2010PropOp28
 70
     0
102
RTVSPost2010Prop29
280
     1
102
RTVSPost2010PropOp29
 70
     0
102
RTVSPost2010Prop30
280
     1
102
RTVSPost2010PropOp30
 70
     0
102
RTVSPost2010Prop31
280
     0
102
RTVSPost2010PropOp31
 70
     0
102
RTVSPost2010Prop32
280
     0
102
RTVSPost2010PropOp32
 70
     0
102
RTVSPost2010Prop33
280
     0
102
RTVSPost2010PropOp33
 70
     0
102
RTVSPost2010Prop34
280
     0
102
RTVSPost2010PropOp34
 70
     0
102
RTVSPost2010Prop35
280
     0
102
RTVSPost2010PropOp35
 70
     0
102
RTVSPost2010Prop36
280
     0
102
RTVSPost2010PropOp36
 70
     0
102
RTVSPost2010Prop37
 90
       50
102
RTVSPost2010PropOp37
 70
     0
102
RTVSPost2010Prop38
140
0.0
102
RTVSPost2010PropOp38
 70
     0
102
RTVSPost2010Prop39
140
1.0
102
RTVSPost2010PropOp39
 70
     0
102
RTVSPost2010Prop40
 90
        0
102
RTVSPost2010PropOp40
 70
     0
102
RTVSPost2010Prop41ColorIndex
 90
       18
102
RTVSPost2010Prop41ColorRGB
 90
        0
102
RTVSPost2010PropOp41
 70
     0
102
RTVSPost2010Prop42
 90
       50
102
RTVSPost2010PropOp42
 70
     0
102
RTVSPost2010Prop43
 90
        3
102
RTVSPost2010PropOp43
 70
     0
102
RTVSPost2010Prop44ColorIndex
 90
        5
102
RTVSPost2010Prop44ColorRGB
 90
      255
102
RTVSPost2010PropOp44
 70
     0
102
RTVSPost2010Prop45
280
     0
102
RTVSPost2010PropOp45
 70
     0
102
RTVSPost2010Prop46
 90
       50
102
RTVSPost2010PropOp46
 70
     0
102
RTVSPost2010Prop47
 90
       50
102
RTVSPost2010PropOp47
 70
     0
102
RTVSPost2010Prop48
 90
       50
102
RTVSPost2010PropOp48
 70
     0
102
RTVSPost2010Prop49
280
     0
102
RTVSPost2010PropOp49
 70
     0
102
RTVSPost2010Prop50
 90
       50
102
RTVSPost2010PropOp50
 70
     0
102
RTVSPost2010Prop51ColorIndex
 90
      256
102
RTVSPost2010Prop51ColorRGB
 90
-16777216
102
RTVSPost2010PropOp51
 70
     0
102
RTVSPost2010Prop52
140
1.0
102
RTVSPost2010PropOp52
 70
     0
102
RTVSPost2010Prop53
 90
        2
102
RTVSPost2010PropOp53
 70
     0
102
RTVSPost2010Prop54
  1
strokes_ogs.tif
102
RTVSPost2010PropOp54
 70
     0
102
RTVSPost2010Prop55
280
     0
102
RTVSPost2010PropOp55
 70
     0
102
RTVSPost2010Prop56
140
1.0
102
RTVSPost2010PropOp56
 70
     0
102
RTVSPost2010Prop57
140
1.0
102
RTVSPost2010PropOp57
 70
     0
  0
XRECORD
  5
130
102
{ACAD_REACTORS
330
12F
102
}
330
12F
100
AcDbXrecord
280
     1
102
RTVSPost2010Prop28
280
     0
102
RTVSPost2010PropOp28
 70
     1
102
RTVSPost2010Prop29
280
     1
102
RTVSPost2010PropOp29
 70
     1
102
RTVSPost2010Prop30
280
     1
102
RTVSPost2010PropOp30
 70
     1
102
RTVSPost2010Prop31
280
     0
102
RTVSPost2010PropOp31
 70
     1
102
RTVSPost2010Prop32
280
     0
102
RTVSPost2010PropOp32
 70
     1
102
RTVSPost2010Prop33
280
     0
102
RTVSPost2010PropOp33
 70
     1
102
RTVSPost2010Prop34
280
     0
102
RTVSPost2010PropOp34
 70
     1
102
RTVSPost2010Prop35
280
     0
102
RTVSPost2010PropOp35
 70
     1
102
RTVSPost2010Prop36
280
     0
102
RTVSPost2010PropOp36
 70
     1
102
RTVSPost2010Prop37
 90
       50
102
RTVSPost2010PropOp37
 70
     1
102
RTVSPost2010Prop38
140
0.0
102
RTVSPost2010PropOp38
 70
     1
102
RTVSPost2010Prop39
140
1.0
102
RTVSPost2010PropOp39
 70
     1
102
RTVSPost2010Prop40
 90
        0
102
RTVSPost2010PropOp40
 70
     1
102
RTVSPost2010Prop41ColorIndex
 90
       18
102
RTVSPost2010Prop41ColorRGB
 90
        0
102
RTVSPost2010PropOp41
 70
     1
102
RTVSPost2010Prop42
 90
       50
102
RTVSPost2010PropOp42
 70
     1
102
RTVSPost2010Prop43
 90
        3
102
RTVSPost2010PropOp43
 70
     1
102
RTVSPost2010Prop44ColorIndex
 90
        5
102
RTVSPost2010Prop44ColorRGB
 90
      255
102
RTVSPost2010PropOp44
 70
     1
102
RTVSPost2010Prop45
280
     0
102
RTVSPost2010PropOp45
 70
     1
102
RTVSPost2010Prop46
 90
       50
102
RTVSPost2010PropOp46
 70
     1
102
RTVSPost2010Prop47
 90
       50
102
RTVSPost2010PropOp47
 70
     1
102
RTVSPost2010Prop48
 90
       50
102
RTVSPost2010PropOp48
 70
     1
102
RTVSPost2010Prop49
280
     0
102
RTVSPost2010PropOp49
 70
     1
102
RTVSPost2010Prop50
 90
       50
102
RTVSPost2010PropOp50
 70
     1
102
RTVSPost2010Prop51ColorIndex
 90
      256
102
RTVSPost2010Prop51ColorRGB
 90
-16777216
102
RTVSPost2010PropOp51
 70
     0
102
RTVSPost2010Prop52
140
1.0
102
RTVSPost2010PropOp52
 70
     0
102
RTVSPost2010Prop53
 90
        2
102
RTVSPost2010PropOp53
 70
     1
102
RTVSPost2010Prop54
  1
strokes_ogs.tif
102
RTVSPost2010PropOp54
 70
     1
102
RTVSPost2010Prop55
280
     0
102
RTVSPost2010PropOp55
 70
     1
102
RTVSPost2010Prop56
140
1.0
102
RTVSPost2010PropOp56
 70
     1
102
RTVSPost2010Prop57
140
1.0
102
RTVSPost2010PropOp57
 70
     1
  0
XRECORD
  5
142
102
{ACAD_REACTORS
330
141
102
}
330
141
100
AcDbXrecord
280
     1
102
RTVSPost2010Prop28
280
     0
102
RTVSPost2010PropOp28
 70
     0
102
RTVSPost2010Prop29
280
     1
102
RTVSPost2010PropOp29
 70
     0
102
RTVSPost2010Prop30
280
     1
102
RTVSPost2010PropOp30
 70
     0
102
RTVSPost2010Prop31
280
     0
102
RTVSPost2010PropOp31
 70
     0
102
RTVSPost2010Prop32
280
     0
102
RTVSPost2010PropOp32
 70
     0
102
RTVSPost2010Prop33
280
     0
102
RTVSPost2010PropOp33
 70
     0
102
RTVSPost2010Prop34
280
     0
102
RTVSPost2010PropOp34
 70
     0
102
RTVSPost2010Prop35
280
     0
102
RTVSPost2010PropOp35
 70
     0
102
RTVSPost2010Prop36
280
     0
102
RTVSPost2010PropOp36
 70
     0
102
RTVSPost2010Prop37
 90
       50
102
RTVSPost2010PropOp37
 70
     0
102
RTVSPost2010Prop38
140
0.0
102
RTVSPost2010PropOp38
 70
     0
102
RTVSPost2010Prop39
140
1.0
102
RTVSPost2010PropOp39
 70
     0
102
RTVSPost2010Prop40
 90
        0
102
RTVSPost2010PropOp40
 70
     0
102
RTVSPost2010Prop41ColorIndex
 90
       18
102
RTVSPost2010Prop41ColorRGB
 90
        0
102
RTVSPost2010PropOp41
 70
     0
102
RTVSPost2010Prop42
 90
       50
102
RTVSPost2010PropOp42
 70
     0
102
RTVSPost2010Prop43
 90
        3
102
RTVSPost2010PropOp43
 70
     0
102
RTVSPost2010Prop44ColorIndex
 90
        5
102
RTVSPost2010Prop44ColorRGB
 90
      255
102
RTVSPost2010PropOp44
 70
     0
102
RTVSPost2010Prop45
280
     0
102
RTVSPost2010PropOp45
 70
     0
102
RTVSPost2010Prop46
 90
       50
102
RTVSPost2010PropOp46
 70
     0
102
RTVSPost2010Prop47
 90
       50
102
RTVSPost2010PropOp47
 70
     0
102
RTVSPost2010Prop48
 90
       50
102
RTVSPost2010PropOp48
 70
     0
102
RTVSPost2010Prop49
280
     0
102
RTVSPost2010PropOp49
 70
     0
102
RTVSPost2010Prop50
 90
       50
102
RTVSPost2010PropOp50
 70
     0
102
RTVSPost2010Prop51ColorIndex
 90
      256
102
RTVSPost2010Prop51ColorRGB
 90
-16777216
102
RTVSPost2010PropOp51
 70
     0
102
RTVSPost2010Prop52
140
1.0
102
RTVSPost2010PropOp52
 70
     0
102
RTVSPost2010Prop53
 90
        2
102
RTVSPost2010PropOp53
 70
     0
102
RTVSPost2010Prop54
  1
strokes_ogs.tif
102
RTVSPost2010PropOp54
 70
     0
102
RTVSPost2010Prop55
280
     0
102
RTVSPost2010PropOp55
 70
     0
102
RTVSPost2010Prop56
140
1.0
102
RTVSPost2010PropOp56
 70
     0
102
RTVSPost2010Prop57
140
1.0
102
RTVSPost2010PropOp57
 70
     0
  0
XRECORD
  5
128
102
{ACAD_REACTORS
330
127
102
}
330
127
100
AcDbXrecord
280
     1
102
RTVSPost2010Prop28
280
     0
102
RTVSPost2010PropOp28
 70
     1
102
RTVSPost2010Prop29
280
     1
102
RTVSPost2010PropOp29
 70
     1
102
RTVSPost2010Prop30
280
     1
102
RTVSPost2010PropOp30
 70
     1
102
RTVSPost2010Prop31
280
     0
102
RTVSPost2010PropOp31
 70
     1
102
RTVSPost2010Prop32
280
     0
102
RTVSPost2010PropOp32
 70
     1
102
RTVSPost2010Prop33
280
     0
102
RTVSPost2010PropOp33
 70
     1
102
RTVSPost2010Prop34
280
     0
102
RTVSPost2010PropOp34
 70
     1
102
RTVSPost2010Prop35
280
     0
102
RTVSPost2010PropOp35
 70
     1
102
RTVSPost2010Prop36
280
     0
102
RTVSPost2010PropOp36
 70
     1
102
RTVSPost2010Prop37
 90
       50
102
RTVSPost2010PropOp37
 70
     1
102
RTVSPost2010Prop38
140
0.0
102
RTVSPost2010PropOp38
 70
     1
102
RTVSPost2010Prop39
140
1.0
102
RTVSPost2010PropOp39
 70
     1
102
RTVSPost2010Prop40
 90
        0
102
RTVSPost2010PropOp40
 70
     1
102
RTVSPost2010Prop41ColorIndex
 90
       18
102
RTVSPost2010Prop41ColorRGB
 90
        0
102
RTVSPost2010PropOp41
 70
     1
102
RTVSPost2010Prop42
 90
       50
102
RTVSPost2010PropOp42
 70
     1
102
RTVSPost2010Prop43
 90
        3
102
RTVSPost2010PropOp43
 70
     1
102
RTVSPost2010Prop44ColorIndex
 90
        5
102
RTVSPost2010Prop44ColorRGB
 90
      255
102
RTVSPost2010PropOp44
 70
     1
102
RTVSPost2010Prop45
280
     0
102
RTVSPost2010PropOp45
 70
     1
102
RTVSPost2010Prop46
 90
       50
102
RTVSPost2010PropOp46
 70
     1
102
RTVSPost2010Prop47
 90
       50
102
RTVSPost2010PropOp47
 70
     1
102
RTVSPost2010Prop48
 90
       50
102
RTVSPost2010PropOp48
 70
     1
102
RTVSPost2010Prop49
280
     0
102
RTVSPost2010PropOp49
 70
     1
102
RTVSPost2010Prop50
 90
       50
102
RTVSPost2010PropOp50
 70
     1
102
RTVSPost2010Prop51ColorIndex
 90
      256
102
RTVSPost2010Prop51ColorRGB
 90
-16777216
102
RTVSPost2010PropOp51
 70
     0
102
RTVSPost2010Prop52
140
1.0
102
RTVSPost2010PropOp52
 70
     0
102
RTVSPost2010Prop53
 90
        2
102
RTVSPost2010PropOp53
 70
     1
102
RTVSPost2010Prop54
  1
strokes_ogs.tif
102
RTVSPost2010PropOp54
 70
     1
102
RTVSPost2010Prop55
280
     0
102
RTVSPost2010PropOp55
 70
     1
102
RTVSPost2010Prop56
140
1.0
102
RTVSPost2010PropOp56
 70
     1
102
RTVSPost2010Prop57
140
1.0
102
RTVSPost2010PropOp57
 70
     1
  0
XRECORD
  5
13E
102
{ACAD_REACTORS
330
13D
102
}
330
13D
100
AcDbXrecord
280
     1
102
RTVSPost2010Prop28
280
     0
102
RTVSPost2010PropOp28
 70
     1
102
RTVSPost2010Prop29
280
     1
102
RTVSPost2010PropOp29
 70
     1
102
RTVSPost2010Prop30
280
     1
102
RTVSPost2010PropOp30
 70
     1
102
RTVSPost2010Prop31
280
     0
102
RTVSPost2010PropOp31
 70
     1
102
RTVSPost2010Prop32
280
     0
102
RTVSPost2010PropOp32
 70
     1
102
RTVSPost2010Prop33
280
     0
102
RTVSPost2010PropOp33
 70
     1
102
RTVSPost2010Prop34
280
     0
102
RTVSPost2010PropOp34
 70
     1
102
RTVSPost2010Prop35
280
     0
102
RTVSPost2010PropOp35
 70
     1
102
RTVSPost2010Prop36
280
     0
102
RTVSPost2010PropOp36
 70
     1
102
RTVSPost2010Prop37
 90
       50
102
RTVSPost2010PropOp37
 70
     1
102
RTVSPost2010Prop38
140
0.0
102
RTVSPost2010PropOp38
 70
     1
102
RTVSPost2010Prop39
140
1.0
102
RTVSPost2010PropOp39
 70
     1
102
RTVSPost2010Prop40
 90
        0
102
RTVSPost2010PropOp40
 70
     1
102
RTVSPost2010Prop41ColorIndex
 90
       18
102
RTVSPost2010Prop41ColorRGB
 90
        0
102
RTVSPost2010PropOp41
 70
     1
102
RTVSPost2010Prop42
 90
       50
102
RTVSPost2010PropOp42
 70
     1
102
RTVSPost2010Prop43
 90
        3
102
RTVSPost2010PropOp43
 70
     1
102
RTVSPost2010Prop44ColorIndex
 90
        5
102
RTVSPost2010Prop44ColorRGB
 90
      255
102
RTVSPost2010PropOp44
 70
     1
102
RTVSPost2010Prop45
280
     0
102
RTVSPost2010PropOp45
 70
     1
102
RTVSPost2010Prop46
 90
       50
102
RTVSPost2010PropOp46
 70
     1
102
RTVSPost2010Prop47
 90
       50
102
RTVSPost2010PropOp47
 70
     1
102
RTVSPost2010Prop48
 90
       50
102
RTVSPost2010PropOp48
 70
     1
102
RTVSPost2010Prop49
280
     0
102
RTVSPost2010PropOp49
 70
     1
102
RTVSPost2010Prop50
 90
       50
102
RTVSPost2010PropOp50
 70
     1
102
RTVSPost2010Prop51ColorIndex
 90
      256
102
RTVSPost2010Prop51ColorRGB
 90
-16777216
102
RTVSPost2010PropOp51
 70
     0
102
RTVSPost2010Prop52
140
1.0
102
RTVSPost2010PropOp52
 70
     0
102
RTVSPost2010Prop53
 90
        2
102
RTVSPost2010PropOp53
 70
     1
102
RTVSPost2010Prop54
  1
strokes_ogs.tif
102
RTVSPost2010PropOp54
 70
     1
102
RTVSPost2010Prop55
280
     0
102
RTVSPost2010PropOp55
 70
     1
102
RTVSPost2010Prop56
140
1.0
102
RTVSPost2010PropOp56
 70
     1
102
RTVSPost2010Prop57
140
1.0
102
RTVSPost2010PropOp57
 70
     1
  0
XRECORD
  5
13C
102
{ACAD_REACTORS
330
13B
102
}
330
13B
100
AcDbXrecord
280
     1
102
RTVSPost2010Prop28
280
     0
102
RTVSPost2010PropOp28
 70
     1
102
RTVSPost2010Prop29
280
     1
102
RTVSPost2010PropOp29
 70
     1
102
RTVSPost2010Prop30
280
     1
102
RTVSPost2010PropOp30
 70
     1
102
RTVSPost2010Prop31
280
     0
102
RTVSPost2010PropOp31
 70
     1
102
RTVSPost2010Prop32
280
     0
102
RTVSPost2010PropOp32
 70
     1
102
RTVSPost2010Prop33
280
     0
102
RTVSPost2010PropOp33
 70
     1
102
RTVSPost2010Prop34
280
     0
102
RTVSPost2010PropOp34
 70
     1
102
RTVSPost2010Prop35
280
     0
102
RTVSPost2010PropOp35
 70
     1
102
RTVSPost2010Prop36
280
     0
102
RTVSPost2010PropOp36
 70
     1
102
RTVSPost2010Prop37
 90
       50
102
RTVSPost2010PropOp37
 70
     1
102
RTVSPost2010Prop38
140
0.0
102
RTVSPost2010PropOp38
 70
     1
102
RTVSPost2010Prop39
140
1.0
102
RTVSPost2010PropOp39
 70
     1
102
RTVSPost2010Prop40
 90
        0
102
RTVSPost2010PropOp40
 70
     1
102
RTVSPost2010Prop41ColorIndex
 90
       18
102
RTVSPost2010Prop41ColorRGB
 90
        0
102
RTVSPost2010PropOp41
 70
     1
102
RTVSPost2010Prop42
 90
       50
102
RTVSPost2010PropOp42
 70
     1
102
RTVSPost2010Prop43
 90
        3
102
RTVSPost2010PropOp43
 70
     1
102
RTVSPost2010Prop44ColorIndex
 90
        5
102
RTVSPost2010Prop44ColorRGB
 90
      255
102
RTVSPost2010PropOp44
 70
     1
102
RTVSPost2010Prop45
280
     0
102
RTVSPost2010PropOp45
 70
     1
102
RTVSPost2010Prop46
 90
       50
102
RTVSPost2010PropOp46
 70
     1
102
RTVSPost2010Prop47
 90
       50
102
RTVSPost2010PropOp47
 70
     1
102
RTVSPost2010Prop48
 90
       50
102
RTVSPost2010PropOp48
 70
     1
102
RTVSPost2010Prop49
280
     0
102
RTVSPost2010PropOp49
 70
     1
102
RTVSPost2010Prop50
 90
       50
102
RTVSPost2010PropOp50
 70
     1
102
RTVSPost2010Prop51ColorIndex
 90
      256
102
RTVSPost2010Prop51ColorRGB
 90
-16777216
102
RTVSPost2010PropOp51
 70
     0
102
RTVSPost2010Prop52
140
1.0
102
RTVSPost2010PropOp52
 70
     0
102
RTVSPost2010Prop53
 90
        2
102
RTVSPost2010PropOp53
 70
     1
102
RTVSPost2010Prop54
  1
strokes_ogs.tif
102
RTVSPost2010PropOp54
 70
     1
102
RTVSPost2010Prop55
280
     0
102
RTVSPost2010PropOp55
 70
     1
102
RTVSPost2010Prop56
140
1.0
102
RTVSPost2010PropOp56
 70
     1
102
RTVSPost2010Prop57
140
1.0
102
RTVSPost2010PropOp57
 70
     1
  0
XRECORD
  5
136
102
{ACAD_REACTORS
330
135
102
}
330
135
100
AcDbXrecord
280
     1
102
RTVSPost2010Prop28
280
     0
102
RTVSPost2010PropOp28
 70
     1
102
RTVSPost2010Prop29
280
     1
102
RTVSPost2010PropOp29
 70
     1
102
RTVSPost2010Prop30
280
     1
102
RTVSPost2010PropOp30
 70
     1
102
RTVSPost2010Prop31
280
     0
102
RTVSPost2010PropOp31
 70
     1
102
RTVSPost2010Prop32
280
     0
102
RTVSPost2010PropOp32
 70
     1
102
RTVSPost2010Prop33
280
     0
102
RTVSPost2010PropOp33
 70
     1
102
RTVSPost2010Prop34
280
     0
102
RTVSPost2010PropOp34
 70
     1
102
RTVSPost2010Prop35
280
     0
102
RTVSPost2010PropOp35
 70
     1
102
RTVSPost2010Prop36
280
     0
102
RTVSPost2010PropOp36
 70
     1
102
RTVSPost2010Prop37
 90
       50
102
RTVSPost2010PropOp37
 70
     1
102
RTVSPost2010Prop38
140
0.0
102
RTVSPost2010PropOp38
 70
     1
102
RTVSPost2010Prop39
140
1.0
102
RTVSPost2010PropOp39
 70
     1
102
RTVSPost2010Prop40
 90
        0
102
RTVSPost2010PropOp40
 70
     1
102
RTVSPost2010Prop41ColorIndex
 90
       18
102
RTVSPost2010Prop41ColorRGB
 90
        0
102
RTVSPost2010PropOp41
 70
     1
102
RTVSPost2010Prop42
 90
       50
102
RTVSPost2010PropOp42
 70
     1
102
RTVSPost2010Prop43
 90
        3
102
RTVSPost2010PropOp43
 70
     1
102
RTVSPost2010Prop44ColorIndex
 90
        5
102
RTVSPost2010Prop44ColorRGB
 90
      255
102
RTVSPost2010PropOp44
 70
     1
102
RTVSPost2010Prop45
280
     0
102
RTVSPost2010PropOp45
 70
     1
102
RTVSPost2010Prop46
 90
       50
102
RTVSPost2010PropOp46
 70
     1
102
RTVSPost2010Prop47
 90
       50
102
RTVSPost2010PropOp47
 70
     1
102
RTVSPost2010Prop48
 90
       50
102
RTVSPost2010PropOp48
 70
     1
102
RTVSPost2010Prop49
280
     0
102
RTVSPost2010PropOp49
 70
     1
102
RTVSPost2010Prop50
 90
       50
102
RTVSPost2010PropOp50
 70
     1
102
RTVSPost2010Prop51ColorIndex
 90
      256
102
RTVSPost2010Prop51ColorRGB
 90
-16777216
102
RTVSPost2010PropOp51
 70
     0
102
RTVSPost2010Prop52
140
1.0
102
RTVSPost2010PropOp52
 70
     0
102
RTVSPost2010Prop53
 90
        2
102
RTVSPost2010PropOp53
 70
     1
102
RTVSPost2010Prop54
  1
strokes_ogs.tif
102
RTVSPost2010PropOp54
 70
     1
102
RTVSPost2010Prop55
280
     0
102
RTVSPost2010PropOp55
 70
     1
102
RTVSPost2010Prop56
140
1.0
102
RTVSPost2010PropOp56
 70
     1
102
RTVSPost2010Prop57
140
1.0
102
RTVSPost2010PropOp57
 70
     1
  0
XRECORD
  5
138
102
{ACAD_REACTORS
330
137
102
}
330
137
100
AcDbXrecord
280
     1
102
RTVSPost2010Prop28
280
     0
102
RTVSPost2010PropOp28
 70
     1
102
RTVSPost2010Prop29
280
     1
102
RTVSPost2010PropOp29
 70
     1
102
RTVSPost2010Prop30
280
     1
102
RTVSPost2010PropOp30
 70
     1
102
RTVSPost2010Prop31
280
     0
102
RTVSPost2010PropOp31
 70
     1
102
RTVSPost2010Prop32
280
     0
102
RTVSPost2010PropOp32
 70
     1
102
RTVSPost2010Prop33
280
     0
102
RTVSPost2010PropOp33
 70
     1
102
RTVSPost2010Prop34
280
     0
102
RTVSPost2010PropOp34
 70
     1
102
RTVSPost2010Prop35
280
     0
102
RTVSPost2010PropOp35
 70
     1
102
RTVSPost2010Prop36
280
     0
102
RTVSPost2010PropOp36
 70
     1
102
RTVSPost2010Prop37
 90
       50
102
RTVSPost2010PropOp37
 70
     1
102
RTVSPost2010Prop38
140
0.0
102
RTVSPost2010PropOp38
 70
     1
102
RTVSPost2010Prop39
140
1.0
102
RTVSPost2010PropOp39
 70
     1
102
RTVSPost2010Prop40
 90
        0
102
RTVSPost2010PropOp40
 70
     1
102
RTVSPost2010Prop41ColorIndex
 90
       18
102
RTVSPost2010Prop41ColorRGB
 90
        0
102
RTVSPost2010PropOp41
 70
     1
102
RTVSPost2010Prop42
 90
       50
102
RTVSPost2010PropOp42
 70
     1
102
RTVSPost2010Prop43
 90
        3
102
RTVSPost2010PropOp43
 70
     1
102
RTVSPost2010Prop44ColorIndex
 90
        5
102
RTVSPost2010Prop44ColorRGB
 90
      255
102
RTVSPost2010PropOp44
 70
     1
102
RTVSPost2010Prop45
280
     0
102
RTVSPost2010PropOp45
 70
     1
102
RTVSPost2010Prop46
 90
       50
102
RTVSPost2010PropOp46
 70
     1
102
RTVSPost2010Prop47
 90
       50
102
RTVSPost2010PropOp47
 70
     1
102
RTVSPost2010Prop48
 90
       50
102
RTVSPost2010PropOp48
 70
     1
102
RTVSPost2010Prop49
280
     0
102
RTVSPost2010PropOp49
 70
     1
102
RTVSPost2010Prop50
 90
       50
102
RTVSPost2010PropOp50
 70
     1
102
RTVSPost2010Prop51ColorIndex
 90
      256
102
RTVSPost2010Prop51ColorRGB
 90
-16777216
102
RTVSPost2010PropOp51
 70
     0
102
RTVSPost2010Prop52
140
1.0
102
RTVSPost2010PropOp52
 70
     0
102
RTVSPost2010Prop53
 90
        2
102
RTVSPost2010PropOp53
 70
     1
102
RTVSPost2010Prop54
  1
strokes_ogs.tif
102
RTVSPost2010PropOp54
 70
     1
102
RTVSPost2010Prop55
280
     0
102
RTVSPost2010PropOp55
 70
     1
102
RTVSPost2010Prop56
140
1.0
102
RTVSPost2010PropOp56
 70
     1
102
RTVSPost2010Prop57
140
1.0
102
RTVSPost2010PropOp57
 70
     1
  0
XRECORD
  5
12E
102
{ACAD_REACTORS
330
12D
102
}
330
12D
100
AcDbXrecord
280
     1
102
RTVSPost2010Prop28
280
     0
102
RTVSPost2010PropOp28
 70
     1
102
RTVSPost2010Prop29
280
     1
102
RTVSPost2010PropOp29
 70
     1
102
RTVSPost2010Prop30
280
     1
102
RTVSPost2010PropOp30
 70
     1
102
RTVSPost2010Prop31
280
     0
102
RTVSPost2010PropOp31
 70
     1
102
RTVSPost2010Prop32
280
     0
102
RTVSPost2010PropOp32
 70
     1
102
RTVSPost2010Prop33
280
     0
102
RTVSPost2010PropOp33
 70
     1
102
RTVSPost2010Prop34
280
     0
102
RTVSPost2010PropOp34
 70
     1
102
RTVSPost2010Prop35
280
     0
102
RTVSPost2010PropOp35
 70
     1
102
RTVSPost2010Prop36
280
     0
102
RTVSPost2010PropOp36
 70
     1
102
RTVSPost2010Prop37
 90
       50
102
RTVSPost2010PropOp37
 70
     1
102
RTVSPost2010Prop38
140
0.0
102
RTVSPost2010PropOp38
 70
     1
102
RTVSPost2010Prop39
140
1.0
102
RTVSPost2010PropOp39
 70
     1
102
RTVSPost2010Prop40
 90
        0
102
RTVSPost2010PropOp40
 70
     1
102
RTVSPost2010Prop41ColorIndex
 90
       18
102
RTVSPost2010Prop41ColorRGB
 90
        0
102
RTVSPost2010PropOp41
 70
     1
102
RTVSPost2010Prop42
 90
       50
102
RTVSPost2010PropOp42
 70
     1
102
RTVSPost2010Prop43
 90
        3
102
RTVSPost2010PropOp43
 70
     1
102
RTVSPost2010Prop44ColorIndex
 90
        5
102
RTVSPost2010Prop44ColorRGB
 90
      255
102
RTVSPost2010PropOp44
 70
     1
102
RTVSPost2010Prop45
280
     0
102
RTVSPost2010PropOp45
 70
     1
102
RTVSPost2010Prop46
 90
       50
102
RTVSPost2010PropOp46
 70
     1
102
RTVSPost2010Prop47
 90
       50
102
RTVSPost2010PropOp47
 70
     1
102
RTVSPost2010Prop48
 90
       50
102
RTVSPost2010PropOp48
 70
     1
102
RTVSPost2010Prop49
280
     0
102
RTVSPost2010PropOp49
 70
     1
102
RTVSPost2010Prop50
 90
       50
102
RTVSPost2010PropOp50
 70
     1
102
RTVSPost2010Prop51ColorIndex
 90
      256
102
RTVSPost2010Prop51ColorRGB
 90
-16777216
102
RTVSPost2010PropOp51
 70
     0
102
RTVSPost2010Prop52
140
1.0
102
RTVSPost2010PropOp52
 70
     0
102
RTVSPost2010Prop53
 90
        2
102
RTVSPost2010PropOp53
 70
     1
102
RTVSPost2010Prop54
  1
strokes_ogs.tif
102
RTVSPost2010PropOp54
 70
     1
102
RTVSPost2010Prop55
280
     0
102
RTVSPost2010PropOp55
 70
     1
102
RTVSPost2010Prop56
140
1.0
102
RTVSPost2010PropOp56
 70
     1
102
RTVSPost2010Prop57
140
1.0
102
RTVSPost2010PropOp57
 70
     1
  0
XRECORD
  5
122
102
{ACAD_REACTORS
330
121
102
}
330
121
100
AcDbXrecord
280
     1
102
RTVSPost2010Prop28
280
     0
102
RTVSPost2010PropOp28
 70
     1
102
RTVSPost2010Prop29
280
     1
102
RTVSPost2010PropOp29
 70
     1
102
RTVSPost2010Prop30
280
     1
102
RTVSPost2010PropOp30
 70
     1
102
RTVSPost2010Prop31
280
     0
102
RTVSPost2010PropOp31
 70
     1
102
RTVSPost2010Prop32
280
     0
102
RTVSPost2010PropOp32
 70
     1
102
RTVSPost2010Prop33
280
     0
102
RTVSPost2010PropOp33
 70
     1
102
RTVSPost2010Prop34
280
     0
102
RTVSPost2010PropOp34
 70
     1
102
RTVSPost2010Prop35
280
     0
102
RTVSPost2010PropOp35
 70
     1
102
RTVSPost2010Prop36
280
     0
102
RTVSPost2010PropOp36
 70
     1
102
RTVSPost2010Prop37
 90
       50
102
RTVSPost2010PropOp37
 70
     1
102
RTVSPost2010Prop38
140
0.0
102
RTVSPost2010PropOp38
 70
     1
102
RTVSPost2010Prop39
140
1.0
102
RTVSPost2010PropOp39
 70
     1
102
RTVSPost2010Prop40
 90
        0
102
RTVSPost2010PropOp40
 70
     1
102
RTVSPost2010Prop41ColorIndex
 90
       18
102
RTVSPost2010Prop41ColorRGB
 90
        0
102
RTVSPost2010PropOp41
 70
     1
102
RTVSPost2010Prop42
 90
       50
102
RTVSPost2010PropOp42
 70
     1
102
RTVSPost2010Prop43
 90
        3
102
RTVSPost2010PropOp43
 70
     1
102
RTVSPost2010Prop44ColorIndex
 90
        5
102
RTVSPost2010Prop44ColorRGB
 90
      255
102
RTVSPost2010PropOp44
 70
     1
102
RTVSPost2010Prop45
280
     0
102
RTVSPost2010PropOp45
 70
     1
102
RTVSPost2010Prop46
 90
       50
102
RTVSPost2010PropOp46
 70
     1
102
RTVSPost2010Prop47
 90
       50
102
RTVSPost2010PropOp47
 70
     1
102
RTVSPost2010Prop48
 90
       50
102
RTVSPost2010PropOp48
 70
     1
102
RTVSPost2010Prop49
280
     0
102
RTVSPost2010PropOp49
 70
     1
102
RTVSPost2010Prop50
 90
       50
102
RTVSPost2010PropOp50
 70
     1
102
RTVSPost2010Prop51ColorIndex
 90
      256
102
RTVSPost2010Prop51ColorRGB
 90
-16777216
102
RTVSPost2010PropOp51
 70
     0
102
RTVSPost2010Prop52
140
1.0
102
RTVSPost2010PropOp52
 70
     0
102
RTVSPost2010Prop53
 90
        2
102
RTVSPost2010PropOp53
 70
     1
102
RTVSPost2010Prop54
  1
strokes_ogs.tif
102
RTVSPost2010PropOp54
 70
     1
102
RTVSPost2010Prop55
280
     0
102
RTVSPost2010PropOp55
 70
     1
102
RTVSPost2010Prop56
140
1.0
102
RTVSPost2010PropOp56
 70
     1
102
RTVSPost2010Prop57
140
1.0
102
RTVSPost2010PropOp57
 70
     1
  0
XRECORD
  5
13A
102
{ACAD_REACTORS
330
139
102
}
330
139
100
AcDbXrecord
280
     1
102
RTVSPost2010Prop28
280
     0
102
RTVSPost2010PropOp28
 70
     1
102
RTVSPost2010Prop29
280
     1
102
RTVSPost2010PropOp29
 70
     1
102
RTVSPost2010Prop30
280
     1
102
RTVSPost2010PropOp30
 70
     1
102
RTVSPost2010Prop31
280
     0
102
RTVSPost2010PropOp31
 70
     1
102
RTVSPost2010Prop32
280
     0
102
RTVSPost2010PropOp32
 70
     1
102
RTVSPost2010Prop33
280
     0
102
RTVSPost2010PropOp33
 70
     1
102
RTVSPost2010Prop34
280
     0
102
RTVSPost2010PropOp34
 70
     1
102
RTVSPost2010Prop35
280
     0
102
RTVSPost2010PropOp35
 70
     1
102
RTVSPost2010Prop36
280
     0
102
RTVSPost2010PropOp36
 70
     1
102
RTVSPost2010Prop37
 90
       50
102
RTVSPost2010PropOp37
 70
     1
102
RTVSPost2010Prop38
140
0.0
102
RTVSPost2010PropOp38
 70
     1
102
RTVSPost2010Prop39
140
1.0
102
RTVSPost2010PropOp39
 70
     1
102
RTVSPost2010Prop40
 90
        0
102
RTVSPost2010PropOp40
 70
     1
102
RTVSPost2010Prop41ColorIndex
 90
       18
102
RTVSPost2010Prop41ColorRGB
 90
        0
102
RTVSPost2010PropOp41
 70
     1
102
RTVSPost2010Prop42
 90
       50
102
RTVSPost2010PropOp42
 70
     1
102
RTVSPost2010Prop43
 90
        3
102
RTVSPost2010PropOp43
 70
     1
102
RTVSPost2010Prop44ColorIndex
 90
        5
102
RTVSPost2010Prop44ColorRGB
 90
      255
102
RTVSPost2010PropOp44
 70
     1
102
RTVSPost2010Prop45
280
     0
102
RTVSPost2010PropOp45
 70
     1
102
RTVSPost2010Prop46
 90
       50
102
RTVSPost2010PropOp46
 70
     1
102
RTVSPost2010Prop47
 90
       50
102
RTVSPost2010PropOp47
 70
     1
102
RTVSPost2010Prop48
 90
       50
102
RTVSPost2010PropOp48
 70
     1
102
RTVSPost2010Prop49
280
     0
102
RTVSPost2010PropOp49
 70
     1
102
RTVSPost2010Prop50
 90
       50
102
RTVSPost2010PropOp50
 70
     1
102
RTVSPost2010Prop51ColorIndex
 90
      256
102
RTVSPost2010Prop51ColorRGB
 90
-16777216
102
RTVSPost2010PropOp51
 70
     0
102
RTVSPost2010Prop52
140
1.0
102
RTVSPost2010PropOp52
 70
     0
102
RTVSPost2010Prop53
 90
        2
102
RTVSPost2010PropOp53
 70
     1
102
RTVSPost2010Prop54
  1
strokes_ogs.tif
102
RTVSPost2010PropOp54
 70
     1
102
RTVSPost2010Prop55
280
     0
102
RTVSPost2010PropOp55
 70
     1
102
RTVSPost2010Prop56
140
1.0
102
RTVSPost2010PropOp56
 70
     1
102
RTVSPost2010Prop57
140
1.0
102
RTVSPost2010PropOp57
 70
     1
  0
ENDSEC
  0
EOF
