  0
SECTION
  2
HEADER
  9
$ACADVER
  1
AC1024
  9
$ACADMAINTVER
 70
   226
  9
$DWGCODEPAGE
  3
ANSI_932
  9
$INSBASE
 10
0.0
 20
0.0
 30
0.0
  9
$EXTMIN
 10
1.000000000000000E+20
 20
1.000000000000000E+20
 30
1.000000000000000E+20
  9
$EXTMAX
 10
-1.000000000000000E+20
 20
-1.000000000000000E+20
 30
-1.000000000000000E+20
  9
$LIMMIN
 10
0.0
 20
0.0
  9
$LIMMAX
 10
12.0
 20
9.0
  9
$ORTHOMODE
 70
     0
  9
$REGENMODE
 70
     1
  9
$FILLMODE
 70
     1
  9
$QTEXTMODE
 70
     0
  9
$MIRRTEXT
 70
     0
  9
$LTSCALE
 40
1.0
  9
$ATTMODE
 70
     1
  9
$TEXTSIZE
 40
0.2
  9
$TRACEWID
 40
0.05
  9
$TEXTSTYLE
  7
Standard
  9
$CLAYER
  8
0
  9
$CELTYPE
  6
ByLayer
  9
$CECOLOR
 62
   256
  9
$CELTSCALE
 40
1.0
  9
$DISPSILH
 70
     0
  9
$DIMSCALE
 40
1.0
  9
$DIMASZ
 40
0.18
  9
$DIMEXO
 40
0.0625
  9
$DIMDLI
 40
0.38
  9
$DIMRND
 40
0.0
  9
$DIMDLE
 40
0.0
  9
$DIMEXE
 40
0.18
  9
$DIMTP
 40
0.0
  9
$DIMTM
 40
0.0
  9
$DIMTXT
 40
0.18
  9
$DIMCEN
 40
0.09
  9
$DIMTSZ
 40
0.0
  9
$DIMTOL
 70
     0
  9
$DIMLIM
 70
     0
  9
$DIMTIH
 70
     1
  9
$DIMTOH
 70
     1
  9
$DIMSE1
 70
     0
  9
$DIMSE2
 70
     0
  9
$DIMTAD
 70
     0
  9
$DIMZIN
 70
     0
  9
$DIMBLK
  1

  9
$DIMASO
 70
     1
  9
$DIMSHO
 70
     1
  9
$DIMPOST
  1

  9
$DIMAPOST
  1

  9
$DIMALT
 70
     0
  9
$DIMALTD
 70
     2
  9
$DIMALTF
 40
25.4
  9
$DIMLFAC
 40
1.0
  9
$DIMTOFL
 70
     0
  9
$DIMTVP
 40
0.0
  9
$DIMTIX
 70
     0
  9
$DIMSOXD
 70
     0
  9
$DIMSAH
 70
     0
  9
$DIMBLK1
  1

  9
$DIMBLK2
  1

  9
$DIMSTYLE
  2
Standard
  9
$DIMCLRD
 70
     0
  9
$DIMCLRE
 70
     0
  9
$DIMCLRT
 70
     0
  9
$DIMTFAC
 40
1.0
  9
$DIMGAP
 40
0.09
  9
$DIMJUST
 70
     0
  9
$DIMSD1
 70
     0
  9
$DIMSD2
 70
     0
  9
$DIMTOLJ
 70
     1
  9
$DIMTZIN
 70
     0
  9
$DIMALTZ
 70
     0
  9
$DIMALTTZ
 70
     0
  9
$DIMUPT
 70
     0
  9
$DIMDEC
 70
     4
  9
$DIMTDEC
 70
     4
  9
$DIMALTU
 70
     2
  9
$DIMALTTD
 70
     2
  9
$DIMTXSTY
  7
Standard
  9
$DIMAUNIT
 70
     0
  9
$DIMADEC
 70
     0
  9
$DIMALTRND
 40
0.0
  9
$DIMAZIN
 70
     0
  9
$DIMDSEP
 70
    46
  9
$DIMATFIT
 70
     3
  9
$DIMFRAC
 70
     0
  9
$DIMLDRBLK
  1

  9
$DIMLUNIT
 70
     2
  9
$DIMLWD
 70
    -2
  9
$DIMLWE
 70
    -2
  9
$DIMTMOVE
 70
     0
  9
$DIMFXL
 40
1.0
  9
$DIMFXLON
 70
     0
  9
$DIMJOGANG
 40
0.7853981633974483
  9
$DIMTFILL
 70
     0
  9
$DIMTFILLCLR
 70
     0
  9
$DIMARCSYM
 70
     0
  9
$DIMLTYPE
  6

  9
$DIMLTEX1
  6

  9
$DIMLTEX2
  6

  9
$DIMTXTDIRECTION
 70
     0
  9
$LUNITS
 70
     2
  9
$LUPREC
 70
     4
  9
$SKETCHINC
 40
0.1
  9
$FILLETRAD
 40
0.0
  9
$AUNITS
 70
     0
  9
$AUPREC
 70
     0
  9
$MENU
  1
.
  9
$ELEVATION
 40
0.0
  9
$PELEVATION
 40
0.0
  9
$THICKNESS
 40
0.0
  9
$LIMCHECK
 70
     0
  9
$CHAMFERA
 40
0.0
  9
$CHAMFERB
 40
0.0
  9
$CHAMFERC
 40
0.0
  9
$CHAMFERD
 40
0.0
  9
$SKPOLY
 70
     0
  9
$TDCREATE
 40
2460019.826111111
  9
$TDUCREATE
 40
2460019.451111111
  9
$TDUPDATE
 40
2460019.826111111
  9
$TDUUPDATE
 40
2460019.451111111
  9
$TDINDWG
 40
0.0000000000
  9
$TDUSRTIMER
 40
0.0000000000
  9
$USRTIMER
 70
     1
  9
$ANGBASE
 50
0.0
  9
$ANGDIR
 70
     0
  9
$PDMODE
 70
     0
  9
$PDSIZE
 40
0.0
  9
$PLINEWID
 40
0.0
  9
$SPLFRAME
 70
     0
  9
$SPLINETYPE
 70
     6
  9
$SPLINESEGS
 70
     8
  9
$HANDSEED
  5
13E
  9
$SURFTAB1
 70
     6
  9
$SURFTAB2
 70
     6
  9
$SURFTYPE
 70
     6
  9
$SURFU
 70
     6
  9
$SURFV
 70
     6
  9
$UCSBASE
  2

  9
$UCSNAME
  2

  9
$UCSORG
 10
0.0
 20
0.0
 30
0.0
  9
$UCSXDIR
 10
1.0
 20
0.0
 30
0.0
  9
$UCSYDIR
 10
0.0
 20
1.0
 30
0.0
  9
$UCSORTHOREF
  2

  9
$UCSORTHOVIEW
 70
     0
  9
$UCSORGTOP
 10
0.0
 20
0.0
 30
0.0
  9
$UCSORGBOTTOM
 10
0.0
 20
0.0
 30
0.0
  9
$UCSORGLEFT
 10
0.0
 20
0.0
 30
0.0
  9
$UCSORGRIGHT
 10
0.0
 20
0.0
 30
0.0
  9
$UCSORGFRONT
 10
0.0
 20
0.0
 30
0.0
  9
$UCSORGBACK
 10
0.0
 20
0.0
 30
0.0
  9
$PUCSBASE
  2

  9
$PUCSNAME
  2

  9
$PUCSORG
 10
0.0
 20
0.0
 30
0.0
  9
$PUCSXDIR
 10
1.0
 20
0.0
 30
0.0
  9
$PUCSYDIR
 10
0.0
 20
1.0
 30
0.0
  9
$PUCSORTHOREF
  2

  9
$PUCSORTHOVIEW
 70
     0
  9
$PUCSORGTOP
 10
0.0
 20
0.0
 30
0.0
  9
$PUCSORGBOTTOM
 10
0.0
 20
0.0
 30
0.0
  9
$PUCSORGLEFT
 10
0.0
 20
0.0
 30
0.0
  9
$PUCSORGRIGHT
 10
0.0
 20
0.0
 30
0.0
  9
$PUCSORGFRONT
 10
0.0
 20
0.0
 30
0.0
  9
$PUCSORGBACK
 10
0.0
 20
0.0
 30
0.0
  9
$USERI1
 70
     0
  9
$USERI2
 70
     0
  9
$USERI3
 70
     0
  9
$USERI4
 70
     0
  9
$USERI5
 70
     0
  9
$USERR1
 40
0.0
  9
$USERR2
 40
0.0
  9
$USERR3
 40
0.0
  9
$USERR4
 40
0.0
  9
$USERR5
 40
0.0
  9
$WORLDVIEW
 70
     1
  9
$SHADEDGE
 70
     3
  9
$SHADEDIF
 70
    70
  9
$TILEMODE
 70
     1
  9
$MAXACTVP
 70
    64
  9
$PINSBASE
 10
0.0
 20
0.0
 30
0.0
  9
$PLIMCHECK
 70
     0
  9
$PEXTMIN
 10
1.000000000000000E+20
 20
1.000000000000000E+20
 30
1.000000000000000E+20
  9
$PEXTMAX
 10
-1.000000000000000E+20
 20
-1.000000000000000E+20
 30
-1.000000000000000E+20
  9
$PLIMMIN
 10
0.0
 20
0.0
  9
$PLIMMAX
 10
12.0
 20
9.0
  9
$UNITMODE
 70
     0
  9
$VISRETAIN
 70
     1
  9
$PLINEGEN
 70
     0
  9
$PSLTSCALE
 70
     1
  9
$TREEDEPTH
 70
  3020
  9
$CMLSTYLE
  2
Standard
  9
$CMLJUST
 70
     0
  9
$CMLSCALE
 40
1.0
  9
$PROXYGRAPHICS
 70
     1
  9
$MEASUREMENT
 70
     0
  9
$CELWEIGHT
370
    -1
  9
$ENDCAPS
280
     0
  9
$JOINSTYLE
280
     0
  9
$LWDISPLAY
290
     1
  9
$INSUNITS
 70
     4
  9
$HYPERLINKBASE
  1

  9
$STYLESHEET
  1

  9
$XEDIT
290
     1
  9
$CEPSNTYPE
380
     0
  9
$PSTYLEMODE
290
     1
  9
$FINGERPRINTGUID
  2
{FAEAC3DA-66B8-7C40-9DB9-1709E367DA70}
  9
$VERSIONGUID
  2
{FA84F5C4-9D7E-224A-A6FB-F399674E948C}
  9
$EXTNAMES
290
     1
  9
$PSVPSCALE
 40
0.0
  9
$OLESTARTUP
290
     0
  9
$SORTENTS
280
   127
  9
$INDEXCTL
280
     0
  9
$HIDETEXT
280
     1
  9
$XCLIPFRAME
280
     2
  9
$HALOGAP
280
     0
  9
$OBSCOLOR
 70
   257
  9
$OBSLTYPE
280
     0
  9
$INTERSECTIONDISPLAY
280
     0
  9
$INTERSECTIONCOLOR
 70
   257
  9
$DIMASSOC
280
     2
  9
$PROJECTNAME
  1

  9
$CAMERADISPLAY
290
     0
  9
$LENSLENGTH
 40
50.0
  9
$CAMERAHEIGHT
 40
0.0
  9
$STEPSPERSEC
 40
2.0
  9
$STEPSIZE
 40
6.0
  9
$3DDWFPREC
 40
2.0
  9
$PSOLWIDTH
 40
0.25
  9
$PSOLHEIGHT
 40
4.0
  9
$LOFTANG1
 40
1.570796326794896
  9
$LOFTANG2
 40
1.570796326794896
  9
$LOFTMAG1
 40
0.0
  9
$LOFTMAG2
 40
0.0
  9
$LOFTPARAM
 70
     7
  9
$LOFTNORMALS
280
     1
  9
$LATITUDE
 40
37.795
  9
$LONGITUDE
 40
-122.394
  9
$NORTHDIRECTION
 40
0.0
  9
$TIMEZONE
 70
 -8000
  9
$LIGHTGLYPHDISPLAY
280
     1
  9
$TILEMODELIGHTSYNCH
280
     1
  9
$CMATERIAL
347
11
  9
$SOLIDHIST
280
     0
  9
$SHOWHIST
280
     1
  9
$DWFFRAME
280
     2
  9
$DGNFRAME
280
     0
  9
$REALWORLDSCALE
290
     1
  9
$INTERFERECOLOR
 62
     1
  9
$INTERFEREOBJVS
345
33
  9
$INTERFEREVPVS
346
30
  9
$CSHADOW
280
     0
  9
$SHADOWPLANELOCATION
 40
0.0
  0
ENDSEC
  0
SECTION
  2
CLASSES
  0
CLASS
  1
ACDBDICTIONARYWDFLT
  2
AcDbDictionaryWithDefault
  3
ObjectDBX Classes
 90
        0
 91
        1
280
     0
281
     0
  0
CLASS
  1
MATERIAL
  2
AcDbMaterial
  3
ObjectDBX Classes
 90
     1153
 91
        3
280
     0
281
     0
  0
CLASS
  1
VISUALSTYLE
  2
AcDbVisualStyle
  3
ObjectDBX Classes
 90
     4095
 91
       24
280
     0
281
     0
  0
CLASS
  1
SCALE
  2
AcDbScale
  3
ObjectDBX Classes
 90
     1153
 91
       17
280
     0
281
     0
  0
CLASS
  1
TABLESTYLE
  2
AcDbTableStyle
  3
ObjectDBX Classes
 90
     4095
 91
        1
280
     0
281
     0
  0
CLASS
  1
MLEADERSTYLE
  2
AcDbMLeaderStyle
  3
ACDB_MLEADERSTYLE_CLASS
 90
     4095
 91
        1
280
     0
281
     0
  0
CLASS
  1
ACDBSECTIONVIEWSTYLE
  2
AcDbSectionViewStyle
  3
ObjectDBX Classes
 90
     1025
 91
        1
280
     0
281
     0
  0
CLASS
  1
ACDBDETAILVIEWSTYLE
  2
AcDbDetailViewStyle
  3
ObjectDBX Classes
 90
     1025
 91
        1
280
     0
281
     0
  0
CLASS
  1
DICTIONARYVAR
  2
AcDbDictionaryVar
  3
ObjectDBX Classes
 90
        0
 91
        5
280
     0
281
     0
  0
CLASS
  1
CELLSTYLEMAP
  2
AcDbCellStyleMap
  3
ObjectDBX Classes
 90
     1152
 91
        1
280
     0
281
     0
  0
ENDSEC
  0
SECTION
  2
TABLES
  0
TABLE
  2
VPORT
  5
8
330
0
100
AcDbSymbolTable
 70
     1
  0
VPORT
  5
57
330
8
100
AcDbSymbolTableRecord
100
AcDbViewportTableRecord
  2
*Active
 70
     0
 10
0.0
 20
0.0
 11
1.0
 21
1.0
 12
0.0
 22
0.0
 13
0.0
 23
0.0
 14
1.0
 24
1.0
 15
0.0
 25
0.0
 16
0.0
 26
0.0
 36
1.0
 17
-523.806190620261
 27
845.0010587018146
 37
0.0
 40
302.9399999242658
 41
1.41414147518064
 42
50.0
 43
0.0
 44
0.0
 50
0.0
 51
0.0
 71
     0
 72
   100
 73
     1
 74
     1
 75
     0
 76
     0
 77
     0
 78
     0
281
     0
 65
     1
110
0.0
120
0.0
130
0.0
111
1.0
121
0.0
131
0.0
112
0.0
122
1.0
132
0.0
 79
     0
146
0.0
 60
     3
 61
     5
292
     1
282
     1
141
0.0
142
0.0
 63
   250
421
  3355443
  0
ENDTAB
  0
TABLE
  2
LTYPE
  5
5
330
0
100
AcDbSymbolTable
 70
     6
  0
LTYPE
  5
5B
330
5
100
AcDbSymbolTableRecord
100
AcDbLinetypeTableRecord
  2
ByBlock
 70
     0
  3

 72
    65
 73
     0
 40
0.0
  0
LTYPE
  5
5C
330
5
100
AcDbSymbolTableRecord
100
AcDbLinetypeTableRecord
  2
ByLayer
 70
     0
  3

 72
    65
 73
     0
 40
0.0
  0
LTYPE
  5
5D
330
5
100
AcDbSymbolTableRecord
100
AcDbLinetypeTableRecord
  2
Continuous
 70
     0
  3
Solid line
 72
    65
 73
     0
 40
0.0
  0
LTYPE
  5
8A
330
5
100
AcDbSymbolTableRecord
100
AcDbLinetypeTableRecord
  2
AI-Linetype-0
 70
     0
  3
Adobe Illustrator Linetype No. 0
 72
    65
 73
     2
 40
1.411111110758333
 49
0.7055555553791667
 74
     0
 49
-0.7055555553791667
 74
     0
  0
LTYPE
  5
92
330
5
100
AcDbSymbolTableRecord
100
AcDbLinetypeTableRecord
  2
AI-Linetype-1
 70
     0
  3
Adobe Illustrator Linetype No. 1
 72
    65
 73
     4
 40
7.408333331481251
 49
5.29166666534375
 74
     0
 49
-0.7055555553791667
 74
     0
 49
0.7055555553791667
 74
     0
 49
-0.7055555553791667
 74
     0
  0
LTYPE
  5
95
330
5
100
AcDbSymbolTableRecord
100
AcDbLinetypeTableRecord
  2
AI-Linetype-2
 70
     0
  3
Adobe Illustrator Linetype No. 2
 72
    65
 73
     4
 40
7.408333331481251
 49
5.29166666534375
 74
     0
 49
-0.7055555553791667
 74
     0
 49
0.7055555553791667
 74
     0
 49
-0.7055555553791667
 74
     0
  0
LTYPE
  5
97
330
5
100
AcDbSymbolTableRecord
100
AcDbLinetypeTableRecord
  2
AI-Linetype-3
 70
     0
  3
Adobe Illustrator Linetype No. 3
 72
    65
 73
     4
 40
2.822222221516666
 49
0.7055555553791667
 74
     0
 49
-0.7055555553791667
 74
     0
 49
0.7055555553791667
 74
     0
 49
-0.7055555553791667
 74
     0
  0
LTYPE
  5
99
330
5
100
AcDbSymbolTableRecord
100
AcDbLinetypeTableRecord
  2
AI-Linetype-4
 70
     0
  3
Adobe Illustrator Linetype No. 4
 72
    65
 73
     4
 40
2.822222221516666
 49
0.7055555553791667
 74
     0
 49
-0.7055555553791667
 74
     0
 49
0.7055555553791667
 74
     0
 49
-0.7055555553791667
 74
     0
  0
ENDTAB
  0
TABLE
  2
LAYER
  5
2
330
0
100
AcDbSymbolTable
 70
    16
  0
LAYER
  5
54
330
2
100
AcDbSymbolTableRecord
100
AcDbLayerTableRecord
  2
0
 70
     0
 62
     7
  6
Continuous
370
    -3
390
F
347
21
  0
LAYER
  5
78
330
2
100
AcDbSymbolTableRecord
100
AcDbLayerTableRecord
  2
レイヤー 10
 70
     0
 62
     7
  6
Continuous
370
     0
390
F
347
21
  0
LAYER
  5
79
330
2
100
AcDbSymbolTableRecord
100
AcDbLayerTableRecord
  2
cut(穴あり)
 70
     0
 62
     7
  6
Continuous
370
     0
390
F
347
21
  0
LAYER
  5
7F
330
2
100
AcDbSymbolTableRecord
100
AcDbLayerTableRecord
  2
断面
 70
     0
 62
     7
  6
Continuous
370
     0
390
F
347
21
  0
LAYER
  5
88
330
2
100
AcDbSymbolTableRecord
100
AcDbLayerTableRecord
  2
bottom
 70
     0
 62
     7
  6
Continuous
370
     0
390
F
347
21
  0
LAYER
  5
8B
330
2
100
AcDbSymbolTableRecord
100
AcDbLayerTableRecord
  2
top
 70
     0
 62
     7
  6
Continuous
370
     0
390
F
347
21
  0
LAYER
  5
8D
330
2
100
AcDbSymbolTableRecord
100
AcDbLayerTableRecord
  2
切り欠き
 70
     0
 62
     7
  6
Continuous
370
     0
390
F
347
21
  0
LAYER
  5
90
330
2
100
AcDbSymbolTableRecord
100
AcDbLayerTableRecord
  2
中心線
 70
     0
 62
     7
  6
Continuous
370
     0
390
F
347
21
  0
LAYER
  5
93
330
2
100
AcDbSymbolTableRecord
100
AcDbLayerTableRecord
  2
H200ガイド
 70
     0
 62
     7
  6
Continuous
370
     0
390
F
347
21
  0
LAYER
  5
9A
330
2
100
AcDbSymbolTableRecord
100
AcDbLayerTableRecord
  2
間隔表示
 70
     0
 62
     7
  6
Continuous
370
     0
390
F
347
21
  0
LAYER
  5
9B
330
2
100
AcDbSymbolTableRecord
100
AcDbLayerTableRecord
  2
電源穴
 70
     0
 62
     7
  6
Continuous
370
     0
390
F
347
21
  0
LAYER
  5
9F
330
2
100
AcDbSymbolTableRecord
100
AcDbLayerTableRecord
  2
アンカー
 70
     0
 62
     7
  6
Continuous
370
     0
390
F
347
21
  0
LAYER
  5
A8
330
2
100
AcDbSymbolTableRecord
100
AcDbLayerTableRecord
  2
コメント
 70
     0
 62
     7
  6
Continuous
370
     0
390
F
347
21
  0
LAYER
  5
BF
330
2
100
AcDbSymbolTableRecord
100
AcDbLayerTableRecord
  2
上
 70
     0
 62
     7
  6
Continuous
370
     0
390
F
347
21
  0
LAYER
  5
C2
330
2
100
AcDbSymbolTableRecord
100
AcDbLayerTableRecord
  2
寸法
 70
     0
 62
     7
  6
Continuous
370
     0
390
F
347
21
  0
LAYER
  5
FB
330
2
100
AcDbSymbolTableRecord
100
AcDbLayerTableRecord
  2
TEXT
 70
     0
 62
     7
  6
Continuous
370
     0
390
F
347
21
  0
ENDTAB
  0
TABLE
  2
STYLE
  5
3
330
0
100
AcDbSymbolTable
 70
     2
  0
STYLE
  5
55
330
3
100
AcDbSymbolTableRecord
100
AcDbTextStyleTableRecord
  2
Standard
 70
     0
 40
0.0
 41
1.0
 50
0.0
 71
     0
 42
0.2
  3
txt
  4

  0
STYLE
  5
5A
330
3
100
AcDbSymbolTableRecord
100
AcDbTextStyleTableRecord
  2
Annotative
 70
     0
 40
0.0
 41
1.0
 50
0.0
 71
     0
 42
0.2
  3
txt
  4

1001
AcadAnnotative
1000
AnnotativeData
1002
{
1070
     1
1070
     1
1002
}
  0
ENDTAB
  0
TABLE
  2
VIEW
  5
6
330
0
100
AcDbSymbolTable
 70
     0
  0
ENDTAB
  0
TABLE
  2
UCS
  5
7
330
0
100
AcDbSymbolTable
 70
     0
  0
ENDTAB
  0
TABLE
  2
APPID
  5
9
330
0
100
AcDbSymbolTable
 70
     2
  0
APPID
  5
56
330
9
100
AcDbSymbolTableRecord
100
AcDbRegAppTableRecord
  2
ACAD
 70
     0
  0
APPID
  5
5E
330
9
100
AcDbSymbolTableRecord
100
AcDbRegAppTableRecord
  2
AcadAnnotative
 70
     0
  0
ENDTAB
  0
TABLE
  2
DIMSTYLE
  5
A
330
0
100
AcDbSymbolTable
 70
     2
100
AcDbDimStyleTable
 71
     0
  0
DIMSTYLE
105
58
330
A
100
AcDbSymbolTableRecord
100
AcDbDimStyleTableRecord
  2
Standard
 70
     0
340
55
  0
DIMSTYLE
105
59
330
A
100
AcDbSymbolTableRecord
100
AcDbDimStyleTableRecord
  2
Annotative
 70
     0
340
55
1001
AcadAnnotative
1000
AnnotativeData
1002
{
1070
     1
1070
     1
1002
}
  0
ENDTAB
  0
TABLE
  2
BLOCK_RECORD
  5
1
330
0
100
AcDbSymbolTable
 70
    13
  0
BLOCK_RECORD
  5
70
330
1
100
AcDbSymbolTableRecord
100
AcDbBlockTableRecord
  2
*Model_Space
340
73
 70
     0
280
     1
281
     0
  0
BLOCK_RECORD
  5
6C
330
1
100
AcDbSymbolTableRecord
100
AcDbBlockTableRecord
  2
*Paper_Space
340
6F
 70
     0
280
     1
281
     0
  0
BLOCK_RECORD
  5
74
330
1
100
AcDbSymbolTableRecord
100
AcDbBlockTableRecord
  2
*Paper_Space0
340
77
 70
     0
280
     1
281
     0
  0
BLOCK_RECORD
  5
80
330
1
100
AcDbSymbolTableRecord
100
AcDbBlockTableRecord
  2
Block_0
340
0
102
{BLKREFS
331
81
102
}
 70
     0
280
     1
281
     0
  0
BLOCK_RECORD
  5
AD
330
1
100
AcDbSymbolTableRecord
100
AcDbBlockTableRecord
  2
Block_1
340
0
102
{BLKREFS
331
AE
102
}
 70
     0
280
     1
281
     0
  0
BLOCK_RECORD
  5
B2
330
1
100
AcDbSymbolTableRecord
100
AcDbBlockTableRecord
  2
Block_2
340
0
102
{BLKREFS
331
B3
102
}
 70
     0
280
     1
281
     0
  0
BLOCK_RECORD
  5
C3
330
1
100
AcDbSymbolTableRecord
100
AcDbBlockTableRecord
  2
Block_3
340
0
102
{BLKREFS
331
C4
102
}
 70
     0
280
     1
281
     0
  0
BLOCK_RECORD
  5
C8
330
1
100
AcDbSymbolTableRecord
100
AcDbBlockTableRecord
  2
Block_4
340
0
102
{BLKREFS
331
C9
102
}
 70
     0
280
     1
281
     0
  0
BLOCK_RECORD
  5
CE
330
1
100
AcDbSymbolTableRecord
100
AcDbBlockTableRecord
  2
Block_5
340
0
102
{BLKREFS
331
CF
102
}
 70
     0
280
     1
281
     0
  0
BLOCK_RECORD
  5
D7
330
1
100
AcDbSymbolTableRecord
100
AcDbBlockTableRecord
  2
Block_6
340
0
102
{BLKREFS
331
D8
102
}
 70
     0
280
     1
281
     0
  0
BLOCK_RECORD
  5
DC
330
1
100
AcDbSymbolTableRecord
100
AcDbBlockTableRecord
  2
Block_7
340
0
102
{BLKREFS
331
DD
102
}
 70
     0
280
     1
281
     0
  0
BLOCK_RECORD
  5
E2
330
1
100
AcDbSymbolTableRecord
100
AcDbBlockTableRecord
  2
Block_8
340
0
102
{BLKREFS
331
E3
102
}
 70
     0
280
     1
281
     0
  0
BLOCK_RECORD
  5
E9
330
1
100
AcDbSymbolTableRecord
100
AcDbBlockTableRecord
  2
Block_9
340
0
102
{BLKREFS
331
EA
102
}
 70
     0
280
     1
281
     0
  0
BLOCK_RECORD
  5
EE
330
1
100
AcDbSymbolTableRecord
100
AcDbBlockTableRecord
  2
Block_10
340
0
102
{BLKREFS
331
EF
102
}
 70
     0
280
     1
281
     0
  0
BLOCK_RECORD
  5
F4
330
1
100
AcDbSymbolTableRecord
100
AcDbBlockTableRecord
  2
Block_11
340
0
102
{BLKREFS
331
F5
102
}
 70
     0
280
     1
281
     0
  0
ENDTAB
  0
ENDSEC
  0
SECTION
  2
BLOCKS
  0
BLOCK
  5
71
330
70
100
AcDbEntity
  8
0
100
AcDbBlockBegin
  2
*Model_Space
 70
     0
 10
0.0
 20
0.0
 30
0.0
  3
*Model_Space
  1

  0
ENDBLK
  5
72
330
70
100
AcDbEntity
  8
0
100
AcDbBlockEnd
  0
BLOCK
  5
6D
330
6C
100
AcDbEntity
 67
     1
  8
0
100
AcDbBlockBegin
  2
*Paper_Space
 70
     0
 10
0.0
 20
0.0
 30
0.0
  3
*Paper_Space
  1

  0
ENDBLK
  5
6E
330
6C
100
AcDbEntity
 67
     1
  8
0
100
AcDbBlockEnd
  0
BLOCK
  5
75
330
74
100
AcDbEntity
 67
     1
  8
0
100
AcDbBlockBegin
  2
*Paper_Space0
 70
     0
 10
0.0
 20
0.0
 30
0.0
  3
*Paper_Space0
  1

  0
ENDBLK
  5
76
330
74
100
AcDbEntity
 67
     1
  8
0
100
AcDbBlockEnd
  0
BLOCK
  5
82
330
80
100
AcDbEntity
  8
0
100
AcDbBlockBegin
  2
Block_0
 70
     0
 10
0.0
 20
0.0
 30
0.0
  3
Block_0
  1

  0
SPLINE
  5
84
330
80
100
AcDbEntity
  8
断面
 62
    29
370
    18
100
AcDbSpline
210
0.0
220
0.0
230
1.0
 70
     9
 71
     3
 72
    65
 73
    61
 74
     0
 42
0.0000000001
 43
0.0000000001
 40
0.0
 40
0.0
 40
0.0
 40
0.0
 40
1.0
 40
1.0
 40
1.0
 40
2.0
 40
2.0
 40
2.0
 40
3.0
 40
3.0
 40
3.0
 40
4.0
 40
4.0
 40
4.0
 40
5.0
 40
5.0
 40
5.0
 40
6.0
 40
6.0
 40
6.0
 40
7.0
 40
7.0
 40
7.0
 40
8.0
 40
8.0
 40
8.0
 40
9.0
 40
9.0
 40
9.0
 40
10.0
 40
10.0
 40
10.0
 40
11.0
 40
11.0
 40
11.0
 40
12.0
 40
12.0
 40
12.0
 40
13.0
 40
13.0
 40
13.0
 40
14.0
 40
14.0
 40
14.0
 40
15.0
 40
15.0
 40
15.0
 40
16.0
 40
16.0
 40
16.0
 40
17.0
 40
17.0
 40
17.0
 40
18.0
 40
18.0
 40
18.0
 40
19.0
 40
19.0
 40
19.0
 40
20.0
 40
20.0
 40
20.0
 40
20.0
 10
-353.2532687976697
 20
953.2074717244327
 30
0.0
 10
-350.6533711550391
 20
953.9041121453355
 30
0.0
 10
-348.8061818906238
 20
955.8114159671394
 30
0.0
 10
-348.8061818378267
 20
958.5030280543813
 30
0.0
 10
-348.8061818378267
 20
958.5030280543813
 30
0.0
 10
-348.806181598559
 20
964.1249271797065
 30
0.0
 10
-348.806181598559
 20
964.1249271797065
 30
0.0
 10
-348.806181598559
 20
964.1249271797065
 30
0.0
 10
-350.8061823547407
 20
964.1249272385497
 30
0.0
 10
-350.8061823547407
 20
964.1249272385497
 30
0.0
 10
-350.8061823547407
 20
964.1249272385497
 30
0.0
 10
-350.8061825940088
 20
958.5030281132279
 30
0.0
 10
-350.8061825940088
 20
958.5030281132279
 30
0.0
 10
-350.806182620407
 20
957.157222069607
 30
0.0
 10
-351.7297772545075
 20
955.9535701582518
 30
0.0
 10
-353.0297260758343
 20
955.6052499478179
 30
0.0
 10
-353.0297260758343
 20
955.6052499478179
 30
0.0
 10
-377.3588931585829
 20
949.6926387617188
 30
0.0
 10
-377.3588931585829
 20
949.6926387617188
 30
0.0
 10
-379.9587908017089
 20
948.9959983417998
 30
0.0
 10
-381.8059800679815
 20
946.5886945201832
 30
0.0
 10
-381.8059801207783
 20
943.8970824312796
 30
0.0
 10
-381.8059801207783
 20
943.8970824312796
 30
0.0
 10
-381.8059838630695
 20
746.1129104707855
 30
0.0
 10
-381.8059838630695
 20
746.1129104707855
 30
0.0
 10
-381.8059839158663
 20
743.4212983820019
 30
0.0
 10
-379.9587947425049
 20
741.0139944875226
 30
0.0
 10
-377.3588971234632
 20
740.317353967069
 30
0.0
 10
-377.3588971234632
 20
740.317353967069
 30
0.0
 10
-353.0297302774425
 20
734.4047419165549
 30
0.0
 10
-353.0297302774425
 20
734.4047419165549
 30
0.0
 10
-351.7297814686195
 20
734.0564216559418
 30
0.0
 10
-350.8061868829012
 20
732.8527697084555
 30
0.0
 10
-350.8061869092998
 20
731.506963663917
 30
0.0
 10
-350.8061869092998
 20
731.506963663917
 30
0.0
 10
-350.8061871487225
 20
725.8263806130096
 30
0.0
 10
-350.8061871487225
 20
725.8263806130096
 30
0.0
 10
-350.8061871487225
 20
725.8263806130096
 30
0.0
 10
-348.8061863925405
 20
725.8263805541664
 30
0.0
 10
-348.8061863925405
 20
725.8263805541664
 30
0.0
 10
-348.8061863925405
 20
725.8263805541664
 30
0.0
 10
-348.806186153118
 20
731.5069636050737
 30
0.0
 10
-348.806186153118
 20
731.5069636050737
 30
0.0
 10
-348.8061861003209
 20
734.1985756941503
 30
0.0
 10
-350.6533752726982
 20
736.1058795895258
 30
0.0
 10
-353.2532728903504
 20
736.8025201107516
 30
0.0
 10
-353.2532728903504
 20
736.8025201107516
 30
0.0
 10
-377.5824397387697
 20
742.7151321619042
 30
0.0
 10
-377.5824397387697
 20
742.7151321619042
 30
0.0
 10
-378.8823885482662
 20
743.0634524221365
 30
0.0
 10
-379.8059831332889
 20
744.7671043687799
 30
0.0
 10
-379.8059831068903
 20
746.11291041317
 30
0.0
 10
-379.8059831068903
 20
746.11291041317
 30
0.0
 10
-379.8059793646026
 20
943.8970823724362
 30
0.0
 10
-379.8059793646026
 20
943.8970823724362
 30
0.0
 10
-379.8059793382044
 20
945.2428884168618
 30
0.0
 10
-378.8823847050415
 20
946.9465403275394
 30
0.0
 10
-377.582435883491
 20
947.2948605375004
 30
0.0
 10
-377.582435883491
 20
947.2948605375004
 30
0.0
 10
-353.2532687976697
 20
953.2074717244327
 30
0.0
 10
-353.2532687976697
 20
953.2074717244327
 30
0.0
  0
ENDBLK
  5
83
330
80
100
AcDbEntity
  8
0
100
AcDbBlockEnd
  0
BLOCK
  5
AF
330
AD
100
AcDbEntity
  8
0
100
AcDbBlockBegin
  2
Block_1
 70
     0
 10
0.0
 20
0.0
 30
0.0
  3
Block_1
  1

  0
LWPOLYLINE
  5
B1
330
AD
100
AcDbEntity
  8
コメント
100
AcDbPolyline
 90
        4
 70
     1
 43
0.0
 10
-672.3503054423448
 20
707.0091192292474
 10
-723.4217340010119
 20
707.0091192292474
 10
-723.4217340010119
 20
729.0091192237476
 10
-672.3503054423448
 20
729.0091192237476
  0
INSERT
  5
B3
330
AD
100
AcDbEntity
  8
コメント
100
AcDbBlockReference
  2
Block_2
 10
0.0
 20
0.0
 30
0.0
  0
ENDBLK
  5
B0
330
AD
100
AcDbEntity
  8
0
100
AcDbBlockEnd
  0
BLOCK
  5
B4
330
B2
100
AcDbEntity
  8
0
100
AcDbBlockBegin
  2
Block_2
 70
     0
 10
0.0
 20
0.0
 30
0.0
  3
Block_2
  1

  0
LINE
  5
B6
330
B2
100
AcDbEntity
  8
コメント
 62
   251
370
   100
100
AcDbLine
 10
-721.5361873694464
 20
724.4448869367297
 30
0.0
 11
-715.7956968650266
 21
724.4448869367297
 31
0.0
  0
LINE
  5
B7
330
B2
100
AcDbEntity
  8
コメント
 62
   251
370
   100
100
AcDbLine
 10
-718.6659421172347
 20
721.5746416845177
 30
0.0
 11
-718.6659421172347
 21
727.315132188934
 31
0.0
  0
LINE
  5
B8
330
B2
100
AcDbEntity
  8
コメント
 62
   251
370
   100
100
AcDbLine
 10
-721.5361873694429
 20
717.7737188791995
 30
0.0
 11
-715.79569686503
 21
717.7737188791995
 31
0.0
  0
LINE
  5
B9
330
B2
100
AcDbEntity
  8
コメント
 62
   251
370
   100
100
AcDbLine
 10
-718.6659421172347
 20
714.9034736269946
 30
0.0
 11
-718.6659421172347
 21
720.6439641314112
 31
0.0
  0
CIRCLE
  5
BA
330
B2
100
AcDbEntity
  8
コメント
 62
   251
370
   100
100
AcDbCircle
 10
-718.665942117
 20
717.7737188789666
 30
0.0
 40
2.296196202002751
  0
SPLINE
  5
BB
330
B2
100
AcDbEntity
  8
コメント
 62
     7
370
    50
100
AcDbSpline
210
0.0
220
0.0
230
1.0
 70
     9
 71
     3
 72
    17
 73
    13
 74
     0
 42
0.0000000001
 43
0.0000000001
 40
0.0
 40
0.0
 40
0.0
 40
0.0
 40
1.0
 40
1.0
 40
1.0
 40
2.0
 40
2.0
 40
2.0
 40
3.0
 40
3.0
 40
3.0
 40
4.0
 40
4.0
 40
4.0
 40
4.0
 10
-718.6659173965612
 20
712.8492508553919
 30
0.0
 10
-717.873372639223
 20
712.8492508553919
 30
0.0
 10
-717.2308329220456
 20
712.2067358588842
 30
0.0
 10
-717.2308329220456
 20
711.4141416602063
 30
0.0
 10
-717.2308329220456
 20
710.6215721821944
 30
0.0
 10
-717.873372639223
 20
709.9790324650171
 30
0.0
 10
-718.6659173965612
 20
709.9790324650171
 30
0.0
 10
-719.4585115952466
 20
709.9790324650171
 30
0.0
 10
-720.1010513124239
 20
710.6215721821944
 30
0.0
 10
-720.1010513124239
 20
711.4141416602063
 30
0.0
 10
-720.1010513124239
 20
712.2067358588842
 30
0.0
 10
-719.4585115952466
 20
712.8492508553919
 30
0.0
 10
-718.6659173965612
 20
712.8492508553919
 30
0.0
  0
MTEXT
  5
BC
330
B2
100
AcDbEntity
  8
コメント
100
AcDbMText
 10
-712.9651806214549
 20
723.0852778004569
 30
0.0
 40
0.2
 41
0.0
 46
0.0
 71
     7
 72
     1
  1
\C7;\FKozuka Gothic Pr6N R|b0|i0|c128;\H2.437430;\W1.000000;ベース仮固定穴位置
 73
     1
 44
1.0
  0
MTEXT
  5
BD
330
B2
100
AcDbEntity
  8
コメント
100
AcDbMText
 10
-712.9651806214549
 20
716.4582921250304
 30
0.0
 40
0.2
 41
0.0
 46
0.0
 71
     7
 72
     1
  1
\C7;\FKozuka Gothic Pr6N R|b0|i0|c128;\H2.437430;\W1.000000;ベース電源穴位置 
 73
     1
 44
1.0
  0
MTEXT
  5
BE
330
B2
100
AcDbEntity
  8
コメント
100
AcDbMText
 10
-712.9651806214549
 20
710.1567818455728
 30
0.0
 40
0.2
 41
0.0
 46
0.0
 71
     7
 72
     1
  1
\C7;\FKozuka Gothic Pr6N R|b0|i0|c128;\H2.437430;\W1.000000;本体/ベース仮固定穴位置
 73
     1
 44
1.0
  0
ENDBLK
  5
B5
330
B2
100
AcDbEntity
  8
0
100
AcDbBlockEnd
  0
BLOCK
  5
C5
330
C3
100
AcDbEntity
  8
0
100
AcDbBlockBegin
  2
Block_3
 70
     0
 10
0.0
 20
0.0
 30
0.0
  3
Block_3
  1

  0
LINE
  5
C7
330
C3
100
AcDbEntity
  8
寸法
 62
     7
370
    35
100
AcDbLine
 10
-399.6031600620548
 20
741.3954217919587
 30
0.0
 11
-399.6031600620548
 21
948.430321025266
 31
0.0
  0
INSERT
  5
C9
330
C3
100
AcDbEntity
  8
寸法
100
AcDbBlockReference
  2
Block_4
 10
0.0
 20
0.0
 30
0.0
  0
INSERT
  5
CF
330
C3
100
AcDbEntity
  8
寸法
100
AcDbBlockReference
  2
Block_5
 10
0.0
 20
0.0
 30
0.0
  0
MTEXT
  5
D4
330
C3
100
AcDbEntity
  8
寸法
100
AcDbMText
 10
-402.6973835256277
 20
804.4366429331139
 30
0.0
 40
0.2
 41
0.0
 46
0.0
 71
     7
 72
     1
  1
\C7;\FMS UI Gothic|b0|i0|c128;\H5.696928;\W1.035170;TOP面 H207(参考寸)
 11
0.0000000000000001
 21
1.0
 31
0.0
 73
     1
 44
1.0
  0
ENDBLK
  5
C6
330
C3
100
AcDbEntity
  8
0
100
AcDbBlockEnd
  0
BLOCK
  5
CA
330
C8
100
AcDbEntity
  8
0
100
AcDbBlockBegin
  2
Block_4
 70
     0
 10
0.0
 20
0.0
 30
0.0
  3
Block_4
  1

  0
LINE
  5
CC
330
C8
100
AcDbEntity
  8
寸法
 62
     7
370
    35
100
AcDbLine
 10
-399.6031600621677
 20
948.430321025266
 30
0.0
 11
-402.1752351191675
 21
940.618545949826
 31
0.0
  0
LINE
  5
CD
330
C8
100
AcDbEntity
  8
寸法
 62
     7
370
    35
100
AcDbLine
 10
-399.6031600621677
 20
948.4303210254424
 30
0.0
 11
-397.031085005284
 21
940.6185459496496
 31
0.0
  0
ENDBLK
  5
CB
330
C8
100
AcDbEntity
  8
0
100
AcDbBlockEnd
  0
BLOCK
  5
D0
330
CE
100
AcDbEntity
  8
0
100
AcDbBlockBegin
  2
Block_5
 70
     0
 10
0.0
 20
0.0
 30
0.0
  3
Block_5
  1

  0
LINE
  5
D2
330
CE
100
AcDbEntity
  8
寸法
 62
     7
370
    35
100
AcDbLine
 10
-399.6031600622838
 20
741.3954217921351
 30
0.0
 11
-397.031085005284
 21
749.2071968675753
 31
0.0
  0
LINE
  5
D3
330
CE
100
AcDbEntity
  8
寸法
 62
     7
370
    35
100
AcDbLine
 10
-399.6031600622838
 20
741.3954217919587
 30
0.0
 11
-402.1752351191675
 21
749.2071968677517
 31
0.0
  0
ENDBLK
  5
D1
330
CE
100
AcDbEntity
  8
0
100
AcDbBlockEnd
  0
BLOCK
  5
D9
330
D7
100
AcDbEntity
  8
0
100
AcDbBlockBegin
  2
Block_6
 70
     0
 10
0.0
 20
0.0
 30
0.0
  3
Block_6
  1

  0
LINE
  5
DB
330
D7
100
AcDbEntity
  8
寸法
 62
     7
370
    35
100
AcDbLine
 10
-638.1156960510836
 20
745.0010587268179
 30
0.0
 11
-638.1156960510836
 21
945.0010586768186
 31
0.0
  0
INSERT
  5
DD
330
D7
100
AcDbEntity
  8
寸法
100
AcDbBlockReference
  2
Block_7
 10
0.0
 20
0.0
 30
0.0
  0
INSERT
  5
E3
330
D7
100
AcDbEntity
  8
寸法
100
AcDbBlockReference
  2
Block_8
 10
0.0
 20
0.0
 30
0.0
  0
MTEXT
  5
E8
330
D7
100
AcDbEntity
  8
寸法
100
AcDbMText
 10
-641.2099567081871
 20
805.8999903041675
 30
0.0
 40
0.2
 41
0.0
 46
0.0
 71
     7
 72
     1
  1
\C7;\FMS UI Gothic|b0|i0|c128;\H5.696928;\W1.000000;TOP面 H200(基準寸)
 11
0.0000000000000001
 21
1.0
 31
0.0
 73
     1
 44
1.0
  0
ENDBLK
  5
DA
330
D7
100
AcDbEntity
  8
0
100
AcDbBlockEnd
  0
BLOCK
  5
DE
330
DC
100
AcDbEntity
  8
0
100
AcDbBlockBegin
  2
Block_7
 70
     0
 10
0.0
 20
0.0
 30
0.0
  3
Block_7
  1

  0
LINE
  5
E0
330
DC
100
AcDbEntity
  8
寸法
 62
     7
370
    35
100
AcDbLine
 10
-638.1156960511965
 20
945.0010586768186
 30
0.0
 11
-640.6877711081928
 21
937.4547221872532
 31
0.0
  0
LINE
  5
E1
330
DC
100
AcDbEntity
  8
寸法
 62
     7
370
    35
100
AcDbLine
 10
-638.1156960511965
 20
945.0010586769881
 30
0.0
 11
-635.5436209943128
 21
937.4547221870837
 31
0.0
  0
ENDBLK
  5
DF
330
DC
100
AcDbEntity
  8
0
100
AcDbBlockEnd
  0
BLOCK
  5
E4
330
E2
100
AcDbEntity
  8
0
100
AcDbBlockBegin
  2
Block_8
 70
     0
 10
0.0
 20
0.0
 30
0.0
  3
Block_8
  1

  0
LINE
  5
E6
330
E2
100
AcDbEntity
  8
寸法
 62
     7
370
    35
100
AcDbLine
 10
-638.1156960513091
 20
745.0010587269873
 30
0.0
 11
-635.5436209943128
 21
752.5473952165529
 31
0.0
  0
LINE
  5
E7
330
E2
100
AcDbEntity
  8
寸法
 62
     7
370
    35
100
AcDbLine
 10
-638.1156960513091
 20
745.0010587268179
 30
0.0
 11
-640.6877711081928
 21
752.5473952167223
 31
0.0
  0
ENDBLK
  5
E5
330
E2
100
AcDbEntity
  8
0
100
AcDbBlockEnd
  0
BLOCK
  5
EB
330
E9
100
AcDbEntity
  8
0
100
AcDbBlockBegin
  2
Block_9
 70
     0
 10
0.0
 20
0.0
 30
0.0
  3
Block_9
  1

  0
LINE
  5
ED
330
E9
100
AcDbEntity
  8
寸法
 62
     7
370
    35
100
AcDbLine
 10
-662.8073152390928
 20
725.8263805541664
 30
0.0
 11
-662.8073152390928
 21
964.124927208927
 31
0.0
  0
INSERT
  5
EF
330
E9
100
AcDbEntity
  8
寸法
100
AcDbBlockReference
  2
Block_10
 10
0.0
 20
0.0
 30
0.0
  0
INSERT
  5
F5
330
E9
100
AcDbEntity
  8
寸法
100
AcDbBlockReference
  2
Block_11
 10
0.0
 20
0.0
 30
0.0
  0
MTEXT
  5
FA
330
E9
100
AcDbEntity
  8
寸法
100
AcDbMText
 10
-665.9014728152954
 20
824.7793288818042
 30
0.0
 40
0.2
 41
0.0
 46
0.0
 71
     7
 72
     1
  1
\C7;\FMS UI Gothic|b0|i0|c128;\H5.696928;\W0.975030;底面 H238.5
 11
0.0000000000000001
 21
1.0
 31
0.0
 73
     1
 44
1.0
  0
ENDBLK
  5
EC
330
E9
100
AcDbEntity
  8
0
100
AcDbBlockEnd
  0
BLOCK
  5
F0
330
EE
100
AcDbEntity
  8
0
100
AcDbBlockBegin
  2
Block_10
 70
     0
 10
0.0
 20
0.0
 30
0.0
  3
Block_10
  1

  0
LINE
  5
F2
330
EE
100
AcDbEntity
  8
寸法
 62
     7
370
    35
100
AcDbLine
 10
-662.8073152392057
 20
964.124927208927
 30
0.0
 11
-665.3793902961988
 21
955.1335221165228
 31
0.0
  0
LINE
  5
F3
330
EE
100
AcDbEntity
  8
寸法
 62
     7
370
    35
100
AcDbLine
 10
-662.8073152392057
 20
964.1249272091281
 30
0.0
 11
-660.2352401823154
 21
955.1335221163215
 31
0.0
  0
ENDBLK
  5
F1
330
EE
100
AcDbEntity
  8
0
100
AcDbBlockEnd
  0
BLOCK
  5
F6
330
F4
100
AcDbEntity
  8
0
100
AcDbBlockBegin
  2
Block_11
 70
     0
 10
0.0
 20
0.0
 30
0.0
  3
Block_11
  1

  0
LINE
  5
F8
330
F4
100
AcDbEntity
  8
寸法
 62
     7
370
    35
100
AcDbLine
 10
-662.8073152393151
 20
725.8263805543673
 30
0.0
 11
-660.2352401823154
 21
734.8177856467718
 31
0.0
  0
LINE
  5
F9
330
F4
100
AcDbEntity
  8
寸法
 62
     7
370
    35
100
AcDbLine
 10
-662.8073152393151
 20
725.8263805541664
 30
0.0
 11
-665.3793902961988
 21
734.8177856469731
 31
0.0
  0
ENDBLK
  5
F7
330
F4
100
AcDbEntity
  8
0
100
AcDbBlockEnd
  0
ENDSEC
  0
SECTION
  2
ENTITIES
  0
SPLINE
  5
7A
330
70
100
AcDbEntity
  8
cut(穴あり)
 62
     7
370
    35
100
AcDbSpline
210
0.0
220
0.0
230
1.0
 70
     9
 71
     3
 72
    17
 73
    13
 74
     0
 42
0.0000000001
 43
0.0000000001
 40
0.0
 40
0.0
 40
0.0
 40
0.0
 40
1.0
 40
1.0
 40
1.0
 40
2.0
 40
2.0
 40
2.0
 40
3.0
 40
3.0
 40
3.0
 40
4.0
 40
4.0
 40
4.0
 40
4.0
 10
-605.7727732515823
 20
791.4894724696932
 30
0.0
 10
-607.1534598628373
 20
791.4894724696932
 30
0.0
 10
-608.272771385995
 20
792.6087839928507
 30
0.0
 10
-608.272771385995
 20
793.9894706041053
 30
0.0
 10
-608.272771385995
 20
795.3701787472048
 30
0.0
 10
-607.1534598628373
 20
796.4894687385179
 30
0.0
 10
-605.7727732515823
 20
796.4894687385179
 30
0.0
 10
-604.3920866403278
 20
796.4894687385179
 30
0.0
 10
-603.2727751171702
 20
795.3701787472048
 30
0.0
 10
-603.2727751171702
 20
793.9894706041053
 30
0.0
 10
-603.2727751171702
 20
792.6087839928507
 30
0.0
 10
-604.3920866403278
 20
791.4894724696932
 30
0.0
 10
-605.7727732515823
 20
791.4894724696932
 30
0.0
  0
SPLINE
  5
7B
330
70
100
AcDbEntity
  8
cut(穴あり)
 62
     7
370
    35
100
AcDbSpline
210
0.0
220
0.0
230
1.0
 70
     9
 71
     3
 72
    17
 73
    13
 74
     0
 42
0.0000000001
 43
0.0000000001
 40
0.0
 40
0.0
 40
0.0
 40
0.0
 40
1.0
 40
1.0
 40
1.0
 40
2.0
 40
2.0
 40
2.0
 40
3.0
 40
3.0
 40
3.0
 40
4.0
 40
4.0
 40
4.0
 40
4.0
 10
-589.9576533214538
 20
937.7242156785788
 30
0.0
 10
-591.3383399327084
 20
937.7242156785788
 30
0.0
 10
-592.457651455866
 20
938.8435272017364
 30
0.0
 10
-592.457651455866
 20
940.2242138129913
 30
0.0
 10
-592.457651455866
 20
941.6049004242424
 30
0.0
 10
-591.3383399327084
 20
942.7242119474
 30
0.0
 10
-589.9576533214538
 20
942.7242119474
 30
0.0
 10
-588.576966710199
 20
942.7242119474
 30
0.0
 10
-587.4576551870413
 20
941.6049004242424
 30
0.0
 10
-587.4576551870413
 20
940.2242138129913
 30
0.0
 10
-587.4576551870413
 20
938.8435272017364
 30
0.0
 10
-588.576966710199
 20
937.7242156785788
 30
0.0
 10
-589.9576533214538
 20
937.7242156785788
 30
0.0
  0
SPLINE
  5
7C
330
70
100
AcDbEntity
  8
cut(穴あり)
 62
     7
370
    35
100
AcDbSpline
210
0.0
220
0.0
230
1.0
 70
     9
 71
     3
 72
    17
 73
    13
 74
     0
 42
0.0000000001
 43
0.0000000001
 40
0.0
 40
0.0
 40
0.0
 40
0.0
 40
1.0
 40
1.0
 40
1.0
 40
2.0
 40
2.0
 40
2.0
 40
3.0
 40
3.0
 40
3.0
 40
4.0
 40
4.0
 40
4.0
 40
4.0
 10
-447.626892316453
 20
902.3925867608172
 30
0.0
 10
-446.246205705202
 20
902.3925867608172
 30
0.0
 10
-445.1268941820443
 20
901.2732752376596
 30
0.0
 10
-445.1268941820443
 20
899.8925886264046
 30
0.0
 10
-445.1268941820443
 20
898.5118804833021
 30
0.0
 10
-446.246205705202
 20
897.3925904919928
 30
0.0
 10
-447.626892316453
 20
897.3925904919928
 30
0.0
 10
-449.0075789277075
 20
897.3925904919928
 30
0.0
 10
-450.1268904508652
 20
898.5118804833021
 30
0.0
 10
-450.1268904508652
 20
899.8925886264046
 30
0.0
 10
-450.1268904508652
 20
901.2732752376596
 30
0.0
 10
-449.0075789277075
 20
902.3925867608172
 30
0.0
 10
-447.626892316453
 20
902.3925867608172
 30
0.0
  0
SPLINE
  5
7D
330
70
100
AcDbEntity
  8
cut(穴あり)
 62
     7
370
    35
100
AcDbSpline
210
0.0
220
0.0
230
1.0
 70
     9
 71
     3
 72
    17
 73
    13
 74
     0
 42
0.0000000001
 43
0.0000000001
 40
0.0
 40
0.0
 40
0.0
 40
0.0
 40
1.0
 40
1.0
 40
1.0
 40
2.0
 40
2.0
 40
2.0
 40
3.0
 40
3.0
 40
3.0
 40
4.0
 40
4.0
 40
4.0
 40
4.0
 10
-459.00856193031
 20
746.8166178666026
 30
0.0
 10
-457.6278753190555
 20
746.8166178666026
 30
0.0
 10
-456.5085637958978
 20
745.6973063434449
 30
0.0
 10
-456.5085637958978
 20
744.3166197321903
 30
0.0
 10
-456.5085637958978
 20
742.935911589091
 30
0.0
 10
-457.6278753190555
 20
741.8166000659333
 30
0.0
 10
-459.00856193031
 20
741.8166000659333
 30
0.0
 10
-460.3892700734091
 20
741.8166000659333
 30
0.0
 10
-461.5085600647187
 20
742.935911589091
 30
0.0
 10
-461.5085600647187
 20
744.3166197321903
 30
0.0
 10
-461.5085600647187
 20
745.6973063434449
 30
0.0
 10
-460.3892700734091
 20
746.8166178666026
 30
0.0
 10
-459.00856193031
 20
746.8166178666026
 30
0.0
  0
SPLINE
  5
7E
330
70
100
AcDbEntity
  8
cut(穴あり)
 62
     7
370
    35
100
AcDbSpline
210
0.0
220
0.0
230
1.0
 70
     9
 71
     3
 72
   545
 73
   541
 74
     0
 42
0.0000000001
 43
0.0000000001
 40
0.0
 40
0.0
 40
0.0
 40
0.0
 40
1.0
 40
1.0
 40
1.0
 40
2.0
 40
2.0
 40
2.0
 40
3.0
 40
3.0
 40
3.0
 40
4.0
 40
4.0
 40
4.0
 40
5.0
 40
5.0
 40
5.0
 40
6.0
 40
6.0
 40
6.0
 40
7.0
 40
7.0
 40
7.0
 40
8.0
 40
8.0
 40
8.0
 40
9.0
 40
9.0
 40
9.0
 40
10.0
 40
10.0
 40
10.0
 40
11.0
 40
11.0
 40
11.0
 40
12.0
 40
12.0
 40
12.0
 40
13.0
 40
13.0
 40
13.0
 40
14.0
 40
14.0
 40
14.0
 40
15.0
 40
15.0
 40
15.0
 40
16.0
 40
16.0
 40
16.0
 40
17.0
 40
17.0
 40
17.0
 40
18.0
 40
18.0
 40
18.0
 40
19.0
 40
19.0
 40
19.0
 40
20.0
 40
20.0
 40
20.0
 40
21.0
 40
21.0
 40
21.0
 40
22.0
 40
22.0
 40
22.0
 40
23.0
 40
23.0
 40
23.0
 40
24.0
 40
24.0
 40
24.0
 40
25.0
 40
25.0
 40
25.0
 40
26.0
 40
26.0
 40
26.0
 40
27.0
 40
27.0
 40
27.0
 40
28.0
 40
28.0
 40
28.0
 40
29.0
 40
29.0
 40
29.0
 40
30.0
 40
30.0
 40
30.0
 40
31.0
 40
31.0
 40
31.0
 40
32.0
 40
32.0
 40
32.0
 40
33.0
 40
33.0
 40
33.0
 40
34.0
 40
34.0
 40
34.0
 40
35.0
 40
35.0
 40
35.0
 40
36.0
 40
36.0
 40
36.0
 40
37.0
 40
37.0
 40
37.0
 40
38.0
 40
38.0
 40
38.0
 40
39.0
 40
39.0
 40
39.0
 40
40.0
 40
40.0
 40
40.0
 40
41.0
 40
41.0
 40
41.0
 40
42.0
 40
42.0
 40
42.0
 40
43.0
 40
43.0
 40
43.0
 40
44.0
 40
44.0
 40
44.0
 40
45.0
 40
45.0
 40
45.0
 40
46.0
 40
46.0
 40
46.0
 40
47.0
 40
47.0
 40
47.0
 40
48.0
 40
48.0
 40
48.0
 40
49.0
 40
49.0
 40
49.0
 40
50.0
 40
50.0
 40
50.0
 40
51.0
 40
51.0
 40
51.0
 40
52.0
 40
52.0
 40
52.0
 40
53.0
 40
53.0
 40
53.0
 40
54.0
 40
54.0
 40
54.0
 40
55.0
 40
55.0
 40
55.0
 40
56.0
 40
56.0
 40
56.0
 40
57.0
 40
57.0
 40
57.0
 40
58.0
 40
58.0
 40
58.0
 40
59.0
 40
59.0
 40
59.0
 40
60.0
 40
60.0
 40
60.0
 40
61.0
 40
61.0
 40
61.0
 40
62.0
 40
62.0
 40
62.0
 40
63.0
 40
63.0
 40
63.0
 40
64.0
 40
64.0
 40
64.0
 40
65.0
 40
65.0
 40
65.0
 40
66.0
 40
66.0
 40
66.0
 40
67.0
 40
67.0
 40
67.0
 40
68.0
 40
68.0
 40
68.0
 40
69.0
 40
69.0
 40
69.0
 40
70.0
 40
70.0
 40
70.0
 40
71.0
 40
71.0
 40
71.0
 40
72.0
 40
72.0
 40
72.0
 40
73.0
 40
73.0
 40
73.0
 40
74.0
 40
74.0
 40
74.0
 40
75.0
 40
75.0
 40
75.0
 40
76.0
 40
76.0
 40
76.0
 40
77.0
 40
77.0
 40
77.0
 40
78.0
 40
78.0
 40
78.0
 40
79.0
 40
79.0
 40
79.0
 40
80.0
 40
80.0
 40
80.0
 40
81.0
 40
81.0
 40
81.0
 40
82.0
 40
82.0
 40
82.0
 40
83.0
 40
83.0
 40
83.0
 40
84.0
 40
84.0
 40
84.0
 40
85.0
 40
85.0
 40
85.0
 40
86.0
 40
86.0
 40
86.0
 40
87.0
 40
87.0
 40
87.0
 40
88.0
 40
88.0
 40
88.0
 40
89.0
 40
89.0
 40
89.0
 40
90.0
 40
90.0
 40
90.0
 40
91.0
 40
91.0
 40
91.0
 40
92.0
 40
92.0
 40
92.0
 40
93.0
 40
93.0
 40
93.0
 40
94.0
 40
94.0
 40
94.0
 40
95.0
 40
95.0
 40
95.0
 40
96.0
 40
96.0
 40
96.0
 40
97.0
 40
97.0
 40
97.0
 40
98.0
 40
98.0
 40
98.0
 40
99.0
 40
99.0
 40
99.0
 40
100.0
 40
100.0
 40
100.0
 40
101.0
 40
101.0
 40
101.0
 40
102.0
 40
102.0
 40
102.0
 40
103.0
 40
103.0
 40
103.0
 40
104.0
 40
104.0
 40
104.0
 40
105.0
 40
105.0
 40
105.0
 40
106.0
 40
106.0
 40
106.0
 40
107.0
 40
107.0
 40
107.0
 40
108.0
 40
108.0
 40
108.0
 40
109.0
 40
109.0
 40
109.0
 40
110.0
 40
110.0
 40
110.0
 40
111.0
 40
111.0
 40
111.0
 40
112.0
 40
112.0
 40
112.0
 40
113.0
 40
113.0
 40
113.0
 40
114.0
 40
114.0
 40
114.0
 40
115.0
 40
115.0
 40
115.0
 40
116.0
 40
116.0
 40
116.0
 40
117.0
 40
117.0
 40
117.0
 40
118.0
 40
118.0
 40
118.0
 40
119.0
 40
119.0
 40
119.0
 40
120.0
 40
120.0
 40
120.0
 40
121.0
 40
121.0
 40
121.0
 40
122.0
 40
122.0
 40
122.0
 40
123.0
 40
123.0
 40
123.0
 40
124.0
 40
124.0
 40
124.0
 40
125.0
 40
125.0
 40
125.0
 40
126.0
 40
126.0
 40
126.0
 40
127.0
 40
127.0
 40
127.0
 40
128.0
 40
128.0
 40
128.0
 40
129.0
 40
129.0
 40
129.0
 40
130.0
 40
130.0
 40
130.0
 40
131.0
 40
131.0
 40
131.0
 40
132.0
 40
132.0
 40
132.0
 40
133.0
 40
133.0
 40
133.0
 40
134.0
 40
134.0
 40
134.0
 40
135.0
 40
135.0
 40
135.0
 40
136.0
 40
136.0
 40
136.0
 40
137.0
 40
137.0
 40
137.0
 40
138.0
 40
138.0
 40
138.0
 40
139.0
 40
139.0
 40
139.0
 40
140.0
 40
140.0
 40
140.0
 40
141.0
 40
141.0
 40
141.0
 40
142.0
 40
142.0
 40
142.0
 40
143.0
 40
143.0
 40
143.0
 40
144.0
 40
144.0
 40
144.0
 40
145.0
 40
145.0
 40
145.0
 40
146.0
 40
146.0
 40
146.0
 40
147.0
 40
147.0
 40
147.0
 40
148.0
 40
148.0
 40
148.0
 40
149.0
 40
149.0
 40
149.0
 40
150.0
 40
150.0
 40
150.0
 40
151.0
 40
151.0
 40
151.0
 40
152.0
 40
152.0
 40
152.0
 40
153.0
 40
153.0
 40
153.0
 40
154.0
 40
154.0
 40
154.0
 40
155.0
 40
155.0
 40
155.0
 40
156.0
 40
156.0
 40
156.0
 40
157.0
 40
157.0
 40
157.0
 40
158.0
 40
158.0
 40
158.0
 40
159.0
 40
159.0
 40
159.0
 40
160.0
 40
160.0
 40
160.0
 40
161.0
 40
161.0
 40
161.0
 40
162.0
 40
162.0
 40
162.0
 40
163.0
 40
163.0
 40
163.0
 40
164.0
 40
164.0
 40
164.0
 40
165.0
 40
165.0
 40
165.0
 40
166.0
 40
166.0
 40
166.0
 40
167.0
 40
167.0
 40
167.0
 40
168.0
 40
168.0
 40
168.0
 40
169.0
 40
169.0
 40
169.0
 40
170.0
 40
170.0
 40
170.0
 40
171.0
 40
171.0
 40
171.0
 40
172.0
 40
172.0
 40
172.0
 40
173.0
 40
173.0
 40
173.0
 40
174.0
 40
174.0
 40
174.0
 40
175.0
 40
175.0
 40
175.0
 40
176.0
 40
176.0
 40
176.0
 40
177.0
 40
177.0
 40
177.0
 40
178.0
 40
178.0
 40
178.0
 40
179.0
 40
179.0
 40
179.0
 40
180.0
 40
180.0
 40
180.0
 40
180.0
 10
-525.4569392262525
 20
726.0287394538307
 30
0.0
 10
-524.4714696626967
 20
726.0106527025333
 30
0.0
 10
-523.5321428467954
 20
726.0020399638201
 30
0.0
 10
-522.5465010284653
 20
726.0020399638201
 30
0.0
 10
-519.4556474864882
 20
726.0020399638201
 30
0.0
 10
-516.5097032733582
 20
726.0868108446053
 30
0.0
 10
-513.42393124722
 20
726.2645347079519
 30
0.0
 10
-510.3805554273951
 20
726.4423662305311
 30
0.0
 10
-507.4852325860502
 20
726.7056791848382
 30
0.0
 10
-504.4597066672111
 20
727.0798165545364
 30
0.0
 10
-501.5523905872088
 20
727.4416592397208
 30
0.0
 10
-498.7933212723058
 20
727.8838803089452
 30
0.0
 10
-495.9185613446391
 20
728.4487467774446
 30
0.0
 10
-492.978495325682
 20
729.0289008571606
 30
0.0
 10
-490.1983678646228
 20
729.6954622380158
 30
0.0
 10
-487.3148875390094
 20
730.5115838266269
 30
0.0
 10
-484.5398846574887
 20
731.2996709507224
 30
0.0
 10
-481.9274041554831
 20
732.1664569748112
 30
0.0
 10
-479.2316815338158
 20
733.1934830026607
 30
0.0
 10
-476.4659588782572
 20
734.2499000013641
 30
0.0
 10
-473.8794027197761
 20
735.3882026133833
 30
0.0
 10
-471.2321698170621
 20
736.7138753561074
 30
0.0
 10
-470.0697946003388
 20
737.2970223625269
 30
0.0
 10
-468.975309296523
 20
737.8794588180011
 30
0.0
 10
-467.8423250506579
 20
738.5178134795733
 30
0.0
 10
-466.9356405144808
 20
739.028678076343
 30
0.0
 10
-465.9377255434856
 20
739.2904622695258
 30
0.0
 10
-464.8970267929326
 20
739.2904622695258
 30
0.0
 10
-463.9020616849442
 20
739.2904622695258
 30
0.0
 10
-462.948222404312
 20
739.051717152398
 30
0.0
 10
-462.0705627976001
 20
738.5830119116298
 30
0.0
 10
-461.1197595073638
 20
738.0752479008
 30
0.0
 10
-460.086467712104
 20
737.8166073572433
 30
0.0
 10
-459.00856193031
 20
737.8166073572433
 30
0.0
 10
-455.4187724346797
 20
737.8166073572433
 30
0.0
 10
-452.5085710872075
 20
740.7268087047155
 30
0.0
 10
-452.5085710872075
 20
744.3166197321903
 30
0.0
 10
-452.5085710872075
 20
744.8121105903581
 30
0.0
 10
-452.5620561946141
 20
745.2851222004828
 30
0.0
 10
-452.6727083552316
 20
745.7681030556669
 30
0.0
 10
-452.7748554363692
 20
746.2139414751542
 30
0.0
 10
-452.8242279610416
 20
746.6505857960616
 30
0.0
 10
-452.8242279610416
 20
747.1079652854215
 30
0.0
 10
-452.8242279610416
 20
748.6717802535654
 30
0.0
 10
-452.2159963531207
 20
750.169707770552
 30
0.0
 10
-451.1257743549692
 20
751.2908710325302
 30
0.0
 10
-449.7805506953644
 20
752.6742491246322
 30
0.0
 10
-448.5522234319466
 20
754.0453971277616
 30
0.0
 10
-447.3245636557778
 20
755.5340874824787
 30
0.0
 10
-442.9322391668585
 20
760.8694853286409
 30
0.0
 10
-439.5004072992269
 20
766.5989159709261
 30
0.0
 10
-436.8692156223674
 20
772.9892235865159
 30
0.0
 10
-435.4383382762614
 20
776.4586715904743
 30
0.0
 10
-434.3300079949639
 20
779.8735794265355
 30
0.0
 10
-433.4507334997391
 20
783.5220432046485
 30
0.0
 10
-432.6545934649463
 20
786.8154252974692
 30
0.0
 10
-432.1026891682093
 20
790.0060574174371
 30
0.0
 10
-431.7463155721082
 20
793.3755330567858
 30
0.0
 10
-431.4385608860383
 20
796.2731382738888
 30
0.0
 10
-431.2914337769736
 20
799.0511986776567
 30
0.0
 10
-431.2914337769736
 20
801.9651250346184
 30
0.0
 10
-431.2914337769736
 20
802.1753619866075
 30
0.0
 10
-431.2921873916116
 20
802.3757158209228
 30
0.0
 10
-431.2938022801207
 20
802.5859312410606
 30
0.0
 10
-431.3105971206093
 20
805.3521706609419
 30
0.0
 10
-431.4603511149845
 20
807.9885299810294
 30
0.0
 10
-431.756952304416
 20
810.7388573661411
 30
0.0
 10
-432.0053867525991
 20
813.0180248799456
 30
0.0
 10
-432.3439750432584
 20
815.1796285103211
 30
0.0
 10
-432.804325927473
 20
817.4255939163886
 30
0.0
 10
-433.3335141258555
 20
819.9964964222564
 30
0.0
 10
-433.9818810961794
 20
822.4181616980722
 30
0.0
 10
-434.8080795890833
 20
824.9095470937712
 30
0.0
 10
-435.7885968278781
 20
827.8585488291451
 30
0.0
 10
-436.9337465671751
 20
830.6013185360344
 30
0.0
 10
-438.3413264550592
 20
833.3720150481982
 30
0.0
 10
-440.4808168787883
 20
837.5751607312846
 30
0.0
 10
-442.9847553411605
 20
841.352923249328
 30
0.0
 10
-446.022425221587
 20
844.9607779644079
 30
0.0
 10
-447.8788795193545
 20
847.1684597468966
 30
0.0
 10
-449.7868164627785
 20
849.1578731985502
 30
0.0
 10
-451.9149596032509
 20
851.1049981031172
 30
0.0
 10
-453.7432502454284
 20
852.7803049739016
 30
0.0
 10
-455.5671699227048
 20
854.2891276053595
 30
0.0
 10
-457.5554637183243
 20
855.7710354283397
 30
0.0
 10
-459.3322932466864
 20
857.0980431455653
 30
0.0
 10
-461.0772771736619
 20
858.2943525528184
 30
0.0
 10
-462.9556724232979
 20
859.4732426960227
 30
0.0
 10
-465.0906626910479
 20
860.8156026200058
 30
0.0
 10
-467.1765388162889
 20
862.0144312533318
 30
0.0
 10
-469.4111354072555
 20
863.1834598107106
 30
0.0
 10
-471.5203735862513
 20
864.2895077162501
 30
0.0
 10
-473.5640042281016
 20
865.2803602415005
 30
0.0
 10
-475.7386992213175
 20
866.2513819358663
 30
0.0
 10
-477.7398044657764
 20
867.1471498257242
 30
0.0
 10
-479.6675722400818
 20
867.9549601214743
 30
0.0
 10
-481.7094803341895
 20
868.7533610001809
 30
0.0
 10
-483.7504194951956
 20
869.5528815349222
 30
0.0
 10
-485.7105926989176
 20
870.2764807779059
 30
0.0
 10
-487.7815257224865
 20
870.9948047184255
 30
0.0
 10
-490.0980509904646
 20
871.7999665970209
 30
0.0
 10
-492.3191040498052
 20
872.5290564609366
 30
0.0
 10
-494.6621350211684
 20
873.2534954459442
 30
0.0
 10
-496.9171438028868
 20
873.9536680396248
 30
0.0
 10
-499.074290340976
 20
874.5949295005114
 30
0.0
 10
-501.3456202625532
 20
875.2402604804395
 30
0.0
 10
-503.415261375317
 20
875.8301254230548
 30
0.0
 10
-505.3914758048896
 20
876.37884300647
 30
0.0
 10
-507.4689760417288
 20
876.9404796979509
 30
0.0
 10
-509.591327115417
 20
877.5149709019645
 30
0.0
 10
-511.6153207130012
 20
878.0572289313427
 30
0.0
 10
-513.7406216496999
 20
878.6207173616483
 30
0.0
 10
-513.7406216496999
 20
878.6207173616483
 30
0.0
 10
-513.8869736122824
 20
878.6587641349123
 30
0.0
 10
-513.8869736122824
 20
878.6587641349123
 30
0.0
 10
-516.1879959505734
 20
879.2377554949046
 30
0.0
 10
-518.3786891059511
 20
879.7982940621992
 30
0.0
 10
-520.6750175016444
 20
880.3956736193416
 30
0.0
 10
-522.6673162207644
 20
880.9141604898718
 30
0.0
 10
-524.5614943140954
 20
881.4256710420458
 30
0.0
 10
-526.5439745110824
 20
881.9805036699452
 30
0.0
 10
-527.831923458243
 20
882.3425186099047
 30
0.0
 10
-529.0559228204597
 20
882.6996673524913
 30
0.0
 10
-530.336464812327
 20
883.0870468079595
 30
0.0
 10
-531.643232593575
 20
883.4836634257008
 30
0.0
 10
-532.8830793950238
 20
883.8799355338897
 30
0.0
 10
-534.1776386191471
 20
884.3147711796692
 30
0.0
 10
-535.4097339557505
 20
884.7299697811829
 30
0.0
 10
-536.5757049908888
 20
885.1503144940755
 30
0.0
 10
-537.7893044711087
 20
885.6168234864714
 30
0.0
 10
-538.9734914486227
 20
886.072652682866
 30
0.0
 10
-540.0885827298091
 20
886.5424129841244
 30
0.0
 10
-541.2419791664226
 20
887.0713212684989
 30
0.0
 10
-542.0423825068833
 20
887.4407431637516
 30
0.0
 10
-542.7937578322163
 20
887.8178088646123
 30
0.0
 10
-543.5683229565337
 20
888.2387349373688
 30
0.0
 10
-544.1315099409832
 20
888.5459943909602
 30
0.0
 10
-544.6579635948221
 20
888.8579047234534
 30
0.0
 10
-545.1979823121349
 20
889.2043090744953
 30
0.0
 10
-545.5821535224365
 20
889.4520329717328
 30
0.0
 10
-545.9399482204278
 20
889.7011779708574
 30
0.0
 10
-546.3055589787983
 20
889.9755798262575
 30
0.0
 10
-546.6349316390327
 20
890.2238420196622
 30
0.0
 10
-546.9374971500267
 20
890.4756569677896
 30
0.0
 10
-547.2414191673664
 20
890.7544728517796
 30
0.0
 10
-547.4897459563123
 20
890.9835071060083
 30
0.0
 10
-547.7114163189432
 20
891.2183334270205
 30
0.0
 10
-547.9257658536632
 20
891.4794286011099
 30
0.0
 10
-548.0524592401349
 20
891.6351253851949
 30
0.0
 10
-548.1599892829676
 20
891.7945256469284
 30
0.0
 10
-548.2568825934883
 20
891.9703116440652
 30
0.0
 10
-548.366953394242
 20
892.1784600069115
 30
0.0
 10
-548.4383099344828
 20
892.3954579587896
 30
0.0
 10
-548.4732345899621
 20
892.6283033498998
 30
0.0
 10
-548.5125086784939
 20
892.8709457312947
 30
0.0
 10
-548.5316720221332
 20
893.1053629472179
 30
0.0
 10
-548.5322964456895
 20
893.3511705100904
 30
0.0
 10
-548.5327486144716
 20
893.3918011049723
 30
0.0
 10
-548.5329854647866
 20
893.4305153654884
 30
0.0
 10
-548.5329854647866
 20
893.4711244285182
 30
0.0
 10
-548.5329854647866
 20
894.126639971976
 30
0.0
 10
-548.4745910963116
 20
894.7520755254748
 30
0.0
 10
-548.3532806715381
 20
895.3962653175238
 30
0.0
 10
-548.1065472392534
 20
896.6796064494719
 30
0.0
 10
-547.584378422923
 20
897.8543624780977
 30
0.0
 10
-546.7970449134618
 20
898.8974512636422
 30
0.0
 10
-546.4307020723016
 20
899.3866978862406
 30
0.0
 10
-546.0411048366128
 20
899.8234068026922
 30
0.0
 10
-545.5966229234745
 20
900.2429548372546
 30
0.0
 10
-545.1622394464774
 20
900.65597872224
 30
0.0
 10
-544.721633265762
 20
901.0221062449367
 30
0.0
 10
-544.2361116526532
 20
901.3735705799733
 30
0.0
 10
-543.6725370949625
 20
901.7840106433478
 30
0.0
 10
-543.1109219353261
 20
902.1420852553434
 30
0.0
 10
-542.5010323752032
 20
902.4798338039794
 30
0.0
 10
-541.7990295745429
 20
902.8710028644814
 30
0.0
 10
-541.1083955889839
 20
903.2056723590292
 30
0.0
 10
-540.3663866170018
 20
903.5142667871186
 30
0.0
 10
-539.5233071562205
 20
903.8671952877376
 30
0.0
 10
-538.7017810740697
 20
904.1612341874035
 30
0.0
 10
-537.8262315883416
 20
904.4234274856759
 30
0.0
 10
-536.844185588423
 20
904.7196411018664
 30
0.0
 10
-535.8941359128248
 20
904.9562545661659
 30
0.0
 10
-534.8878665852758
 20
905.1552518941321
 30
0.0
 10
-533.7726245811599
 20
905.3778481261714
 30
0.0
 10
-532.6998003152085
 20
905.5414686298728
 30
0.0
 10
-531.5689046584822
 20
905.6614225483004
 30
0.0
 10
-530.202838171192
 20
905.8087003802949
 30
0.0
 10
-528.8939818008048
 20
905.8880237038447
 30
0.0
 10
-527.5201207849798
 20
905.9068210060836
 30
0.0
 10
-527.1997269048516
 20
905.9113857576035
 30
0.0
 10
-526.894383785625
 20
905.9135604741278
 30
0.0
 10
-526.5739683736521
 20
905.9135604741278
 30
0.0
 10
-526.147056447489
 20
905.9135604741278
 30
0.0
 10
-525.740190670681
 20
905.9097062735533
 30
0.0
 10
-525.3133433400586
 20
905.9015887673185
 30
0.0
 10
-522.1891800311043
 20
905.8479960006748
 30
0.0
 10
-519.2133926783342
 20
905.618466513968
 30
0.0
 10
-516.1179528529892
 20
905.1923297342908
 30
0.0
 10
-513.2149000786508
 20
904.7906746644036
 30
0.0
 10
-510.4705154832528
 20
904.2361650142078
 30
0.0
 10
-507.6392283542408
 20
903.4792344724023
 30
0.0
 10
-505.1907989928738
 20
902.8219963812055
 30
0.0
 10
-502.8929848997531
 20
902.0587570082964
 30
0.0
 10
-500.5379176260363
 20
901.1204421891926
 30
0.0
 10
-497.7771903589313
 20
900.0184853345425
 30
0.0
 10
-495.2225013336924
 20
898.7712961733414
 30
0.0
 10
-492.6556037513253
 20
897.2723135958647
 30
0.0
 10
-488.6765615295543
 20
894.9430845382872
 30
0.0
 10
-485.1498388131521
 20
892.2528956012408
 30
0.0
 10
-481.8516551185002
 20
889.0310638352833
 30
0.0
 10
-478.4278976934144
 20
885.7272172649286
 30
0.0
 10
-473.8700148345808
 20
883.8866965337787
 30
0.0
 10
-469.11212265098
 20
883.8866965337787
 30
0.0
 10
-467.3660405998221
 20
883.8866965337787
 30
0.0
 10
-465.6977961747825
 20
884.1228362974478
 30
0.0
 10
-464.0203361193218
 20
884.6074320411412
 30
0.0
 10
-460.291429361628
 20
885.683206170103
 30
0.0
 10
-457.0469460928533
 20
887.8722413732791
 30
0.0
 10
-454.6534444726314
 20
890.9272443903649
 30
0.0
 10
-454.6534444726314
 20
890.9272443903649
 30
0.0
 10
-454.3913157698965
 20
891.2616770345938
 30
0.0
 10
-454.3913157698965
 20
891.2616770345938
 30
0.0
 10
-453.2573625909265
 20
892.7085310110133
 30
0.0
 10
-451.5071679570306
 20
893.5605031245156
 30
0.0
 10
-449.6689080697977
 20
893.5605031245156
 30
0.0
 10
-449.3355520179033
 20
893.5605031245156
 30
0.0
 10
-449.0175912364632
 20
893.5343634625205
 30
0.0
 10
-448.6887353405477
 20
893.4798878901608
 30
0.0
 10
-448.3324694036802
 20
893.4209121618225
 30
0.0
 10
-447.9880029188478
 20
893.3925762514544
 30
0.0
 10
-447.626892316453
 20
893.3925762514544
 30
0.0
 10
-444.0370812889781
 20
893.3925762514544
 30
0.0
 10
-441.126879941506
 20
896.3027775989264
 30
0.0
 10
-441.126879941506
 20
899.8925886264046
 30
0.0
 10
-441.126879941506
 20
900.7837917647428
 30
0.0
 10
-441.3022568335535
 20
901.6370557890539
 30
0.0
 10
-441.6537211685898
 20
902.456041113283
 30
0.0
 10
-441.9781630359111
 20
903.2120242538285
 30
0.0
 10
-442.1400394600254
 20
903.9996376772974
 30
0.0
 10
-442.1400394600254
 20
904.8223049473268
 30
0.0
 10
-442.1400394600254
 20
906.1698755782304
 30
0.0
 10
-441.6937273399112
 20
907.4628414456928
 30
0.0
 10
-440.8624473311649
 20
908.5234786863678
 30
0.0
 10
-440.8624473311649
 20
908.5234786863678
 30
0.0
 10
-440.6003401602781
 20
908.8579113305966
 30
0.0
 10
-440.6003401602781
 20
908.8579113305966
 30
0.0
 10
-438.0549959565422
 20
912.1053444623822
 30
0.0
 10
-436.6883696412362
 20
916.0642328755608
 30
0.0
 10
-436.6883696412362
 20
920.1903376108594
 30
0.0
 10
-436.6883696412362
 20
925.1853169593822
 30
0.0
 10
-438.7223540157277
 20
929.9648917126916
 30
0.0
 10
-442.3217897787168
 20
933.4280954810836
 30
0.0
 10
-448.2841950031941
 20
939.1852806738732
 30
0.0
 10
-454.6259267724421
 20
944.009770859569
 30
0.0
 10
-461.7653058057588
 20
948.2198282654705
 30
0.0
 10
-465.3707489539987
 20
950.3451722658622
 30
0.0
 10
-468.9275731922042
 20
952.1694795163833
 30
0.0
 10
-472.757227460997
 20
953.8576408996966
 30
0.0
 10
-476.2420061398678
 20
955.3958975657089
 30
0.0
 10
-479.6392578615689
 20
956.6924377197345
 30
0.0
 10
-483.2628092929546
 20
957.8670645572785
 30
0.0
 10
-486.6673818425566
 20
958.9728110169623
 30
0.0
 10
-489.9605055532144
 20
959.8802491677773
 30
0.0
 10
-493.4509255759433
 20
960.6744298045125
 30
0.0
 10
-497.0300998711101
 20
961.4906805842014
 30
0.0
 10
-500.4752599518973
 20
962.1226618191263
 30
0.0
 10
-504.1111060677964
 20
962.6299305974809
 30
0.0
 10
-507.6001265204832
 20
963.1186604557562
 30
0.0
 10
-510.9433763704513
 20
963.4593803992475
 30
0.0
 10
-514.4592685679231
 20
963.6844743255158
 30
0.0
 10
-517.7630074790441
 20
963.8985439462315
 30
0.0
 10
-520.9185426887586
 20
964.0006479636763
 30
0.0
 10
-524.2292148545431
 20
964.0006479636763
 30
0.0
 10
-524.6118573037207
 20
964.0006479636763
 30
0.0
 10
-524.9765421926825
 20
963.9992914573271
 30
0.0
 10
-525.3591846418569
 20
963.9964277217053
 30
0.0
 10
-527.6337012767595
 20
963.9791591805865
 30
0.0
 10
-529.8010969739193
 20
963.9016445321683
 30
0.0
 10
-532.0710488573023
 20
963.756412225617
 30
0.0
 10
-534.789573704713
 20
963.5823272443783
 30
0.0
 10
-537.3750102071594
 20
963.3261843950499
 30
0.0
 10
-540.074866943409
 20
962.9634804359938
 30
0.0
 10
-543.5991996248197
 20
962.4874328354733
 30
0.0
 10
-546.9367650672366
 20
961.8685214315481
 30
0.0
 10
-550.3974711414038
 20
961.0493207888483
 30
0.0
 10
-553.7486231791399
 20
960.2533099451369
 30
0.0
 10
-556.9042660480877
 20
959.3293999315299
 30
0.0
 10
-560.1555533804441
 20
958.1923246347791
 30
0.0
 10
-563.3022390011343
 20
957.0889466782388
 30
0.0
 10
-566.2452764149461
 20
955.8744428604546
 30
0.0
 10
-569.2543304710004
 20
954.4375150654053
 30
0.0
 10
-572.2044949260976
 20
953.0257795310902
 30
0.0
 10
-574.9400514643158
 20
951.5182703422858
 30
0.0
 10
-577.709305342745
 20
949.7782172082233
 30
0.0
 10
-579.1404841347066
 20
948.877669248379
 30
0.0
 10
-580.4770950555949
 20
947.9756140592625
 30
0.0
 10
-581.8477047625569
 20
946.9852998301792
 30
0.0
 10
-582.8758935101298
 20
946.2423649887851
 30
0.0
 10
-584.0931534043018
 20
945.848633638514
 30
0.0
 10
-585.3616590938153
 20
945.848633638514
 30
0.0
 10
-586.1258243361402
 20
945.848633638514
 30
0.0
 10
-586.8571104484216
 20
945.9879446871994
 30
0.0
 10
-587.5677475196434
 20
946.2689137558696
 30
0.0
 10
-588.3375971695151
 20
946.5732879419915
 30
0.0
 10
-589.1297968763483
 20
946.7242046560903
 30
0.0
 10
-589.9576533214538
 20
946.7242046560903
 30
0.0
 10
-593.5474643489323
 20
946.7242046560903
 30
0.0
 10
-596.4576441645564
 20
943.8140248404662
 30
0.0
 10
-596.4576441645564
 20
940.2242138129913
 30
0.0
 10
-596.4576441645564
 20
939.4737643570667
 30
0.0
 10
-596.3339867684839
 20
938.756043308256
 30
0.0
 10
-596.0828393076093
 20
938.0488513325232
 30
0.0
 10
-595.8510059132964
 20
937.3960703336088
 30
0.0
 10
-595.736844061653
 20
936.7335784717951
 30
0.0
 10
-595.736844061653
 20
936.0408343652524
 30
0.0
 10
-595.736844061653
 20
934.7135682658638
 30
0.0
 10
-596.1693327361335
 20
933.440002592356
 30
0.0
 10
-596.9775521369732
 20
932.3871814120636
 30
0.0
 10
-598.0492998105899
 20
930.9911210622065
 30
0.0
 10
-599.0207736737338
 20
929.6219539889795
 30
0.0
 10
-599.984517603888
 20
928.1492617964239
 30
0.0
 10
-602.6241282328384
 20
924.1103179769025
 30
0.0
 10
-604.7275097495096
 20
919.9832658403474
 30
0.0
 10
-606.4444592119729
 20
915.4740880189375
 30
0.0
 10
-608.2091663105992
 20
910.8330276359833
 30
0.0
 10
-609.4026981096159
 20
906.2161475169663
 30
0.0
 10
-610.1082967286877
 20
901.3013097021682
 30
0.0
 10
-610.5514867310205
 20
898.2305023095459
 30
0.0
 10
-610.7798534979965
 20
895.2741797462644
 30
0.0
 10
-610.8135077745183
 20
892.1717420707151
 30
0.0
 10
-610.8174911661748
 20
891.8499701523929
 30
0.0
 10
-610.8194075005396
 20
891.543313590513
 30
0.0
 10
-610.8194075005396
 20
891.2215201403462
 30
0.0
 10
-610.8194075005396
 20
888.5540903653504
 30
0.0
 10
-610.688623063178
 20
886.0110931329133
 30
0.0
 10
-610.4149748224159
 20
883.3577451857149
 30
0.0
 10
-610.2279707331075
 20
881.5509863903201
 30
0.0
 10
-609.9829167848731
 20
879.8356948800627
 30
0.0
 10
-609.6565155194936
 20
878.0488315110968
 30
0.0
 10
-609.2858017134327
 20
876.0255269326096
 30
0.0
 10
-608.8418796283099
 20
874.1132836198287
 30
0.0
 10
-608.2833004590731
 20
872.1335810310748
 30
0.0
 10
-607.5452748787435
 20
869.5255576213554
 30
0.0
 10
-606.6757543101145
 20
867.0854826165381
 30
0.0
 10
-605.5981930378693
 20
864.5984466538916
 30
0.0
 10
-603.3351313454533
 20
859.3914862737888
 30
0.0
 10
-600.449304048541
 20
854.7304012733274
 30
0.0
 10
-596.7972229201684
 20
850.3834228537318
 30
0.0
 10
-595.1091261323959
 20
848.3708196030969
 30
0.0
 10
-593.3792360300185
 20
846.5526058652155
 30
0.0
 10
-591.4531046760599
 20
844.7664745790397
 30
0.0
 10
-589.5589481145768
 20
843.0072796331932
 30
0.0
 10
-587.6597531009476
 20
841.4304594295945
 30
0.0
 10
-585.5822313322604
 20
839.8921166361965
 30
0.0
 10
-583.7185208021254
 20
838.508544757472
 30
0.0
 10
-581.8838352014556
 20
837.2678582140004
 30
0.0
 10
-579.9057044375216
 20
836.0534405236018
 30
0.0
 10
-577.8038947456633
 20
834.7603669969059
 30
0.0
 10
-575.7512637918588
 20
833.6076595793892
 30
0.0
 10
-573.5531852130322
 20
832.4859795530846
 30
0.0
 10
-571.6644762087847
 20
831.5196948650129
 30
0.0
 10
-569.8378004551201
 20
830.6505834014734
 30
0.0
 10
-567.8966183402634
 20
829.7946278963147
 30
0.0
 10
-566.1990906035992
 20
829.0449105231838
 30
0.0
 10
-564.5660938117426
 20
828.3646764196213
 30
0.0
 10
-562.8383353621972
 20
827.6875429019954
 30
0.0
 10
-561.0878608142971
 20
827.0004616711549
 30
0.0
 10
-559.4076446824446
 20
826.3760811781498
 30
0.0
 10
-557.6332697846147
 20
825.7533155736497
 30
0.0
 10
-555.36954060495
 20
824.9573262617829
 30
0.0
 10
-553.1980969205969
 20
824.2385501524781
 30
0.0
 10
-550.906505531194
 20
823.5267288296849
 30
0.0
 10
-548.3746617953912
 20
822.7384909826596
 30
0.0
 10
-545.9511017170586
 20
822.0214589529456
 30
0.0
 10
-543.39794145294
 20
821.3052666652547
 30
0.0
 10
-541.935864460848
 20
820.8934054999931
 30
0.0
 10
-540.5402347479252
 20
820.5089759075354
 30
0.0
 10
-539.0734638132356
 20
820.1140818375369
 30
0.0
 10
-536.9704914016503
 20
819.5465669518828
 30
0.0
 10
-534.9641754502742
 20
819.0137183395481
 30
0.0
 10
-532.8567028827135
 20
818.4630198262309
 30
0.0
 10
-531.0131030974747
 20
817.9783379551489
 30
0.0
 10
-529.2551569987405
 20
817.5202048511518
 30
0.0
 10
-527.4094686243659
 20
817.0434682315338
 30
0.0
 10
-525.1645798106364
 20
816.4630127059618
 30
0.0
 10
-523.0284268231592
 20
815.8972418998986
 30
0.0
 10
-520.7905358596335
 20
815.2903883301718
 30
0.0
 10
-519.0249674871392
 20
814.8102927424542
 30
0.0
 10
-517.3469476036594
 20
814.3358600304424
 30
0.0
 10
-515.5913700080687
 20
813.8204522140009
 30
0.0
 10
-513.9468321463403
 20
813.336244043549
 30
0.0
 10
-512.3869144424636
 20
812.8497750291876
 30
0.0
 10
-510.7586761887493
 20
812.3133305984378
 30
0.0
 10
-509.4226681595694
 20
811.871583229843
 30
0.0
 10
-508.1578874795452
 20
811.4248620046398
 30
0.0
 10
-506.8408274755341
 20
810.9295218694015
 30
0.0
 10
-505.6509776223179
 20
810.4808627779888
 30
0.0
 10
-504.5284578539899
 20
810.0226650784506
 30
0.0
 10
-503.3645538761428
 20
809.5104870390272
 30
0.0
 10
-502.3438582112524
 20
809.0604929731128
 30
0.0
 10
-501.38607860266
 20
808.5972998851211
 30
0.0
 10
-500.3996185741516
 20
808.0765737025256
 30
0.0
 10
-499.6825004170488
 20
807.6963858838801
 30
0.0
 10
-499.0125800680971
 20
807.3083174093149
 30
0.0
 10
-498.3260156015797
 20
806.8753980979007
 30
0.0
 10
-497.8011983680945
 20
806.5430540428073
 30
0.0
 10
-497.3138250161652
 20
806.2058653221868
 30
0.0
 10
-496.8177743299818
 20
805.8319002072629
 30
0.0
 10
-496.4251411039001
 20
805.5349760401309
 30
0.0
 10
-496.0641381607389
 20
805.2343053316537
 30
0.0
 10
-495.7011112239788
 20
804.9018320854823
 30
0.0
 10
-495.4048330122473
 20
804.6283345676464
 30
0.0
 10
-495.1360725007052
 20
804.352769992519
 30
0.0
 10
-494.8700680655513
 20
804.0497523127431
 30
0.0
 10
-494.6202340473297
 20
803.7622590944991
 30
0.0
 10
-494.4030207769848
 20
803.469705892264
 30
0.0
 10
-494.2001046529036
 20
803.1473526140784
 30
0.0
 10
-493.8319316047639
 20
802.5519109231453
 30
0.0
 10
-493.5849397903195
 20
801.9171090162958
 30
0.0
 10
-493.4538754389503
 20
801.2294033618989
 30
0.0
 10
-493.368350943531
 20
800.800273655518
 30
0.0
 10
-493.3167606386374
 20
800.384988926616
 30
0.0
 10
-493.2947335593799
 20
799.9479570324673
 30
0.0
 10
-493.2816637283839
 20
799.7226047240358
 30
0.0
 10
-493.2754194928143
 20
799.50748004283
 30
0.0
 10
-493.2754194928143
 20
799.2817401611574
 30
0.0
 10
-493.2754194928143
 20
798.2243542293486
 30
0.0
 10
-493.4134386306948
 20
797.2142522330734
 30
0.0
 10
-493.697099180209
 20
796.1956236254706
 30
0.0
 10
-494.0729590976497
 20
794.8586251313416
 30
0.0
 10
-494.6695419764617
 20
793.6460161160741
 30
0.0
 10
-495.4994008833174
 20
792.532389000467
 30
0.0
 10
-495.9324924495095
 20
791.9485099112546
 30
0.0
 10
-496.3925849515645
 20
791.4263626267723
 30
0.0
 10
-496.9172945258129
 20
790.9231848993068
 30
0.0
 10
-497.4403246160146
 20
790.4192750890487
 30
0.0
 10
-497.9730009735749
 20
789.9738673064981
 30
0.0
 10
-498.5615524735372
 20
789.5483118866811
 30
0.0
 10
-499.2547056851694
 20
789.04362692994
 30
0.0
 10
-499.9479880878799
 20
788.6067026950248
 30
0.0
 10
-500.702356339916
 20
788.1991263672716
 30
0.0
 10
-501.6140793282428
 20
787.7031833403219
 30
0.0
 10
-502.5131415906594
 20
787.2848626210274
 30
0.0
 10
-503.4797492564318
 20
786.9068279870622
 30
0.0
 10
-504.5685501526969
 20
786.4774614303661
 30
0.0
 10
-505.6289505430568
 20
786.124748248214
 30
0.0
 10
-506.75801599281
 20
785.8163691385915
 30
0.0
 10
-508.0287179306964
 20
785.4660244595898
 30
0.0
 10
-509.2560547291647
 20
785.1899000564469
 30
0.0
 10
-510.554382026474
 20
784.9622653722572
 30
0.0
 10
-512.0616758968115
 20
784.6946891122868
 30
0.0
 10
-513.5096279974139
 20
784.5021513383579
 30
0.0
 10
-515.0344918547261
 20
784.3665868310132
 30
0.0
 10
-516.6119149500333
 20
784.2230555403562
 30
0.0
 10
-518.1202854127125
 20
784.139253592679
 30
0.0
 10
-519.7039096798931
 20
784.1072142046662
 30
0.0
 10
-520.2536177282573
 20
784.0947687972271
 30
0.0
 10
-520.7776382834119
 20
784.0888475393612
 30
0.0
 10
-521.3274970547058
 20
784.0888475393612
 30
0.0
 10
-523.8665970228725
 20
784.0888475393612
 30
0.0
 10
-526.2873148974313
 20
784.215454798444
 30
0.0
 10
-528.8125698881194
 20
784.4803395775668
 30
0.0
 10
-533.0979026303737
 20
784.9331327835625
 30
0.0
 10
-537.1459328892383
 20
785.7523549581066
 30
0.0
 10
-541.2701212901716
 20
787.0014173899765
 30
0.0
 10
-545.6482778239052
 20
788.3295447632365
 30
0.0
 10
-549.6988057769952
 20
790.0175123599275
 30
0.0
 10
-553.7244429152021
 20
792.1915183340464
 30
0.0
 10
-557.4774653412926
 20
794.2154903997858
 30
0.0
 10
-560.8839326934151
 20
796.4694010573143
 30
0.0
 10
-564.2142849671612
 20
799.1322014852531
 30
0.0
 10
-566.6325266793363
 20
801.0635650779766
 30
0.0
 10
-568.8206360131
 20
803.0527416793118
 30
0.0
 10
-570.9730455448951
 20
805.276507751348
 30
0.0
 10
-574.423803905851
 20
808.8020462161784
 30
0.0
 10
-579.1456948416274
 20
810.7876485309502
 30
0.0
 10
-584.0789854491162
 20
810.7876485309502
 30
0.0
 10
-585.3229017696062
 20
810.7876485309502
 30
0.0
 10
-586.5099955464382
 20
810.668319036079
 30
0.0
 10
-587.7290210520457
 20
810.4207243299232
 30
0.0
 10
-592.134695285972
 20
809.5282723444691
 30
0.0
 10
-596.034758693742
 20
807.0718977316412
 30
0.0
 10
-598.7427544680742
 20
803.4839815066797
 30
0.0
 10
-598.7427544680742
 20
803.4839815066797
 30
0.0
 10
-598.8331236290214
 20
803.3636400150111
 30
0.0
 10
-598.8331236290214
 20
803.3636400150111
 30
0.0
 10
-598.8331236290214
 20
803.3636400150111
 30
0.0
 10
-599.2481284439159
 20
802.803036852172
 30
0.0
 10
-599.2481284439159
 20
802.803036852172
 30
0.0
 10
-600.3754282822305
 20
801.2802615839989
 30
0.0
 10
-602.1758567146666
 20
800.3730172198068
 30
0.0
 10
-604.0704869767798
 20
800.3730172198068
 30
0.0
 10
-604.3480109499647
 20
800.3730172198068
 30
0.0
 10
-604.6126588787727
 20
800.3911255029485
 30
0.0
 10
-604.8875774984955
 20
800.428913894053
 30
0.0
 10
-605.1854275350399
 20
800.4698674666345
 30
0.0
 10
-605.4721240749537
 20
800.4894829790524
 30
0.0
 10
-605.7727732515823
 20
800.4894829790524
 30
0.0
 10
-609.3625842790608
 20
800.4894829790524
 30
0.0
 10
-612.2727856265295
 20
797.5792816315837
 30
0.0
 10
-612.2727856265295
 20
793.9894706041053
 30
0.0
 10
-612.2727856265295
 20
793.0379567629274
 30
0.0
 10
-612.0723671966771
 20
792.1265782841494
 30
0.0
 10
-611.6732313528624
 20
791.2628282504563
 30
0.0
 10
-611.3047783907149
 20
790.4655039640913
 30
0.0
 10
-611.1197982950054
 20
789.6242331784382
 30
0.0
 10
-611.1197982950054
 20
788.7459060844737
 30
0.0
 10
-611.1197982950054
 20
787.4539737456602
 30
0.0
 10
-611.5287311291045
 20
786.2142776671379
 30
0.0
 10
-612.2974395910971
 20
785.1759258878836
 30
0.0
 10
-612.2974395910971
 20
785.1759258878836
 30
0.0
 10
-612.712444405988
 20
784.6153227250482
 30
0.0
 10
-612.712444405988
 20
784.6153227250482
 30
0.0
 10
-615.0677915937127
 20
781.4350043596841
 30
0.0
 10
-616.3209235446278
 20
777.6374325426006
 30
0.0
 10
-616.3209235446278
 20
773.6798791039199
 30
0.0
 10
-616.3209235446278
 20
768.9496984071312
 30
0.0
 10
-614.505638137909
 20
764.4177183599776
 30
0.0
 10
-611.2402043822149
 20
760.99551122786
 30
0.0
 10
-604.790813379053
 20
754.220472573953
 30
0.0
 10
-597.7877309358704
 20
748.5524076950015
 30
0.0
 10
-589.8173948715116
 20
743.6565609690646
 30
0.0
 10
-585.8046122458332
 20
741.1894419646917
 30
0.0
 10
-581.8297041386446
 20
739.0785888971829
 30
0.0
 10
-577.5384501385247
 20
737.1358564893579
 30
0.0
 10
-573.8006722599549
 20
735.4417092526382
 30
0.0
 10
-570.1526175869312
 20
734.0131142822939
 30
0.0
 10
-566.2583677777901
 20
732.7185550581706
 30
0.0
 10
-562.4870432819351
 20
731.4628608174896
 30
0.0
 10
-558.8347683669436
 20
730.4370836367565
 30
0.0
 10
-554.9611245351735
 20
729.5456005844074
 30
0.0
 10
-551.4712643404635
 20
728.7405678968932
 30
0.0
 10
-548.1139541945466
 20
728.1062827543665
 30
0.0
 10
-544.5709318701269
 20
727.5826282406085
 30
0.0
 10
-541.1749074636974
 20
727.0791921309796
 30
0.0
 10
-537.9207994594117
 20
726.714657964944
 30
0.0
 10
-534.497537266797
 20
726.454187214415
 30
0.0
 10
-531.4412638707538
 20
726.2200283806512
 30
0.0
 10
-528.5216961699307
 20
726.0826336663308
 30
0.0
 10
-525.4569392262525
 20
726.0287394538307
 30
0.0
  0
INSERT
  5
81
330
70
100
AcDbEntity
  8
断面
100
AcDbBlockReference
  2
Block_0
 10
0.0
 20
0.0
 30
0.0
  0
LINE
  5
85
330
70
100
AcDbEntity
  8
断面
 62
    29
370
    18
100
AcDbLine
 10
-733.8061815034361
 20
964.1249271797065
 30
0.0
 11
-313.806181608438
 21
964.1249271797065
 31
0.0
  0
LINE
  5
86
330
70
100
AcDbEntity
  8
断面
 62
    29
370
    18
100
AcDbLine
 10
-733.8061815034361
 20
725.8263805541664
 30
0.0
 11
-313.806181608438
 21
725.8263805541664
 31
0.0
  0
LWPOLYLINE
  5
87
330
70
100
AcDbEntity
  8
断面
 62
    29
370
    18
100
AcDbPolyline
 90
        4
 70
     1
 43
0.0
 10
-343.8061815998101
 20
725.8263805541664
 10
-348.8061815985599
 20
725.8263805541664
 10
-348.8061815985599
 20
964.1249272385497
 10
-343.8061815998101
 20
964.1249272385497
  0
SPLINE
  5
89
330
70
100
AcDbEntity
  8
bottom
  6
AI-Linetype-0
 62
   254
370
    18
100
AcDbSpline
210
0.0
220
0.0
230
1.0
 70
     9
 71
     3
 72
   461
 73
   457
 74
     0
 42
0.0000000001
 43
0.0000000001
 40
0.0
 40
0.0
 40
0.0
 40
0.0
 40
1.0
 40
1.0
 40
1.0
 40
2.0
 40
2.0
 40
2.0
 40
3.0
 40
3.0
 40
3.0
 40
4.0
 40
4.0
 40
4.0
 40
5.0
 40
5.0
 40
5.0
 40
6.0
 40
6.0
 40
6.0
 40
7.0
 40
7.0
 40
7.0
 40
8.0
 40
8.0
 40
8.0
 40
9.0
 40
9.0
 40
9.0
 40
10.0
 40
10.0
 40
10.0
 40
11.0
 40
11.0
 40
11.0
 40
12.0
 40
12.0
 40
12.0
 40
13.0
 40
13.0
 40
13.0
 40
14.0
 40
14.0
 40
14.0
 40
15.0
 40
15.0
 40
15.0
 40
16.0
 40
16.0
 40
16.0
 40
17.0
 40
17.0
 40
17.0
 40
18.0
 40
18.0
 40
18.0
 40
19.0
 40
19.0
 40
19.0
 40
20.0
 40
20.0
 40
20.0
 40
21.0
 40
21.0
 40
21.0
 40
22.0
 40
22.0
 40
22.0
 40
23.0
 40
23.0
 40
23.0
 40
24.0
 40
24.0
 40
24.0
 40
25.0
 40
25.0
 40
25.0
 40
26.0
 40
26.0
 40
26.0
 40
27.0
 40
27.0
 40
27.0
 40
28.0
 40
28.0
 40
28.0
 40
29.0
 40
29.0
 40
29.0
 40
30.0
 40
30.0
 40
30.0
 40
31.0
 40
31.0
 40
31.0
 40
32.0
 40
32.0
 40
32.0
 40
33.0
 40
33.0
 40
33.0
 40
34.0
 40
34.0
 40
34.0
 40
35.0
 40
35.0
 40
35.0
 40
36.0
 40
36.0
 40
36.0
 40
37.0
 40
37.0
 40
37.0
 40
38.0
 40
38.0
 40
38.0
 40
39.0
 40
39.0
 40
39.0
 40
40.0
 40
40.0
 40
40.0
 40
41.0
 40
41.0
 40
41.0
 40
42.0
 40
42.0
 40
42.0
 40
43.0
 40
43.0
 40
43.0
 40
44.0
 40
44.0
 40
44.0
 40
45.0
 40
45.0
 40
45.0
 40
46.0
 40
46.0
 40
46.0
 40
47.0
 40
47.0
 40
47.0
 40
48.0
 40
48.0
 40
48.0
 40
49.0
 40
49.0
 40
49.0
 40
50.0
 40
50.0
 40
50.0
 40
51.0
 40
51.0
 40
51.0
 40
52.0
 40
52.0
 40
52.0
 40
53.0
 40
53.0
 40
53.0
 40
54.0
 40
54.0
 40
54.0
 40
55.0
 40
55.0
 40
55.0
 40
56.0
 40
56.0
 40
56.0
 40
57.0
 40
57.0
 40
57.0
 40
58.0
 40
58.0
 40
58.0
 40
59.0
 40
59.0
 40
59.0
 40
60.0
 40
60.0
 40
60.0
 40
61.0
 40
61.0
 40
61.0
 40
62.0
 40
62.0
 40
62.0
 40
63.0
 40
63.0
 40
63.0
 40
64.0
 40
64.0
 40
64.0
 40
65.0
 40
65.0
 40
65.0
 40
66.0
 40
66.0
 40
66.0
 40
67.0
 40
67.0
 40
67.0
 40
68.0
 40
68.0
 40
68.0
 40
69.0
 40
69.0
 40
69.0
 40
70.0
 40
70.0
 40
70.0
 40
71.0
 40
71.0
 40
71.0
 40
72.0
 40
72.0
 40
72.0
 40
73.0
 40
73.0
 40
73.0
 40
74.0
 40
74.0
 40
74.0
 40
75.0
 40
75.0
 40
75.0
 40
76.0
 40
76.0
 40
76.0
 40
77.0
 40
77.0
 40
77.0
 40
78.0
 40
78.0
 40
78.0
 40
79.0
 40
79.0
 40
79.0
 40
80.0
 40
80.0
 40
80.0
 40
81.0
 40
81.0
 40
81.0
 40
82.0
 40
82.0
 40
82.0
 40
83.0
 40
83.0
 40
83.0
 40
84.0
 40
84.0
 40
84.0
 40
85.0
 40
85.0
 40
85.0
 40
86.0
 40
86.0
 40
86.0
 40
87.0
 40
87.0
 40
87.0
 40
88.0
 40
88.0
 40
88.0
 40
89.0
 40
89.0
 40
89.0
 40
90.0
 40
90.0
 40
90.0
 40
91.0
 40
91.0
 40
91.0
 40
92.0
 40
92.0
 40
92.0
 40
93.0
 40
93.0
 40
93.0
 40
94.0
 40
94.0
 40
94.0
 40
95.0
 40
95.0
 40
95.0
 40
96.0
 40
96.0
 40
96.0
 40
97.0
 40
97.0
 40
97.0
 40
98.0
 40
98.0
 40
98.0
 40
99.0
 40
99.0
 40
99.0
 40
100.0
 40
100.0
 40
100.0
 40
101.0
 40
101.0
 40
101.0
 40
102.0
 40
102.0
 40
102.0
 40
103.0
 40
103.0
 40
103.0
 40
104.0
 40
104.0
 40
104.0
 40
105.0
 40
105.0
 40
105.0
 40
106.0
 40
106.0
 40
106.0
 40
107.0
 40
107.0
 40
107.0
 40
108.0
 40
108.0
 40
108.0
 40
109.0
 40
109.0
 40
109.0
 40
110.0
 40
110.0
 40
110.0
 40
111.0
 40
111.0
 40
111.0
 40
112.0
 40
112.0
 40
112.0
 40
113.0
 40
113.0
 40
113.0
 40
114.0
 40
114.0
 40
114.0
 40
115.0
 40
115.0
 40
115.0
 40
116.0
 40
116.0
 40
116.0
 40
117.0
 40
117.0
 40
117.0
 40
118.0
 40
118.0
 40
118.0
 40
119.0
 40
119.0
 40
119.0
 40
120.0
 40
120.0
 40
120.0
 40
121.0
 40
121.0
 40
121.0
 40
122.0
 40
122.0
 40
122.0
 40
123.0
 40
123.0
 40
123.0
 40
124.0
 40
124.0
 40
124.0
 40
125.0
 40
125.0
 40
125.0
 40
126.0
 40
126.0
 40
126.0
 40
127.0
 40
127.0
 40
127.0
 40
128.0
 40
128.0
 40
128.0
 40
129.0
 40
129.0
 40
129.0
 40
130.0
 40
130.0
 40
130.0
 40
131.0
 40
131.0
 40
131.0
 40
132.0
 40
132.0
 40
132.0
 40
133.0
 40
133.0
 40
133.0
 40
134.0
 40
134.0
 40
134.0
 40
135.0
 40
135.0
 40
135.0
 40
136.0
 40
136.0
 40
136.0
 40
137.0
 40
137.0
 40
137.0
 40
138.0
 40
138.0
 40
138.0
 40
139.0
 40
139.0
 40
139.0
 40
140.0
 40
140.0
 40
140.0
 40
141.0
 40
141.0
 40
141.0
 40
142.0
 40
142.0
 40
142.0
 40
143.0
 40
143.0
 40
143.0
 40
144.0
 40
144.0
 40
144.0
 40
145.0
 40
145.0
 40
145.0
 40
146.0
 40
146.0
 40
146.0
 40
147.0
 40
147.0
 40
147.0
 40
148.0
 40
148.0
 40
148.0
 40
149.0
 40
149.0
 40
149.0
 40
150.0
 40
150.0
 40
150.0
 40
151.0
 40
151.0
 40
151.0
 40
152.0
 40
152.0
 40
152.0
 40
152.0
 10
-522.5465010284653
 20
734.0020253812005
 30
0.0
 10
-519.6126361813821
 20
734.0020253812005
 30
0.0
 10
-516.8162952396974
 20
734.082468360781
 30
0.0
 10
-513.887275058138
 20
734.251105784784
 30
0.0
 10
-511.0209771462582
 20
734.4186450846007
 30
0.0
 10
-508.2941410059868
 20
734.6666488958458
 30
0.0
 10
-505.444637934596
 20
735.0189529729054
 30
0.0
 10
-502.7281801444765
 20
735.3571321584754
 30
0.0
 10
-500.1502367247121
 20
735.7703067663936
 30
0.0
 10
-497.4641603704035
 20
736.2980307991936
 30
0.0
 10
-494.7416305994922
 20
736.8353365038106
 30
0.0
 10
-492.1671753389056
 20
737.4525899555341
 30
0.0
 10
-489.4969894875221
 20
738.2082285865307
 30
0.0
 10
-486.9517960067121
 20
738.9311603422623
 30
0.0
 10
-484.5556244374876
 20
739.7261807210246
 30
0.0
 10
-482.0830794077237
 20
740.6680698266919
 30
0.0
 10
-479.5709373117206
 20
741.6277657696493
 30
0.0
 10
-477.2215113818654
 20
742.6617035203131
 30
0.0
 10
-474.8168993287016
 20
743.865764392408
 30
0.0
 10
-472.203040788502
 20
745.1772045844058
 30
0.0
 10
-469.7860263915914
 20
746.5777004947004
 30
0.0
 10
-467.3483844854621
 20
748.1932564906642
 30
0.0
 10
-464.9312193656219
 20
749.7990800918795
 30
0.0
 10
-462.7259491499724
 20
751.4803512842189
 30
0.0
 10
-460.5373015200416
 20
753.3859197244993
 30
0.0
 10
-457.9589059314915
 20
755.6347273343442
 30
0.0
 10
-455.675604303105
 20
757.981870888445
 30
0.0
 10
-453.4987345933609
 20
760.621287730773
 30
0.0
 10
-449.6199231183664
 20
765.3334678036534
 30
0.0
 10
-446.5893156836848
 20
770.3935594568474
 30
0.0
 10
-444.2658140973507
 20
776.0372502852427
 30
0.0
 10
-442.9938848441964
 20
779.1209337222418
 30
0.0
 10
-442.0087813220373
 20
782.1561920358285
 30
0.0
 10
-441.2274121341346
 20
785.3990819479426
 30
0.0
 10
-440.5146864737771
 20
788.3468994317409
 30
0.0
 10
-440.0206597811922
 20
791.2027759297797
 30
0.0
 10
-439.7017515984917
 20
794.2187201768007
 30
0.0
 10
-439.4241414979212
 20
796.8318896979036
 30
0.0
 10
-439.2914191943539
 20
799.3372492621664
 30
0.0
 10
-439.2914191943539
 20
801.9651250346184
 30
0.0
 10
-439.2914191943539
 20
802.1567800028352
 30
0.0
 10
-439.2921297452955
 20
802.3394561909389
 30
0.0
 10
-439.2936154427228
 20
802.5311111591525
 30
0.0
 10
-439.308537012543
 20
805.0233578287228
 30
0.0
 10
-439.4432833097128
 20
807.3986004428768
 30
0.0
 10
-439.7103428053603
 20
809.876528434335
 30
0.0
 10
-439.9311518941167
 20
811.9009526688534
 30
0.0
 10
-440.2319302618271
 20
813.8209905101717
 30
0.0
 10
-440.6407339048446
 20
815.8159591782911
 30
0.0
 10
-441.1055849450383
 20
818.0737240363978
 30
0.0
 10
-441.6749946332092
 20
820.2004676068312
 30
0.0
 10
-442.4004456150176
 20
822.3884477495134
 30
0.0
 10
-443.2530636839205
 20
824.9522878096364
 30
0.0
 10
-444.2486532154651
 20
827.3368321815969
 30
0.0
 10
-445.4722650044407
 20
829.7457721359648
 30
0.0
 10
-447.3306141047215
 20
833.3960230573614
 30
0.0
 10
-449.5053952253262
 20
836.6768520835057
 30
0.0
 10
-452.1437354753195
 20
839.8100802999515
 30
0.0
 10
-453.7736316812358
 20
841.7485063384233
 30
0.0
 10
-455.4488093609385
 20
843.4952343449825
 30
0.0
 10
-457.3174291521381
 20
845.2047122566115
 30
0.0
 10
-458.945129109685
 20
846.696374006184
 30
0.0
 10
-460.5690394621985
 20
848.0397028632721
 30
0.0
 10
-462.3393448409867
 20
849.3589806475
 30
0.0
 10
-463.9422401110398
 20
850.5562374560131
 30
0.0
 10
-465.5164549611805
 20
851.635478212305
 30
0.0
 10
-467.2110758985265
 20
852.6989361249091
 30
0.0
 10
-469.1662321819468
 20
853.9283184488205
 30
0.0
 10
-471.0764515011288
 20
855.0261842525845
 30
0.0
 10
-473.1229243467563
 20
856.0966830790848
 30
0.0
 10
-475.083226741556
 20
857.1246995718833
 30
0.0
 10
-476.9825940099633
 20
858.0456166587833
 30
0.0
 10
-479.0038099993146
 20
858.9480163574519
 30
0.0
 10
-480.8877819972683
 20
859.7914187959336
 30
0.0
 10
-482.7027444262866
 20
860.5519666879953
 30
0.0
 10
-484.6251507707487
 20
861.3036003954915
 30
0.0
 10
-486.5680554333482
 20
862.0647727111094
 30
0.0
 10
-488.4340914029338
 20
862.7535980215402
 30
0.0
 10
-490.405568826216
 20
863.4374064116661
 30
0.0
 10
-492.6357729204371
 20
864.2125744276954
 30
0.0
 10
-494.7740575607461
 20
864.914512632815
 30
0.0
 10
-497.029819957099
 20
865.6118860864152
 30
0.0
 10
-499.2247333544478
 20
866.2934551644793
 30
0.0
 10
-501.324411393474
 20
866.9176203390213
 30
0.0
 10
-503.5352152937443
 20
867.5457258415228
 30
0.0
 10
-505.5708576204378
 20
868.1259229849317
 30
0.0
 10
-507.5146235569083
 20
868.6656402563887
 30
0.0
 10
-509.5579958165988
 20
869.2180613174484
 30
0.0
 10
-511.6608175052546
 20
869.7872556871525
 30
0.0
 10
-513.6662291190666
 20
870.3245398599252
 30
0.0
 10
-515.7719576070368
 20
870.8829037106955
 30
0.0
 10
-515.7719576070368
 20
870.8829037106955
 30
0.0
 10
-515.8692815544951
 20
870.9081820988194
 30
0.0
 10
-515.8692815544951
 20
870.9081820988194
 30
0.0
 10
-518.1812205391053
 20
871.4900156625853
 30
0.0
 10
-520.3822705127869
 20
872.0532457107275
 30
0.0
 10
-522.6894940229512
 20
872.653445939799
 30
0.0
 10
-524.7313590533662
 20
873.1848519183987
 30
0.0
 10
-526.6726272956084
 20
873.7090662601721
 30
0.0
 10
-528.7044154217307
 20
874.2777438655533
 30
0.0
 10
-530.0465169635503
 20
874.6549602893439
 30
0.0
 10
-531.3219989714236
 20
875.027116729136
 30
0.0
 10
-532.6563921120944
 20
875.4308173244664
 30
0.0
 10
-534.0417726659466
 20
875.8512481647485
 30
0.0
 10
-535.3562057846509
 20
876.2713560273303
 30
0.0
 10
-536.728624166741
 20
876.732395930642
 30
0.0
 10
-538.0702950716234
 20
877.1844570538476
 30
0.0
 10
-539.3399634808643
 20
877.6421595209111
 30
0.0
 10
-540.6614805771615
 20
878.1501819139041
 30
0.0
 10
-542.0073501921669
 20
878.6682166156518
 30
0.0
 10
-543.2746716301091
 20
879.2021848840175
 30
0.0
 10
-544.5854658667057
 20
879.8035047691197
 30
0.0
 10
-545.5517936184701
 20
880.2492570612185
 30
0.0
 10
-546.458865727892
 20
880.7044187703606
 30
0.0
 10
-547.3938431107407
 20
881.2126780136686
 30
0.0
 10
-548.1305121847238
 20
881.6143976790971
 30
0.0
 10
-548.819014517451
 20
882.0223615800911
 30
0.0
 10
-549.5251514326904
 20
882.4755854230206
 30
0.0
 10
-550.0764097740231
 20
882.8307532357049
 30
0.0
 10
-550.5897074694807
 20
883.1881818922996
 30
0.0
 10
-551.1140940660284
 20
883.5819778381084
 30
0.0
 10
-551.6572564329741
 20
883.9910398632891
 30
0.0
 10
-552.1560631955422
 20
884.4062169329545
 30
0.0
 10
-552.6569154835568
 20
884.8661371802354
 30
0.0
 10
-553.1877616341412
 20
885.3550177614405
 30
0.0
 10
-553.6612900085888
 20
885.856795918867
 30
0.0
 10
-554.1186694979483
 20
886.4150305785589
 30
0.0
 10
-554.5703861116051
 20
886.9682052542568
 30
0.0
 10
-554.9519950321377
 20
887.5363230316189
 30
0.0
 10
-555.2932748036442
 20
888.163674919483
 30
0.0
 10
-555.8416909412033
 20
889.1821312723115
 30
0.0
 10
-556.1990765341051
 20
890.2460844173907
 30
0.0
 10
-556.3767142700627
 20
891.3890594401625
 30
0.0
 10
-556.4780431410216
 20
892.0277801431279
 30
0.0
 10
-556.528406130647
 20
892.6443230439062
 30
0.0
 10
-556.5320880764475
 20
893.2910105301802
 30
0.0
 10
-556.5326909681555
 20
893.3520102521175
 30
0.0
 10
-556.5329708821669
 20
893.4101247065843
 30
0.0
 10
-556.5329708821669
 20
893.4711244285182
 30
0.0
 10
-556.5329708821669
 20
894.635782021003
 30
0.0
 10
-556.4287998074306
 20
895.7470406334632
 30
0.0
 10
-556.2123186198753
 20
896.8914152262742
 30
0.0
 10
-555.7347422582345
 20
899.3881405199754
 30
0.0
 10
-554.7212812938592
 20
901.6741120973685
 30
0.0
 10
-553.1917880894899
 20
903.7044575897523
 30
0.0
 10
-552.5523783674275
 20
904.5569679994255
 30
0.0
 10
-551.8731347288179
 20
905.3182910379696
 30
0.0
 10
-551.0987633911191
 20
906.0504168922813
 30
0.0
 10
-550.4080217463264
 20
906.7062984771318
 30
0.0
 10
-549.7078706844903
 20
907.2880674453573
 30
0.0
 10
-548.9365999327282
 20
907.847012655991
 30
0.0
 10
-548.1078822137512
 20
908.4499689614506
 30
0.0
 10
-547.2823512081001
 20
908.9762934242077
 30
0.0
 10
-546.3860234902234
 20
909.4731838524142
 30
0.0
 10
-545.4193727607584
 20
910.0113723627512
 30
0.0
 10
-544.4685479386776
 20
910.4721108202104
 30
0.0
 10
-543.4471417228384
 20
910.8973001986312
 30
0.0
 10
-542.3457016325114
 20
911.3580171242425
 30
0.0
 10
-541.2725328570112
 20
911.7421022071555
 30
0.0
 10
-540.1288903469865
 20
912.0848676760894
 30
0.0
 10
-538.89821611227
 20
912.4557968006172
 30
0.0
 10
-537.7077633673419
 20
912.7522903308159
 30
0.0
 10
-536.446879951585
 20
913.0018874987223
 30
0.0
 10
-535.0936033812863
 20
913.2717676662988
 30
0.0
 10
-533.7918525203398
 20
913.4702912936381
 30
0.0
 10
-532.4196709885647
 20
913.616061896357
 30
0.0
 10
-530.8042226518351
 20
913.7900176865139
 30
0.0
 10
-529.2564489095458
 20
913.8837458155609
 30
0.0
 10
-527.6318064742427
 20
913.9060312769812
 30
0.0
 10
-527.2736026711657
 20
913.9111343246687
 30
0.0
 10
-526.9321937085775
 20
913.9135458915085
 30
0.0
 10
-526.5739683736521
 20
913.9135458915085
 30
0.0
 10
-526.0981145597504
 20
913.9135458915085
 30
0.0
 10
-525.6446108028098
 20
913.909282585844
 30
0.0
 10
-525.1688431162969
 20
913.9002822738902
 30
0.0
 10
-521.7221758062342
 20
913.8408543767697
 30
0.0
 10
-518.439215127258
 20
913.5874460719811
 30
0.0
 10
-515.0242426956559
 20
913.1172120700929
 30
0.0
 10
-511.7868434044741
 20
912.6694142525508
 30
0.0
 10
-508.7264143620005
 20
912.0510411447932
 30
0.0
 10
-505.5691135408503
 20
911.206755900592
 30
0.0
 10
-502.8126711112538
 20
910.4670077725234
 30
0.0
 10
-500.2258135069207
 20
909.6077794266541
 30
0.0
 10
-497.5745541488577
 20
908.5513408961022
 30
0.0
 10
-494.4374286681446
 20
907.2992855375289
 30
0.0
 10
-491.5344835530395
 20
905.8820378504377
 30
0.0
 10
-488.6177580559902
 20
904.1785242603708
 30
0.0
 10
-484.0752919994547
 20
901.5198794788625
 30
0.0
 10
-480.0486859281427
 20
898.4500410193419
 30
0.0
 10
-476.2819907793448
 20
894.7738442225725
 30
0.0
 10
-474.3524573935935
 20
892.9191555362402
 30
0.0
 10
-471.7884881423928
 20
891.886703483007
 30
0.0
 10
-469.11212265098
 20
891.886703483007
 30
0.0
 10
-468.1269330014321
 20
891.886703483007
 30
0.0
 10
-467.1856683193247
 20
892.020007146438
 30
0.0
 10
-466.239235993986
 20
892.293569259815
 30
0.0
 10
-464.1337658881755
 20
892.900659679857
 30
0.0
 10
-462.3017933001975
 20
894.1365876851902
 30
0.0
 10
-460.9504761279563
 20
895.8615469946549
 30
0.0
 10
-460.9504761279563
 20
895.8615469946549
 30
0.0
 10
-446.8967904557433
 20
913.7929460176762
 30
0.0
 10
-446.8967904557433
 20
913.7929460176762
 30
0.0
 10
-445.4598626606937
 20
915.6261889846113
 30
0.0
 10
-444.6883765904646
 20
917.8610654895891
 30
0.0
 10
-444.6883765904646
 20
920.1903376108594
 30
0.0
 10
-444.6883765904646
 20
923.0121722591347
 30
0.0
 10
-445.8383709952856
 20
925.7122658456992
 30
0.0
 10
-447.8730013251815
 20
927.6675297883526
 30
0.0
 10
-453.3788237386262
 20
932.9847332239802
 30
0.0
 10
-459.235206149543
 20
937.4404259379797
 30
0.0
 10
-465.8283868255216
 20
941.3284315115509
 30
0.0
 10
-469.1601602011551
 20
943.2924158521547
 30
0.0
 10
-472.4469966125503
 20
944.9781872004727
 30
0.0
 10
-475.9859924816212
 20
946.5381264361939
 30
0.0
 10
-479.218740893898
 20
947.9652141772664
 30
0.0
 10
-482.3703357756526
 20
949.1680046704003
 30
0.0
 10
-485.7318876953852
 20
950.2576022449957
 30
0.0
 10
-488.905100551308
 20
951.2883102186455
 30
0.0
 10
-491.9744868420433
 20
952.1340811602742
 30
0.0
 10
-495.2277551043055
 20
952.8742383934321
 30
0.0
 10
-498.5822230464487
 20
953.6393079733171
 30
0.0
 10
-501.8111172581511
 20
954.2316060146205
 30
0.0
 10
-505.2187257981524
 20
954.7069645960441
 30
0.0
 10
-508.5076723305316
 20
955.1677461171962
 30
0.0
 10
-511.6592026167455
 20
955.4888936119626
 30
0.0
 10
-514.9734706009446
 20
955.7010253664648
 30
0.0
 10
-518.1033183174461
 20
955.9038768950088
 30
0.0
 10
-521.0927783929236
 20
956.0006625462962
 30
0.0
 10
-524.2292148545431
 20
956.0006625462962
 30
0.0
 10
-524.591445112969
 20
956.0006625462962
 30
0.0
 10
-524.936643680591
 20
955.9993706354875
 30
0.0
 10
-525.2988739390206
 20
955.9966576227953
 30
0.0
 10
-527.420643652845
 20
955.9805302695558
 30
0.0
 10
-529.4425055975974
 20
955.9082263280584
 30
0.0
 10
-531.5600335376062
 20
955.7727479480989
 30
0.0
 10
-534.0893580473359
 20
955.6107853965993
 30
0.0
 10
-536.4948744380668
 20
955.3724924482535
 30
0.0
 10
-539.0068227474406
 20
955.0351099410141
 30
0.0
 10
-542.2656031624795
 20
954.5948267379991
 30
0.0
 10
-545.3516766344733
 20
954.0225533142068
 30
0.0
 10
-548.5516535759476
 20
953.2651706036189
 30
0.0
 10
-551.6286406085985
 20
952.5341859371899
 30
0.0
 10
-554.5261381664678
 20
951.685831173947
 30
0.0
 10
-557.5114856592111
 20
950.6419026463754
 30
0.0
 10
-560.3793123322112
 20
949.6361931468458
 30
0.0
 10
-563.0615560177966
 20
948.5293054992832
 30
0.0
 10
-565.8040027469817
 20
947.2198247053396
 30
0.0
 10
-568.472143072919
 20
945.9428785318836
 30
0.0
 10
-570.9462168638066
 20
944.5794819935962
 30
0.0
 10
-573.4508443452758
 20
943.0058054396265
 30
0.0
 10
-576.1766254250501
 20
941.2905139293691
 30
0.0
 10
-578.6646087889604
 20
939.477769280571
 30
0.0
 10
-581.132718258286
 20
937.4088171869042
 30
0.0
 10
-583.417828561804
 20
935.4891884506749
 30
0.0
 10
-585.4724835092071
 20
933.5104547950294
 30
0.0
 10
-587.4767324032919
 20
931.2991987259733
 30
0.0
 10
-589.6393480304648
 20
928.9088622872254
 30
0.0
 10
-591.5239659838227
 20
926.4678183493074
 30
0.0
 10
-593.2891467830792
 20
923.7706530939052
 30
0.0
 10
-595.6092463376206
 20
920.2203099415809
 30
0.0
 10
-597.458099893473
 20
916.5926028637645
 30
0.0
 10
-598.9674392892535
 20
912.6290635716772
 30
0.0
 10
-600.5196916556734
 20
908.5463885713448
 30
0.0
 10
-601.5694337818772
 20
904.4849870356284
 30
0.0
 10
-602.1899170106152
 20
900.1614998608733
 30
0.0
 10
-602.5824210456187
 20
897.4428242905366
 30
0.0
 10
-602.7845189595248
 20
894.8254775911589
 30
0.0
 10
-602.8140391214646
 20
892.0787675563095
 30
0.0
 10
-602.8176780035687
 20
891.7884967298292
 30
0.0
 10
-602.8194005513113
 20
891.5118340305156
 30
0.0
 10
-602.8194005513113
 20
891.2215201403462
 30
0.0
 10
-602.8194005513113
 20
888.8329708448814
 30
0.0
 10
-602.7023103685054
 20
886.5558488565168
 30
0.0
 10
-602.4573425476596
 20
884.1798956914217
 30
0.0
 10
-602.2920425599084
 20
882.5833092524753
 30
0.0
 10
-602.0754967768123
 20
881.067531834506
 30
0.0
 10
-601.7871207528489
 20
879.4885153825347
 30
0.0
 10
-601.4624420352121
 20
877.716875029245
 30
0.0
 10
-601.0737491370908
 20
876.0424724960282
 30
0.0
 10
-600.584739364804
 20
874.3089650433908
 30
0.0
 10
-599.9454373019749
 20
872.050317379565
 30
0.0
 10
-599.1924255562884
 20
869.9370958089128
 30
0.0
 10
-598.2593860396491
 20
867.7831144523013
 30
0.0
 10
-596.307696383559
 20
863.2936598025461
 30
0.0
 10
-593.8191316597888
 20
859.2749128553091
 30
0.0
 10
-590.6699052811847
 20
855.5269934769059
 30
0.0
 10
-589.1984404038935
 20
853.7724063462681
 30
0.0
 10
-587.6904144507664
 20
852.1873825090422
 30
0.0
 10
-586.0112318475592
 20
850.6304146681799
 30
0.0
 10
-584.3356665946153
 20
849.0740927827184
 30
0.0
 10
-582.6555365901517
 20
847.679216684433
 30
0.0
 10
-580.8175996806191
 20
846.3184900951446
 30
0.0
 10
-579.1430464244725
 20
845.0751551345181
 30
0.0
 10
-577.4944821073952
 20
843.9603222354913
 30
0.0
 10
-575.7169850917806
 20
842.8691958997751
 30
0.0
 10
-573.7967749956875
 20
841.6877434668016
 30
0.0
 10
-571.9214372682918
 20
840.6345993088054
 30
0.0
 10
-569.9131834507064
 20
839.6099202522584
 30
0.0
 10
-568.1614815875382
 20
838.7136140662301
 30
0.0
 10
-566.4672482234333
 20
837.907504786378
 30
0.0
 10
-564.6667982591488
 20
837.1136686591874
 30
0.0
 10
-563.0728817692019
 20
836.4096849286246
 30
0.0
 10
-561.5395774279508
 20
835.7709642256592
 30
0.0
 10
-559.9172604321021
 20
835.135193385701
 30
0.0
 10
-558.2574349591531
 20
834.4836612339028
 30
0.0
 10
-556.6642074883068
 20
833.8916000429145
 30
0.0
 10
-554.981708980696
 20
833.3011106767427
 30
0.0
 10
-552.8108681880548
 20
832.5377421127523
 30
0.0
 10
-550.7284802219955
 20
831.8484646335392
 30
0.0
 10
-548.5308968756474
 20
831.1658835586777
 30
0.0
 10
-546.070108234226
 20
830.3997373864508
 30
0.0
 10
-543.7145457280345
 20
829.702816101633
 30
0.0
 10
-541.2330219181609
 20
829.0067776225308
 30
0.0
 10
-539.7989578587331
 20
828.6027755813446
 30
0.0
 10
-538.4300706995171
 20
828.2257098804839
 30
0.0
 10
-536.9914203567248
 20
827.8383950205563
 30
0.0
 10
-534.9065992919779
 20
827.2757678641228
 30
0.0
 10
-532.9176164772615
 20
826.7475270670001
 30
0.0
 10
-530.8283813839278
 20
826.2016086236661
 30
0.0
 10
-528.9937819106436
 20
825.7192737238868
 30
0.0
 10
-527.2444270187744
 20
825.2634014637992
 30
0.0
 10
-525.407782020047
 20
824.7889902836355
 30
0.0
 10
-523.1307461590711
 20
824.2002234652064
 30
0.0
 10
-520.9640179491639
 20
823.6263566847492
 30
0.0
 10
-518.6940875976257
 20
823.0108042489238
 30
0.0
 10
-516.8741513120015
 20
822.5159378143125
 30
0.0
 10
-515.1444549962466
 20
822.0269065101813
 30
0.0
 10
-513.3348109333856
 20
821.4956081908148
 30
0.0
 10
-511.604920831008
 20
820.9863154188616
 30
0.0
 10
-509.9640433832284
 20
820.4745680163757
 30
0.0
 10
-508.2513141627364
 20
819.9102398440439
 30
0.0
 10
-506.808917278603
 20
819.4333955651924
 30
0.0
 10
-505.4434321511761
 20
818.9511037291053
 30
0.0
 10
-504.0215120533354
 20
818.4162741868652
 30
0.0
 10
-502.6928894476007
 20
817.915378835158
 30
0.0
 10
-501.4394991145262
 20
817.4037390919053
 30
0.0
 10
-500.1398799064083
 20
816.8317886458137
 30
0.0
 10
-498.9414603781715
 20
816.3035263168428
 30
0.0
 10
-497.8169596799411
 20
815.7596318671073
 30
0.0
 10
-496.6588262370337
 20
815.1481058866309
 30
0.0
 10
-495.7574385351627
 20
814.670421865753
 30
0.0
 10
-494.9154141348749
 20
814.1826609405823
 30
0.0
 10
-494.0526115024422
 20
813.6383789176054
 30
0.0
 10
-493.3373450841637
 20
813.1856933708435
 30
0.0
 10
-492.6731952701482
 20
812.7262252923449
 30
0.0
 10
-491.9973536633277
 20
812.2165449471502
 30
0.0
 10
-491.3956462049839
 20
811.7617708112492
 30
0.0
 10
-490.8426222522126
 20
811.3009677582525
 30
0.0
 10
-490.2867560956676
 20
810.7912012856688
 30
0.0
 10
-489.7724248715678
 20
810.317263806132
 30
0.0
 10
-489.3062388568728
 20
809.839192212013
 30
0.0
 10
-488.8453712083316
 20
809.3131261314152
 30
0.0
 10
-488.3102402202391
 20
808.6990378611696
 30
0.0
 10
-487.84588441252
 20
808.073171670733
 30
0.0
 10
-487.4133526743469
 20
807.3829683221111
 30
0.0
 10
-486.5219557493865
 20
805.9491411129982
 30
0.0
 10
-485.9224660712604
 20
804.4197986315555
 30
0.0
 10
-485.6020506592842
 20
802.762147875131
 30
0.0
 10
-485.444674391149
 20
801.9647589932255
 30
0.0
 10
-485.3489007366589
 20
801.1935743688523
 30
0.0
 10
-485.3064829984978
 20
800.3819098725275
 30
0.0
 10
-485.2854679160378
 20
800.0097534327313
 30
0.0
 10
-485.2754340754376
 20
799.654477960817
 30
0.0
 10
-485.2754340754376
 20
799.2817401611574
 30
0.0
 10
-485.2754340754376
 20
797.4857472891592
 30
0.0
 10
-485.5103034601429
 20
795.7700466738087
 30
0.0
 10
-485.9929613376264
 20
794.0401135077385
 30
0.0
 10
-486.6360314736409
 20
791.7479838221685
 30
0.0
 10
-487.6576745397918
 20
789.6689117605128
 30
0.0
 10
-489.0792716599356
 20
787.7593383967315
 30
0.0
 10
-489.7804131867245
 20
786.8149300649912
 30
0.0
 10
-490.5247691300058
 20
785.9701065246228
 30
0.0
 10
-491.3733607435634
 20
785.1556213563688
 30
0.0
 10
-492.1657111733228
 20
784.3928341522414
 30
0.0
 10
-492.9722941538085
 20
783.7182844562296
 30
0.0
 10
-493.8631958462941
 20
783.0733195176946
 30
0.0
 10
-494.8433685755406
 20
782.3604000707184
 30
0.0
 10
-495.82332598632
 20
781.7428236412912
 30
0.0
 10
-496.8894107842305
 20
781.166222316294
 30
0.0
 10
-498.0930410193877
 20
780.5120417473415
 30
0.0
 10
-499.2796395637414
 20
779.9599221321337
 30
0.0
 10
-500.5552722945439
 20
779.4605124778541
 30
0.0
 10
-501.9123600017248
 20
778.9257905948504
 30
0.0
 10
-503.2338555661737
 20
778.4862610064736
 30
0.0
 10
-504.6408325623497
 20
778.1015945636974
 30
0.0
 10
-506.1550166236545
 20
777.6844365641262
 30
0.0
 10
-507.6174165934505
 20
777.3554514771328
 30
0.0
 10
-509.1643721255609
 20
777.0839564210472
 30
0.0
 10
-510.8982025559019
 20
776.7763955216032
 30
0.0
 10
-512.563733968246
 20
776.5549404774425
 30
0.0
 10
-514.3177182071719
 20
776.3987699927274
 30
0.0
 10
-516.0793677835544
 20
776.2386591800486
 30
0.0
 10
-517.7638902847633
 20
776.145060242083
 30
0.0
 10
-519.5324515839613
 20
776.1090374624179
 30
0.0
 10
-520.140209491252
 20
776.0953647397102
 30
0.0
 10
-520.7195668926374
 20
776.0888405901328
 30
0.0
 10
-521.3274970547058
 20
776.0888405901328
 30
0.0
 10
-524.15073127302
 20
776.0888405901328
 30
0.0
 10
-526.8423413119531
 20
776.2296588680939
 30
0.0
 10
-529.6501587279724
 20
776.5243006594682
 30
0.0
 10
-534.4456670478995
 20
777.0308158231888
 30
0.0
 10
-538.9756015696065
 20
777.9475126681214
 30
0.0
 10
-543.5907160771878
 20
779.3453816931059
 30
0.0
 10
-548.488694455953
 20
780.8310575892756
 30
0.0
 10
-553.0201577387838
 20
782.719314424741
 30
0.0
 10
-557.5238018755692
 20
785.1512719233192
 30
0.0
 10
-561.704231460301
 20
787.405914663641
 30
0.0
 10
-565.4986811595998
 20
789.9165495303616
 30
0.0
 10
-569.2084461055056
 20
792.8825183610023
 30
0.0
 10
-571.8895916669013
 20
795.0239897146336
 30
0.0
 10
-574.3159293534667
 20
797.22906614366
 30
0.0
 10
-576.7032298018185
 20
799.693902772275
 30
0.0
 10
-578.6478354803159
 20
801.6734977017922
 30
0.0
 10
-581.3040256312881
 20
802.7876415817219
 30
0.0
 10
-584.0789854491162
 20
802.7876415817219
 30
0.0
 10
-584.7809451860838
 20
802.7876415817219
 30
0.0
 10
-585.4508440031906
 20
802.7202469012927
 30
0.0
 10
-586.1387649760543
 20
802.5803975564397
 30
0.0
 10
-588.6234324355573
 20
802.0775643385192
 30
0.0
 10
-590.8233627532045
 20
800.6935618228609
 30
0.0
 10
-592.3521884703249
 20
798.6713984322529
 30
0.0
 10
-592.3521884703249
 20
798.6713984322529
 30
0.0
 10
-592.4194324278279
 20
798.5818474814843
 30
0.0
 10
-592.4194324278279
 20
798.5818474814843
 30
0.0
 10
-592.4194324278279
 20
798.5818474814843
 30
0.0
 10
-606.2864154565851
 20
779.8502173727765
 30
0.0
 10
-606.2864154565851
 20
779.8502173727765
 30
0.0
 10
-607.6144567024563
 20
778.0552795612687
 30
0.0
 10
-608.3209165953994
 20
775.9127100834509
 30
0.0
 10
-608.3209165953994
 20
773.6798791039199
 30
0.0
 10
-608.3209165953994
 20
771.0077984500194
 30
0.0
 10
-607.2948810325068
 20
768.4477049312373
 30
0.0
 10
-605.4494725721398
 20
766.5152432143274
 30
0.0
 10
-599.4826533190726
 20
760.2464828738257
 30
0.0
 10
-593.0032684533444
 20
755.0020786121709
 30
0.0
 10
-585.6288262486964
 20
750.4724024726235
 30
0.0
 10
-581.9061206628764
 20
748.183567159609
 30
0.0
 10
-578.2185550510057
 20
746.2253102902556
 30
0.0
 10
-574.2374457719436
 20
744.4230731826845
 30
0.0
 10
-570.7566935484215
 20
742.8453486415218
 30
0.0
 10
-567.359463358572
 20
741.5149819561996
 30
0.0
 10
-563.7329405323277
 20
740.30947845037
 30
0.0
 10
-560.2050550962018
 20
739.1347870172886
 30
0.0
 10
-556.7885108397834
 20
738.1752202654097
 30
0.0
 10
-553.164916344705
 20
737.3413564350531
 30
0.0
 10
-549.8849270605874
 20
736.5846627435663
 30
0.0
 10
-546.7294995101029
 20
735.988510501688
 30
0.0
 10
-543.3995348096045
 20
735.4964001434682
 30
0.0
 10
-540.1930983140937
 20
735.0210200301967
 30
0.0
 10
-537.1206545011143
 20
734.6768549912202
 30
0.0
 10
-533.8885089805459
 20
734.4309613009624
 30
0.0
 10
-530.9895472570969
 20
734.2088172377041
 30
0.0
 10
-528.2202503149713
 20
734.078506500973
 30
0.0
 10
-525.313235680825
 20
734.0274329604057
 30
0.0
 10
-524.3764280909967
 20
734.0102290148244
 30
0.0
 10
-523.4834808730681
 20
734.0020253812005
 30
0.0
 10
-522.5465010284653
 20
734.0020253812005
 30
0.0
  0
SPLINE
  5
8C
330
70
100
AcDbEntity
  8
top
 62
   253
370
    18
100
AcDbSpline
210
0.0
220
0.0
230
1.0
 70
     9
 71
     3
 72
   242
 73
   238
 74
     0
 42
0.0000000001
 43
0.0000000001
 40
0.0
 40
0.0
 40
0.0
 40
0.0
 40
1.0
 40
1.0
 40
1.0
 40
2.0
 40
2.0
 40
2.0
 40
3.0
 40
3.0
 40
3.0
 40
4.0
 40
4.0
 40
4.0
 40
5.0
 40
5.0
 40
5.0
 40
6.0
 40
6.0
 40
6.0
 40
7.0
 40
7.0
 40
7.0
 40
8.0
 40
8.0
 40
8.0
 40
9.0
 40
9.0
 40
9.0
 40
10.0
 40
10.0
 40
10.0
 40
11.0
 40
11.0
 40
11.0
 40
12.0
 40
12.0
 40
12.0
 40
13.0
 40
13.0
 40
13.0
 40
14.0
 40
14.0
 40
14.0
 40
15.0
 40
15.0
 40
15.0
 40
16.0
 40
16.0
 40
16.0
 40
17.0
 40
17.0
 40
17.0
 40
18.0
 40
18.0
 40
18.0
 40
19.0
 40
19.0
 40
19.0
 40
20.0
 40
20.0
 40
20.0
 40
21.0
 40
21.0
 40
21.0
 40
22.0
 40
22.0
 40
22.0
 40
23.0
 40
23.0
 40
23.0
 40
24.0
 40
24.0
 40
24.0
 40
25.0
 40
25.0
 40
25.0
 40
26.0
 40
26.0
 40
26.0
 40
27.0
 40
27.0
 40
27.0
 40
28.0
 40
28.0
 40
28.0
 40
29.0
 40
29.0
 40
29.0
 40
30.0
 40
30.0
 40
30.0
 40
31.0
 40
31.0
 40
31.0
 40
32.0
 40
32.0
 40
32.0
 40
33.0
 40
33.0
 40
33.0
 40
34.0
 40
34.0
 40
34.0
 40
35.0
 40
35.0
 40
35.0
 40
36.0
 40
36.0
 40
36.0
 40
37.0
 40
37.0
 40
37.0
 40
38.0
 40
38.0
 40
38.0
 40
39.0
 40
39.0
 40
39.0
 40
40.0
 40
40.0
 40
40.0
 40
41.0
 40
41.0
 40
41.0
 40
42.0
 40
42.0
 40
42.0
 40
43.0
 40
43.0
 40
43.0
 40
44.0
 40
44.0
 40
44.0
 40
45.0
 40
45.0
 40
45.0
 40
46.0
 40
46.0
 40
46.0
 40
47.0
 40
47.0
 40
47.0
 40
48.0
 40
48.0
 40
48.0
 40
49.0
 40
49.0
 40
49.0
 40
50.0
 40
50.0
 40
50.0
 40
51.0
 40
51.0
 40
51.0
 40
52.0
 40
52.0
 40
52.0
 40
53.0
 40
53.0
 40
53.0
 40
54.0
 40
54.0
 40
54.0
 40
55.0
 40
55.0
 40
55.0
 40
56.0
 40
56.0
 40
56.0
 40
57.0
 40
57.0
 40
57.0
 40
58.0
 40
58.0
 40
58.0
 40
59.0
 40
59.0
 40
59.0
 40
60.0
 40
60.0
 40
60.0
 40
61.0
 40
61.0
 40
61.0
 40
62.0
 40
62.0
 40
62.0
 40
63.0
 40
63.0
 40
63.0
 40
64.0
 40
64.0
 40
64.0
 40
65.0
 40
65.0
 40
65.0
 40
66.0
 40
66.0
 40
66.0
 40
67.0
 40
67.0
 40
67.0
 40
68.0
 40
68.0
 40
68.0
 40
69.0
 40
69.0
 40
69.0
 40
70.0
 40
70.0
 40
70.0
 40
71.0
 40
71.0
 40
71.0
 40
72.0
 40
72.0
 40
72.0
 40
73.0
 40
73.0
 40
73.0
 40
74.0
 40
74.0
 40
74.0
 40
75.0
 40
75.0
 40
75.0
 40
76.0
 40
76.0
 40
76.0
 40
77.0
 40
77.0
 40
77.0
 40
78.0
 40
78.0
 40
78.0
 40
79.0
 40
79.0
 40
79.0
 40
79.0
 10
-489.8030862213865
 20
746.148807638635
 30
0.0
 10
-484.6557475250267
 20
747.7092205749865
 30
0.0
 10
-479.9063173572097
 20
749.7395660673702
 30
0.0
 10
-475.2216334526779
 20
752.3822342185646
 30
0.0
 10
-470.2088257350167
 20
755.209473360383
 30
0.0
 10
-465.8208291473023
 20
758.6249194926116
 30
0.0
 10
-461.8496675814549
 20
762.7904275075199
 30
0.0
 10
-456.1249739454594
 20
768.8506303800854
 30
0.0
 10
-452.0117667863864
 20
775.9547187165229
 30
0.0
 10
-449.6061642682697
 20
783.9366604462983
 30
0.0
 10
-447.8494670166482
 20
789.7752360199254
 30
0.0
 10
-446.9919612185215
 20
795.6016245682761
 30
0.0
 10
-446.9919612185215
 20
801.6987330262232
 30
0.0
 10
-446.9919612185215
 20
801.7672473626873
 30
0.0
 10
-446.9920473459105
 20
801.8325319221329
 30
0.0
 10
-446.9922841962254
 20
801.9010247267484
 30
0.0
 10
-446.9912937312725
 20
802.0427688741182
 30
0.0
 10
-446.9908200306423
 20
802.1778596808328
 30
0.0
 10
-446.9908200306423
 20
802.3196253600508
 30
0.0
 10
-446.9908200306423
 20
806.597744933634
 30
0.0
 10
-447.420574160583
 20
810.6808721027521
 30
0.0
 10
-448.3112174709053
 20
814.865263547292
 30
0.0
 10
-449.4066071122885
 20
820.0107074411315
 30
0.0
 10
-451.2847439797651
 20
824.7543024784684
 30
0.0
 10
-454.0085441296372
 20
829.255018284091
 30
0.0
 10
-456.5906216639874
 20
833.4514675628259
 30
0.0
 10
-459.6735299545003
 20
837.0839547106291
 30
0.0
 10
-463.3943407378073
 20
840.3139470465173
 30
0.0
 10
-466.7183626485951
 20
843.1980087319942
 30
0.0
 10
-470.1670539522599
 20
845.6315165235414
 30
0.0
 10
-473.9984307687915
 20
847.7965221857058
 30
0.0
 10
-477.6880849698015
 20
849.8924967470836
 30
0.0
 10
-481.3365487479112
 20
851.662048511238
 30
0.0
 10
-485.2668428685693
 20
853.261843195354
 30
0.0
 10
-490.0752272328732
 20
855.2201000647075
 30
0.0
 10
-494.74511875867
 20
856.8755330409107
 30
0.0
 10
-499.7133124897969
 20
858.3829991660229
 30
0.0
 10
-504.5179503127599
 20
859.8497055051749
 30
0.0
 10
-509.1243659542394
 20
861.1580666430842
 30
0.0
 10
-513.9826611393868
 20
862.4359171541041
 30
0.0
 10
-516.704566486742
 20
863.1673755211634
 30
0.0
 10
-519.304127880678
 20
863.8438630833849
 30
0.0
 10
-522.0372943839009
 20
864.5319993747191
 30
0.0
 10
-526.4800895216791
 20
865.6465738915827
 30
0.0
 10
-530.6902761186623
 20
866.8049011211127
 30
0.0
 10
-535.0779281968284
 20
868.1197864085993
 30
0.0
 10
-538.7521010000025
 20
869.2133243111578
 30
0.0
 10
-542.2013090679866
 20
870.4358379759437
 30
0.0
 10
-545.7440514783951
 20
871.9001973437972
 30
0.0
 10
-548.4598417812657
 20
873.0201117586629
 30
0.0
 10
-550.9623591417512
 20
874.3020317887243
 30
0.0
 10
-553.4580078431142
 20
875.8517003335306
 30
0.0
 10
-555.3244744496338
 20
877.0084126745514
 30
0.0
 10
-556.982921884385
 20
878.3114554463061
 30
0.0
 10
-558.5484378684232
 20
879.8512193415906
 30
0.0
 10
-560.3702689565643
 20
881.628027338108
 30
0.0
 10
-561.7789900323311
 20
883.6722178079771
 30
0.0
 10
-562.790814576349
 20
886.0072389323391
 30
0.0
 10
-563.7548599523551
 20
888.3252283658967
 30
0.0
 10
-564.2346540942171
 20
890.7283116579364
 30
0.0
 10
-564.2346540942171
 20
893.238774269886
 30
0.0
 10
-564.2346540942171
 20
893.3492326438809
 30
0.0
 10
-564.2337497566529
 20
893.4544803109554
 30
0.0
 10
-564.2318334222879
 20
893.5649171531061
 30
0.0
 10
-564.2318980178289
 20
893.5861906177255
 30
0.0
 10
-564.2319195496735
 20
893.6064951492436
 30
0.0
 10
-564.2319195496735
 20
893.6277901457119
 30
0.0
 10
-564.2319195496735
 20
897.6285149371916
 30
0.0
 10
-563.2935616668802
 20
901.4632291899749
 30
0.0
 10
-561.4461938084559
 20
905.0119143900973
 30
0.0
 10
-559.7673772466456
 20
908.1637676540116
 30
0.0
 10
-557.5392617415602
 20
910.8507483458875
 30
0.0
 10
-554.7526101309268
 20
913.0839453668119
 30
0.0
 10
-552.0215752805393
 20
915.2718178502604
 30
0.0
 10
-549.0927704174471
 20
916.9651684086499
 30
0.0
 10
-545.8340545979492
 20
918.240348970667
 30
0.0
 10
-542.1000663244131
 20
919.7050313162209
 30
0.0
 10
-538.356819356763
 20
920.6517220237195
 30
0.0
 10
-534.3754732273859
 20
921.1382986973182
 30
0.0
 10
-531.7542723274336
 20
921.4647860900866
 30
0.0
 10
-529.23560608186
 20
921.6210211703426
 30
0.0
 10
-526.5941437140854
 20
921.6210211703426
 30
0.0
 10
-525.9198524002369
 20
921.6210211703426
 30
0.0
 10
-525.2772344330042
 20
921.6108581386611
 30
0.0
 10
-524.6032660968556
 20
921.5895416103451
 30
0.0
 10
-516.9752863963417
 20
921.4463548292405
 30
0.0
 10
-509.7078144065145
 20
920.3738750728341
 30
0.0
 10
-502.3636459784444
 20
918.3075498644774
 30
0.0
 10
-494.7003971129028
 20
916.151609109808
 30
0.0
 10
-487.6994678543969
 20
912.9374426813033
 30
0.0
 10
-481.069360061189
 20
908.5311870875136
 30
0.0
 10
-477.3451041824004
 20
906.0367657014184
 30
0.0
 10
-474.0107469851532
 20
903.3299326468128
 30
0.0
 10
-470.8041382348679
 20
900.1978671500907
 30
0.0
 10
-470.3253991534999
 20
899.8023055928431
 30
0.0
 10
-469.7296775485595
 20
899.5880421855087
 30
0.0
 10
-469.1086775554948
 20
899.5880421855087
 30
0.0
 10
-468.2916085656271
 20
899.5880421855087
 30
0.0
 10
-467.5137706005983
 20
899.9675194532089
 30
0.0
 10
-467.0108512552928
 20
900.6114723949432
 30
0.0
 10
-467.0108512552928
 20
900.6114723949432
 30
0.0
 10
-452.9572732423132
 20
918.5427637587309
 30
0.0
 10
-452.9572732423132
 20
918.5427637587309
 30
0.0
 10
-452.5874637738197
 20
919.016765833809
 30
0.0
 10
-452.3890478057139
 20
919.593582477273
 30
0.0
 10
-452.3890478057139
 20
920.1947731712973
 30
0.0
 10
-452.3890478057139
 20
920.9948320022055
 30
0.0
 10
-452.7487588380704
 20
921.7577268655661
 30
0.0
 10
-453.3660122897936
 20
922.2667397235118
 30
0.0
 10
-461.9180742586813
 20
930.4830986692103
 30
0.0
 10
-471.6767378575891
 20
936.7115513925345
 30
0.0
 10
-482.7303482538613
 20
941.008511332053
 30
0.0
 10
-489.7354116269459
 20
943.7282850265761
 30
0.0
 10
-496.7027942681633
 20
945.6003714451089
 30
0.0
 10
-504.1276640579737
 20
946.7578158689196
 30
0.0
 10
-510.817135152765
 20
947.801507546176
 30
0.0
 10
-517.2747082577028
 20
948.302230643109
 30
0.0
 10
-524.045117564549
 20
948.302230643109
 30
0.0
 10
-524.9224972572569
 20
948.302230643109
 30
0.0
 10
-525.7586434633716
 20
948.2938332228663
 30
0.0
 10
-526.6358293694569
 20
948.2762417040433
 30
0.0
 10
-533.676571012662
 20
948.1535963047686
 30
0.0
 10
-540.3843011135251
 20
947.3021624874371
 30
0.0
 10
-547.232397323564
 20
945.6618879313687
 30
0.0
 10
-553.3468819818669
 20
944.1986482195497
 30
0.0
 10
-559.0158296665383
 20
942.093608750673
 30
0.0
 10
-564.6034515659131
 20
939.2115279951022
 30
0.0
 10
-569.8753089322167
 20
936.4939290170999
 30
0.0
 10
-574.5454373083249
 20
933.1861851824783
 30
0.0
 10
-578.8585461329319
 20
929.1149866564804
 30
0.0
 10
-583.6383792684007
 20
924.6023637395849
 30
0.0
 10
-587.4057634362957
 20
919.430737120054
 30
0.0
 10
-590.2354572086466
 20
913.4974860161236
 30
0.0
 10
-593.2866060251582
 20
907.0110171728021
 30
0.0
 10
-594.9054563936771
 20
900.1871873540865
 30
0.0
 10
-595.0931279702341
 20
893.0213887447669
 30
0.0
 10
-595.1136262883713
 20
892.3868452200764
 30
0.0
 10
-595.1234017468117
 20
891.7817787936328
 30
0.0
 10
-595.1234017468117
 20
891.1468907593944
 30
0.0
 10
-595.1234017468117
 20
887.2966951087754
 30
0.0
 10
-594.762334208113
 20
883.6226514966826
 30
0.0
 10
-594.0128321534488
 20
879.8460947620588
 30
0.0
 10
-593.0572272613812
 20
875.0468614326353
 30
0.0
 10
-591.3824802186122
 20
870.6094923202483
 30
0.0
 10
-588.9288186184765
 20
866.3756422236504
 30
0.0
 10
-586.5042034796539
 20
862.264071484931
 30
0.0
 10
-583.5599602824187
 20
858.7029193455208
 30
0.0
 10
-579.9774270191519
 20
855.5486760466148
 30
0.0
 10
-576.8064104116018
 20
852.7584501494187
 30
0.0
 10
-573.5052553220947
 20
850.4078830316769
 30
0.0
 10
-569.8312332418501
 20
848.3240739637309
 30
0.0
 10
-566.3083647260223
 20
846.3143775124105
 30
0.0
 10
-562.8221434134167
 20
844.6203594667725
 30
0.0
 10
-559.0650945319774
 20
843.0925672782976
 30
0.0
 10
-554.3841787006275
 20
841.18893670423
 30
0.0
 10
-549.8359851728487
 20
839.5852878195389
 30
0.0
 10
-544.9962719714736
 20
838.1320173527823
 30
0.0
 10
-540.2850392998573
 20
836.7084393027367
 30
0.0
 10
-535.7676578448234
 20
835.4421298615921
 30
0.0
 10
-531.0029400657932
 20
834.2093885695808
 30
0.0
 10
-526.6815630120255
 20
833.0876654795835
 30
0.0
 10
-522.5658796905718
 20
832.0087046372993
 30
0.0
 10
-518.2499932577321
 20
830.8660956559201
 30
0.0
 10
-514.3468723277184
 20
829.8424285961742
 30
0.0
 10
-510.6526749070369
 20
828.7682478238734
 30
0.0
 10
-506.8092402563035
 20
827.5394253279777
 30
0.0
 10
-503.2237571300297
 20
826.406333422879
 30
0.0
 10
-499.8659948153309
 20
825.133887405402
 30
0.0
 10
-496.4300503649651
 20
823.6061813443123
 30
0.0
 10
-493.6782803461217
 20
822.3851318451064
 30
0.0
 10
-491.1561044095223
 20
820.987887243678
 30
0.0
 10
-488.661553832349
 20
819.3025034686009
 30
0.0
 10
-486.6499410466636
 20
817.9445975512416
 30
0.0
 10
-484.886245944838
 20
816.4153411971872
 30
0.0
 10
-483.2570387580153
 20
814.6164199940237
 30
0.0
 10
-480.1520387927003
 20
811.1995958235972
 30
0.0
 10
-478.2424008333782
 20
806.9486494406547
 30
0.0
 10
-477.7502689433102
 20
802.3580812384077
 30
0.0
 10
-477.630358088579
 20
801.3160259815048
 30
0.0
 10
-477.5729972487495
 20
800.3159147621367
 30
0.0
 10
-477.5729972487495
 20
799.2669693142674
 30
0.0
 10
-477.5729972487495
 20
792.2722842913307
 30
0.0
 10
-480.2714759468051
 20
785.5713151903566
 30
0.0
 10
-485.1189190811705
 20
780.528685864904
 30
0.0
 10
-487.2688309187406
 20
778.2970606687923
 30
0.0
 10
-489.6246733389432
 20
776.4556356000782
 30
0.0
 10
-492.3094147187503
 20
774.9082278991857
 30
0.0
 10
-495.4340517283313
 20
773.1207831703564
 30
0.0
 10
-498.6301960010792
 20
771.785119650725
 30
0.0
 10
-502.0975554159015
 20
770.8177583703149
 30
0.0
 10
-506.0649489085633
 20
769.7072318406447
 30
0.0
 10
-509.9537726923133
 20
769.0157365812143
 30
0.0
 10
-514.0608002113613
 20
768.6905195674068
 30
0.0
 10
-516.5048370759827
 20
768.4849765580191
 30
0.0
 10
-518.8428080633549
 20
768.386834400382
 30
0.0
 10
-521.295457666693
 20
768.386834400382
 30
0.0
 10
-527.3906282584306
 20
768.386834400382
 30
0.0
 10
-533.2078873037419
 20
768.9957119637073
 30
0.0
 10
-539.1709600154682
 20
770.2577796310356
 30
0.0
 10
-551.10466311714
 20
772.835012499855
 30
0.0
 10
-561.9948037326339
 20
777.8036153360712
 30
0.0
 10
-571.7627475575034
 20
785.1277160829383
 30
0.0
 10
-575.5858346130259
 20
787.984410791152
 30
0.0
 10
-579.0144582354875
 20
791.0010440572734
 30
0.0
 10
-582.3346259457006
 20
794.4293447020311
 30
0.0
 10
-582.82094423714
 20
794.8538235295065
 30
0.0
 10
-583.4399417684503
 20
795.0859583696716
 30
0.0
 10
-584.0854234713045
 20
795.0859583696716
 30
0.0
 10
-584.928115358845
 20
795.0859583696716
 30
0.0
 10
-585.7287770814651
 20
794.6814395641658
 30
0.0
 10
-586.228725031912
 20
794.0030787312721
 30
0.0
 10
-586.228725031912
 20
794.0030787312721
 30
0.0
 10
-600.2095899983084
 20
775.1041892367557
 30
0.0
 10
-600.2095899983084
 20
775.1041892367557
 30
0.0
 10
-600.4804390989896
 20
774.6731216641657
 30
0.0
 10
-600.6211497177141
 20
774.1847363154351
 30
0.0
 10
-600.6211497177141
 20
773.675637330104
 30
0.0
 10
-600.6211497177141
 20
772.9214628646905
 30
0.0
 10
-600.3030382133439
 20
772.2005766344019
 30
0.0
 10
-599.7459662733789
 20
771.692231263705
 30
0.0
 10
-591.9316069071165
 20
763.5275272184371
 30
0.0
 10
-583.0161734919165
 20
757.0932731035622
 30
0.0
 10
-572.8052980468807
 20
752.2492320009892
 30
0.0
 10
-565.4214033614967
 20
748.7486704784268
 30
0.0
 10
-557.9821933617298
 20
746.2286046628114
 30
0.0
 10
-549.9909929378369
 20
744.5207631715395
 30
0.0
 10
-542.3310599766991
 20
742.881543675965
 30
0.0
 10
-534.8790385280958
 20
741.9889840312777
 30
0.0
 10
-527.0486594678235
 20
741.7728473532706
 30
0.0
 10
-525.5043092891746
 20
741.7205249655877
 30
0.0
 10
-524.031638628464
 20
741.6955695551678
 30
0.0
 10
-522.4864056440958
 20
741.6955695551678
 30
0.0
 10
-517.0857447703368
 20
741.6955695551678
 30
0.0
 10
-511.936382080382
 20
742.000761951468
 30
0.0
 10
-506.5735526614197
 20
742.6386859760995
 30
0.0
 10
-500.8058599274033
 20
743.3229895987068
 30
0.0
 10
-495.3610802995846
 20
744.4626056533794
 30
0.0
 10
-489.8030862213865
 20
746.148807638635
 30
0.0
  0
SPLINE
  5
8E
330
70
100
AcDbEntity
  8
切り欠き
 62
     7
370
    35
100
AcDbSpline
210
0.0
220
0.0
230
1.0
 70
     8
 71
     3
 72
    26
 73
    22
 74
     0
 42
0.0000000001
 43
0.0000000001
 40
0.0
 40
0.0
 40
0.0
 40
0.0
 40
1.0
 40
1.0
 40
1.0
 40
2.0
 40
2.0
 40
2.0
 40
3.0
 40
3.0
 40
3.0
 40
4.0
 40
4.0
 40
4.0
 40
5.0
 40
5.0
 40
5.0
 40
6.0
 40
6.0
 40
6.0
 40
7.0
 40
7.0
 40
7.0
 40
7.0
 10
-545.293968151208
 20
889.4460858492129
 30
0.0
 10
-545.293968151208
 20
889.4460858492129
 30
0.0
 10
-554.7262493492494
 20
889.9404107655259
 30
0.0
 10
-554.7262493492494
 20
889.9404107655259
 30
0.0
 10
-555.7059587855929
 20
889.9917551608275
 30
0.0
 10
-556.4794278297612
 20
890.80682146739
 30
0.0
 10
-556.4794278297612
 20
891.7878754036021
 30
0.0
 10
-556.4794278297612
 20
891.8206770814535
 30
0.0
 10
-556.4786091762327
 20
891.8519401988611
 30
0.0
 10
-556.4768924690963
 20
891.8846969226422
 30
0.0
 10
-556.4768924690963
 20
891.8846969226422
 30
0.0
 10
-556.2675486441378
 20
895.8792150614048
 30
0.0
 10
-556.2675486441378
 20
895.8792150614048
 30
0.0
 10
-556.2162042486565
 20
896.8589244973358
 30
0.0
 10
-555.4011379419143
 20
897.6323935417154
 30
0.0
 10
-554.4200840056848
 20
897.6323935419202
 30
0.0
 10
-554.3872823280874
 20
897.6323935419237
 30
0.0
 10
-554.3560192106832
 20
897.6315748883916
 30
0.0
 10
-554.3232624866446
 20
897.6298581812342
 30
0.0
 10
-554.3232624866446
 20
897.6298581812342
 30
0.0
 10
-547.592656926832
 20
897.2771220906141
 30
0.0
 10
-547.592656926832
 20
897.2771220906141
 30
0.0
  0
SPLINE
  5
8F
330
70
100
AcDbEntity
  8
切り欠き
 62
     7
370
    35
100
AcDbSpline
210
0.0
220
0.0
230
1.0
 70
     8
 71
     3
 72
    20
 73
    16
 74
     0
 42
0.0000000001
 43
0.0000000001
 40
0.0
 40
0.0
 40
0.0
 40
0.0
 40
1.0
 40
1.0
 40
1.0
 40
2.0
 40
2.0
 40
2.0
 40
3.0
 40
3.0
 40
3.0
 40
4.0
 40
4.0
 40
4.0
 40
5.0
 40
5.0
 40
5.0
 40
5.0
 10
-527.6561748282565
 20
725.9330646211277
 30
0.0
 10
-527.6561748282565
 20
725.9330646211277
 30
0.0
 10
-527.6561749222573
 20
732.0020224137007
 30
0.0
 10
-527.6561749222573
 20
732.0020224137007
 30
0.0
 10
-527.6561749222573
 20
733.0237348634652
 30
0.0
 10
-526.8278873724419
 20
733.8520224130303
 30
0.0
 10
-525.8061749230972
 20
733.8520224132389
 30
0.0
 10
-525.8061749230972
 20
733.8520224132389
 30
0.0
 10
-521.8061749237182
 20
733.8520224132389
 30
0.0
 10
-521.8061749237182
 20
733.8520224132389
 30
0.0
 10
-520.7844624737631
 20
733.8520224134502
 30
0.0
 10
-519.9561749241803
 20
733.0237348636558
 30
0.0
 10
-519.9561749241803
 20
732.0020224137007
 30
0.0
 10
-519.9561749241803
 20
732.0020224137007
 30
0.0
 10
-519.9561749241803
 20
725.8731504099735
 30
0.0
 10
-519.9561749241803
 20
725.8731504099735
 30
0.0
  0
LINE
  5
91
330
70
100
AcDbEntity
  8
中心線
  6
AI-Linetype-1
 62
     7
370
    25
100
AcDbLine
 10
-733.8061815034361
 20
845.0010587018164
 30
0.0
 11
-313.8061816084367
 21
845.0010587018164
 31
0.0
  0
LINE
  5
94
330
70
100
AcDbEntity
  8
H200ガイド
  6
AI-Linetype-2
 62
     7
370
    25
100
AcDbLine
 10
-523.8061815559367
 20
993.50105866469
 30
0.0
 11
-523.8061815559367
 21
696.5010587389392
 31
0.0
  0
LINE
  5
96
330
70
100
AcDbEntity
  8
H200ガイド
  6
AI-Linetype-3
 62
     7
370
    25
100
AcDbLine
 10
-733.8061815034361
 20
945.0010586768186
 30
0.0
 11
-313.8061816084367
 21
945.0010586768186
 31
0.0
  0
LINE
  5
98
330
70
100
AcDbEntity
  8
H200ガイド
  6
AI-Linetype-4
 62
     7
370
    25
100
AcDbLine
 10
-733.8061815034361
 20
745.0010587268179
 30
0.0
 11
-313.8061816084367
 21
745.0010587268179
 31
0.0
  0
LINE
  5
9C
330
70
100
AcDbEntity
  8
電源穴
 62
   251
370
   100
100
AcDbLine
 10
-564.6444240872615
 20
860.0013438082369
 30
0.0
 11
-554.6444240897629
 21
860.0013438082369
 31
0.0
  0
LINE
  5
9D
330
70
100
AcDbEntity
  8
電源穴
 62
   251
370
   100
100
AcDbLine
 10
-559.6444240885104
 20
855.0013438094858
 30
0.0
 11
-559.6444240885104
 21
865.0013438069844
 31
0.0
  0
CIRCLE
  5
9E
330
70
100
AcDbEntity
  8
電源穴
 62
   251
370
   100
100
AcDbCircle
 10
-559.6444240881021
 20
860.0013438078258
 30
0.0
 40
3.999999999409537
  0
LINE
  5
A0
330
70
100
AcDbEntity
  8
アンカー
 62
   251
370
    53
100
AcDbLine
 10
-473.5920169824506
 20
920.2926042115699
 30
0.0
 11
-463.5920169849519
 21
920.2926042115699
 31
0.0
  0
LINE
  5
A1
330
70
100
AcDbEntity
  8
アンカー
 62
   251
370
    53
100
AcDbLine
 10
-468.5920169836996
 20
915.2926042128186
 30
0.0
 11
-468.5920169836996
 21
925.2926042103174
 31
0.0
  0
LINE
  5
A2
330
70
100
AcDbEntity
  8
アンカー
 62
   251
370
    53
100
AcDbLine
 10
-582.2254253080455
 20
771.697750166161
 30
0.0
 11
-572.2254253105468
 21
771.697750166161
 31
0.0
  0
LINE
  5
A3
330
70
100
AcDbEntity
  8
アンカー
 62
   251
370
    53
100
AcDbLine
 10
-577.2254253092945
 20
766.6977501674133
 30
0.0
 11
-577.2254253092945
 21
776.6977501649123
 31
0.0
  0
LINE
  5
A4
330
70
100
AcDbEntity
  8
アンカー
 62
   251
370
    53
100
AcDbLine
 10
-476.3597471308752
 20
771.697750166161
 30
0.0
 11
-466.3597471333726
 21
771.697750166161
 31
0.0
  0
LINE
  5
A5
330
70
100
AcDbEntity
  8
アンカー
 62
   251
370
    53
100
AcDbLine
 10
-471.3597471321238
 20
766.6977501674133
 30
0.0
 11
-471.3597471321238
 21
776.6977501649123
 31
0.0
  0
LINE
  5
A6
330
70
100
AcDbEntity
  8
アンカー
 62
   251
370
    53
100
AcDbLine
 10
-580.6032016376812
 20
920.2926042115663
 30
0.0
 11
-570.603201640179
 21
920.2926042115663
 31
0.0
  0
LINE
  5
A7
330
70
100
AcDbEntity
  8
アンカー
 62
   251
370
    53
100
AcDbLine
 10
-575.6032016389266
 20
915.2926042128148
 30
0.0
 11
-575.6032016389266
 21
925.2926042103139
 31
0.0
  0
MTEXT
  5
A9
330
70
100
AcDbEntity
  8
コメント
100
AcDbMText
 10
-401.585909594699
 20
712.6802712248247
 30
0.0
 40
0.2
 41
0.0
 46
0.0
 71
     7
 72
     1
  1
\C7;\FKozuka Gothic Pr6N R|b0|i0|c128;\H3.102184;\W1.000000;※成型文字の断面は
 73
     1
 44
1.0
  0
MTEXT
  5
AA
330
70
100
AcDbEntity
  8
コメント
100
AcDbMText
 10
-401.585909594699
 20
705.0125222033042
 30
0.0
 40
0.2
 41
0.0
 46
0.0
 71
     7
 72
     1
  1
\C7;\FKozuka Gothic Pr6N R|b0|i0|c128;\H3.102184;\W1.000000;　実際のものと異なる場合があります
 73
     1
 44
1.0
  0
MTEXT
  5
AB
330
70
100
AcDbEntity
  8
コメント
100
AcDbMText
 10
-713.2744640686431
 20
737.3009906197112
 30
0.0
 40
0.2
 41
0.0
 46
0.0
 71
     7
 72
     1
  1
\C7;\FKozuka Gothic Pr6N R|b0|i0|c128;\H2.497667;\W1.000000;材質：アクリル
 73
     1
 44
1.0
  0
MTEXT
  5
AC
330
70
100
AcDbEntity
  8
コメント
100
AcDbMText
 10
-713.2744640686431
 20
731.1273795101435
 30
0.0
 40
0.2
 41
0.0
 46
0.0
 71
     7
 72
     1
  1
\C7;\FKozuka Gothic Pr6N R|b0|i0|c128;\H2.497667;\W1.000000;色：乳白色
 73
     1
 44
1.0
  0
INSERT
  5
AE
330
70
100
AcDbEntity
  8
コメント
100
AcDbBlockReference
  2
Block_1
 10
0.0
 20
0.0
 30
0.0
  0
LWPOLYLINE
  5
C0
330
70
100
AcDbEntity
  8
上
100
AcDbPolyline
 90
        4
 70
     1
 43
0.0
 10
-508.8581807211307
 20
988.3625246697658
 10
-538.9530353571314
 20
988.3625246697658
 10
-538.9530353571314
 20
975.2090854495865
 10
-508.8581807211307
 20
975.2090854495865
  0
MTEXT
  5
C1
330
70
100
AcDbEntity
  8
上
100
AcDbMText
 10
-535.9830463341031
 20
978.8262136767345
 30
0.0
 40
0.2
 41
0.0
 46
0.0
 71
     7
 72
     1
  1
\C7;\FA-OTF Shin Go Pro B|b0|i0|c128;\H5.696928;\W1.000000;↑上↑
 73
     1
 44
1.0
  0
INSERT
  5
C4
330
70
100
AcDbEntity
  8
寸法
100
AcDbBlockReference
  2
Block_3
 10
0.0
 20
0.0
 30
0.0
  0
LINE
  5
D5
330
70
100
AcDbEntity
  8
寸法
 62
    29
370
    18
100
AcDbLine
 10
-530.5668478639307
 20
741.3954217919587
 30
0.0
 11
-313.806181608438
 21
741.3954217919587
 31
0.0
  0
LINE
  5
D6
330
70
100
AcDbEntity
  8
寸法
 62
    29
370
    18
100
AcDbLine
 10
-530.5668478639307
 20
948.4303210254424
 30
0.0
 11
-313.806181608438
 21
948.4303210254424
 31
0.0
  0
INSERT
  5
D8
330
70
100
AcDbEntity
  8
寸法
100
AcDbBlockReference
  2
Block_6
 10
0.0
 20
0.0
 30
0.0
  0
INSERT
  5
EA
330
70
100
AcDbEntity
  8
寸法
100
AcDbBlockReference
  2
Block_9
 10
0.0
 20
0.0
 30
0.0
  0
ENDSEC
  0
SECTION
  2
OBJECTS
  0
DICTIONARY
  5
C
330
0
100
AcDbDictionary
281
     1
  3
ACAD_COLOR
350
63
  3
ACAD_DETAILVIEWSTYLE
350
6A
  3
ACAD_GROUP
350
D
  3
ACAD_LAYOUT
350
62
  3
ACAD_MATERIAL
350
10
  3
ACAD_MLEADERSTYLE
350
66
  3
ACAD_MLINESTYLE
350
5F
  3
ACAD_PLOTSETTINGS
350
61
  3
ACAD_PLOTSTYLENAME
350
E
  3
ACAD_SCALELIST
350
42
  3
ACAD_SECTIONVIEWSTYLE
350
68
  3
ACAD_TABLESTYLE
350
64
  3
ACAD_VISUALSTYLE
350
29
  3
ACDB_RECOMPOSE_DATA
350
107
  3
AcDbVariableDictionary
350
FC
  0
DICTIONARY
  5
63
102
{ACAD_REACTORS
330
C
102
}
330
C
100
AcDbDictionary
281
     1
  0
DICTIONARY
  5
6A
102
{ACAD_REACTORS
330
C
102
}
330
C
100
AcDbDictionary
281
     1
  3
Imperial24
350
6B
  0
DICTIONARY
  5
D
102
{ACAD_REACTORS
330
C
102
}
330
C
100
AcDbDictionary
281
     1
  0
DICTIONARY
  5
62
102
{ACAD_REACTORS
330
C
102
}
330
C
100
AcDbDictionary
281
     1
  3
Layout1
350
6F
  3
Layout2
350
77
  3
Model
350
73
  0
DICTIONARY
  5
10
102
{ACAD_REACTORS
330
C
102
}
330
C
100
AcDbDictionary
281
     1
  3
ByBlock
350
19
  3
ByLayer
350
11
  3
Global
350
21
  0
DICTIONARY
  5
66
102
{ACAD_REACTORS
330
C
102
}
330
C
100
AcDbDictionary
281
     1
  3
Standard
350
67
  0
DICTIONARY
  5
5F
102
{ACAD_REACTORS
330
C
102
}
330
C
100
AcDbDictionary
281
     1
  3
Standard
350
60
  0
DICTIONARY
  5
61
102
{ACAD_REACTORS
330
C
102
}
330
C
100
AcDbDictionary
281
     1
  0
ACDBDICTIONARYWDFLT
  5
E
102
{ACAD_REACTORS
330
C
102
}
330
C
100
AcDbDictionary
281
     1
  3
Normal
350
F
100
AcDbDictionaryWithDefault
340
F
  0
DICTIONARY
  5
42
102
{ACAD_REACTORS
330
C
102
}
330
C
100
AcDbDictionary
281
     1
  3
A0
350
43
  3
A1
350
44
  3
A2
350
45
  3
A3
350
46
  3
A4
350
47
  3
A5
350
48
  3
A6
350
49
  3
A7
350
4A
  3
A8
350
4B
  3
A9
350
4C
  3
B0
350
4D
  3
B1
350
4E
  3
B2
350
4F
  3
B3
350
50
  3
B4
350
51
  3
B5
350
52
  3
B6
350
53
  0
DICTIONARY
  5
68
102
{ACAD_REACTORS
330
C
102
}
330
C
100
AcDbDictionary
281
     1
  3
Imperial24
350
69
  0
DICTIONARY
  5
64
102
{ACAD_REACTORS
330
C
102
}
330
C
100
AcDbDictionary
281
     1
  3
Standard
350
65
  0
DICTIONARY
  5
29
102
{ACAD_REACTORS
330
C
102
}
330
C
100
AcDbDictionary
281
     1
  3
2dWireframe
350
2F
  3
Basic
350
2E
  3
Brighten
350
35
  3
ColorChange
350
39
  3
Conceptual
350
32
  3
Dim
350
34
  3
EdgeColorOff
350
41
  3
Facepattern
350
38
  3
Flat
350
2A
  3
FlatWithEdges
350
2B
  3
Gouraud
350
2C
  3
GouraudWithEdges
350
2D
  3
Hidden
350
31
  3
JitterOff
350
3F
  3
Linepattern
350
37
  3
OverhangOff
350
40
  3
Realistic
350
33
  3
Shaded
350
3E
  3
Shaded with edges
350
3D
  3
Shades of Gray
350
3A
  3
Sketchy
350
3B
  3
Thicken
350
36
  3
Wireframe
350
30
  3
X-Ray
350
3C
  0
XRECORD
  5
107
102
{ACAD_REACTORS
330
C
102
}
330
C
100
AcDbXrecord
280
     1
 90
        1
330
65
  0
DICTIONARY
  5
FC
102
{ACAD_REACTORS
330
C
102
}
330
C
100
AcDbDictionary
281
     1
  3
CANNOSCALE
350
101
  3
CMLEADERSTYLE
350
FE
  3
CTABLESTYLE
350
FD
  3
CVIEWDETAILSTYLE
350
FF
  3
CVIEWSECTIONSTYLE
350
100
  0
ACDBDETAILVIEWSTYLE
  5
6B
102
{ACAD_XDICTIONARY
360
13C
102
}
102
{ACAD_REACTORS
330
6A
102
}
330
6A
100
AcDbModelDocViewStyle
 70
     0
  3
Imperial24
290
     0
100
AcDbDetailViewStyle
 70
     0
 71
     0
 90
        3
 71
     1
340
55
 62
   256
 40
0.24
340
0
 62
   256
 40
0.24
300

 40
0.36
280
     3
 71
     2
340
5D
 90
       25
 62
   256
 71
     3
340
55
 62
   256
 40
0.24
 90
        1
 40
0.75
 90
        1
300
%<\AcVar ViewType \f "%tc1">% %<\AcVar ViewDetailId>%\PSCALE %<\AcVar ViewScale \f "%sn">%
 71
     4
340
5D
 90
       25
 62
   256
340
5D
 90
       25
 62
   256
280
     0
  0
LAYOUT
  5
6F
102
{ACAD_REACTORS
330
62
102
}
330
62
100
AcDbPlotSettings
  1

  2

  4

  6

 40
0.0
 41
0.0
 42
0.0
 43
0.0
 44
0.0
 45
0.0
 46
0.0
 47
0.0
 48
0.0
 49
0.0
140
0.0
141
0.0
142
1.0
143
1.0
 70
   688
 72
     0
 73
     0
 74
     5
  7

 75
    16
147
1.0
 76
     0
 77
     2
 78
   300
148
0.0
149
0.0
100
AcDbLayout
  1
Layout1
 70
     1
 71
     1
 10
0.0
 20
0.0
 11
12.0
 21
9.0
 12
0.0
 22
0.0
 32
0.0
 14
0.0
 24
0.0
 34
0.0
 15
0.0
 25
0.0
 35
0.0
146
0.0
 13
0.0
 23
0.0
 33
0.0
 16
1.0
 26
0.0
 36
0.0
 17
0.0
 27
1.0
 37
0.0
 76
     0
330
6C
  0
LAYOUT
  5
77
102
{ACAD_REACTORS
330
62
102
}
330
62
100
AcDbPlotSettings
  1

  2

  4

  6

 40
0.0
 41
0.0
 42
0.0
 43
0.0
 44
0.0
 45
0.0
 46
0.0
 47
0.0
 48
0.0
 49
0.0
140
0.0
141
0.0
142
1.0
143
1.0
 70
   688
 72
     0
 73
     0
 74
     5
  7

 75
    16
147
1.0
 76
     0
 77
     2
 78
   300
148
0.0
149
0.0
100
AcDbLayout
  1
Layout2
 70
     1
 71
     2
 10
0.0
 20
0.0
 11
12.0
 21
9.0
 12
0.0
 22
0.0
 32
0.0
 14
0.0
 24
0.0
 34
0.0
 15
0.0
 25
0.0
 35
0.0
146
0.0
 13
0.0
 23
0.0
 33
0.0
 16
1.0
 26
0.0
 36
0.0
 17
0.0
 27
1.0
 37
0.0
 76
     0
330
74
  0
LAYOUT
  5
73
102
{ACAD_REACTORS
330
62
102
}
330
62
100
AcDbPlotSettings
  1

  2

  4

  6

 40
0.0
 41
0.0
 42
0.0
 43
0.0
 44
0.0
 45
0.0
 46
0.0
 47
0.0
 48
0.0
 49
0.0
140
0.0
141
0.0
142
1.0
143
1.0
 70
  1712
 72
     0
 73
     0
 74
     0
  7

 75
     0
147
1.0
 76
     0
 77
     2
 78
   300
148
0.0
149
0.0
100
AcDbLayout
  1
Model
 70
     1
 71
     0
 10
0.0
 20
0.0
 11
12.0
 21
9.0
 12
0.0
 22
0.0
 32
0.0
 14
0.0
 24
0.0
 34
0.0
 15
0.0
 25
0.0
 35
0.0
146
0.0
 13
0.0
 23
0.0
 33
0.0
 16
1.0
 26
0.0
 36
0.0
 17
0.0
 27
1.0
 37
0.0
 76
     0
330
70
  0
MATERIAL
  5
19
102
{ACAD_XDICTIONARY
360
1A
102
}
102
{ACAD_REACTORS
330
10
102
}
330
10
100
AcDbMaterial
  1
ByBlock
 72
     0
 43
0.0208333333333333
 43
0.0
 43
0.0
 43
0.0
 43
0.0
 43
0.0208333333333333
 43
0.0
 43
0.0
 43
0.0
 43
0.0
 43
1.0
 43
0.0
 43
0.0
 43
0.0
 43
0.0
 43
1.0
 77
     0
 47
0.0208333333333333
 47
0.0
 47
0.0
 47
0.0
 47
0.0
 47
0.0208333333333333
 47
0.0
 47
0.0
 47
0.0
 47
0.0
 47
1.0
 47
0.0
 47
0.0
 47
0.0
 47
0.0
 47
1.0
171
     0
 49
0.0208333333333333
 49
0.0
 49
0.0
 49
0.0
 49
0.0
 49
0.0208333333333333
 49
0.0
 49
0.0
 49
0.0
 49
0.0
 49
1.0
 49
0.0
 49
0.0
 49
0.0
 49
0.0
 49
1.0
175
     0
142
0.0208333333333333
142
0.0
142
0.0
142
0.0
142
0.0
142
0.0208333333333333
142
0.0
142
0.0
142
0.0
142
0.0
142
1.0
142
0.0
142
0.0
142
0.0
142
0.0
142
1.0
179
     0
144
0.0208333333333333
144
0.0
144
0.0
144
0.0
144
0.0
144
0.0208333333333333
144
0.0
144
0.0
144
0.0
144
0.0
144
1.0
144
0.0
144
0.0
144
0.0
144
0.0
144
1.0
147
0.0208333333333333
147
0.0
147
0.0
147
0.0
147
0.0
147
0.0208333333333333
147
0.0
147
0.0
147
0.0
147
0.0
147
1.0
147
0.0
147
0.0
147
0.0
147
0.0
147
1.0
  0
MATERIAL
  5
11
102
{ACAD_XDICTIONARY
360
12
102
}
102
{ACAD_REACTORS
330
10
102
}
330
10
100
AcDbMaterial
  1
ByLayer
 72
     0
 43
0.0208333333333333
 43
0.0
 43
0.0
 43
0.0
 43
0.0
 43
0.0208333333333333
 43
0.0
 43
0.0
 43
0.0
 43
0.0
 43
1.0
 43
0.0
 43
0.0
 43
0.0
 43
0.0
 43
1.0
 77
     0
 47
0.0208333333333333
 47
0.0
 47
0.0
 47
0.0
 47
0.0
 47
0.0208333333333333
 47
0.0
 47
0.0
 47
0.0
 47
0.0
 47
1.0
 47
0.0
 47
0.0
 47
0.0
 47
0.0
 47
1.0
171
     0
 49
0.0208333333333333
 49
0.0
 49
0.0
 49
0.0
 49
0.0
 49
0.0208333333333333
 49
0.0
 49
0.0
 49
0.0
 49
0.0
 49
1.0
 49
0.0
 49
0.0
 49
0.0
 49
0.0
 49
1.0
175
     0
142
0.0208333333333333
142
0.0
142
0.0
142
0.0
142
0.0
142
0.0208333333333333
142
0.0
142
0.0
142
0.0
142
0.0
142
1.0
142
0.0
142
0.0
142
0.0
142
0.0
142
1.0
179
     0
144
0.0208333333333333
144
0.0
144
0.0
144
0.0
144
0.0
144
0.0208333333333333
144
0.0
144
0.0
144
0.0
144
0.0
144
1.0
144
0.0
144
0.0
144
0.0
144
0.0
144
1.0
147
0.0208333333333333
147
0.0
147
0.0
147
0.0
147
0.0
147
0.0208333333333333
147
0.0
147
0.0
147
0.0
147
0.0
147
1.0
147
0.0
147
0.0
147
0.0
147
0.0
147
1.0
  0
MATERIAL
  5
21
102
{ACAD_XDICTIONARY
360
22
102
}
102
{ACAD_REACTORS
330
10
102
}
330
10
100
AcDbMaterial
  1
Global
 72
     0
 43
0.0208333333333333
 43
0.0
 43
0.0
 43
0.0
 43
0.0
 43
0.0208333333333333
 43
0.0
 43
0.0
 43
0.0
 43
0.0
 43
1.0
 43
0.0
 43
0.0
 43
0.0
 43
0.0
 43
1.0
 77
     0
 47
0.0208333333333333
 47
0.0
 47
0.0
 47
0.0
 47
0.0
 47
0.0208333333333333
 47
0.0
 47
0.0
 47
0.0
 47
0.0
 47
1.0
 47
0.0
 47
0.0
 47
0.0
 47
0.0
 47
1.0
171
     0
 49
0.0208333333333333
 49
0.0
 49
0.0
 49
0.0
 49
0.0
 49
0.0208333333333333
 49
0.0
 49
0.0
 49
0.0
 49
0.0
 49
1.0
 49
0.0
 49
0.0
 49
0.0
 49
0.0
 49
1.0
175
     0
142
0.0208333333333333
142
0.0
142
0.0
142
0.0
142
0.0
142
0.0208333333333333
142
0.0
142
0.0
142
0.0
142
0.0
142
1.0
142
0.0
142
0.0
142
0.0
142
0.0
142
1.0
179
     0
144
0.0208333333333333
144
0.0
144
0.0
144
0.0
144
0.0
144
0.0208333333333333
144
0.0
144
0.0
144
0.0
144
0.0
144
1.0
144
0.0
144
0.0
144
0.0
144
0.0
144
1.0
147
0.0208333333333333
147
0.0
147
0.0
147
0.0
147
0.0
147
0.0208333333333333
147
0.0
147
0.0
147
0.0
147
0.0
147
1.0
147
0.0
147
0.0
147
0.0
147
0.0
147
1.0
  0
MLEADERSTYLE
  5
67
102
{ACAD_XDICTIONARY
360
138
102
}
102
{ACAD_REACTORS
330
66
102
}
330
66
100
AcDbMLeaderStyle
179
     2
170
     2
171
     1
172
     0
 90
        2
 40
0.0
 41
0.0
173
     1
 91
-1056964608
340
5B
 92
       -2
290
     1
 42
0.09
291
     1
 43
0.36
  3
Standard
 44
0.18
300

342
55
174
     1
178
     6
175
     1
176
     0
 93
-1056964608
 45
0.18
292
     0
297
     0
 46
0.18
 94
-1056964608
 47
1.0
 49
1.0
140
1.0
293
     1
141
0.0
294
     1
177
     0
142
1.0
295
     0
296
     0
143
0.125
271
     0
272
     9
273
     9
  0
MLINESTYLE
  5
60
102
{ACAD_REACTORS
330
5F
102
}
330
5F
100
AcDbMlineStyle
  2
STANDARD
 70
     0
  3

 62
   256
 51
90.0
 52
90.0
 71
     2
 49
0.5
 62
   256
  6
BYLAYER
 49
-0.5
 62
   256
  6
BYLAYER
  0
ACDBPLACEHOLDER
  5
F
102
{ACAD_REACTORS
330
E
102
}
330
E
  0
SCALE
  5
43
102
{ACAD_REACTORS
330
42
102
}
330
42
100
AcDbScale
 70
     0
300
1:1
140
1.0
141
1.0
290
     1
  0
SCALE
  5
44
102
{ACAD_REACTORS
330
42
102
}
330
42
100
AcDbScale
 70
     0
300
1/128" = 1'-0"
140
0.0078125
141
12.0
290
     0
  0
SCALE
  5
45
102
{ACAD_REACTORS
330
42
102
}
330
42
100
AcDbScale
 70
     0
300
1/64" = 1'-0"
140
0.015625
141
12.0
290
     0
  0
SCALE
  5
46
102
{ACAD_REACTORS
330
42
102
}
330
42
100
AcDbScale
 70
     0
300
1/32" = 1'-0"
140
0.03125
141
12.0
290
     0
  0
SCALE
  5
47
102
{ACAD_REACTORS
330
42
102
}
330
42
100
AcDbScale
 70
     0
300
1/16" = 1'-0"
140
0.0625
141
12.0
290
     0
  0
SCALE
  5
48
102
{ACAD_REACTORS
330
42
102
}
330
42
100
AcDbScale
 70
     0
300
3/32" = 1'-0"
140
0.09375
141
12.0
290
     0
  0
SCALE
  5
49
102
{ACAD_REACTORS
330
42
102
}
330
42
100
AcDbScale
 70
     0
300
1/8" = 1'-0"
140
0.125
141
12.0
290
     0
  0
SCALE
  5
4A
102
{ACAD_REACTORS
330
42
102
}
330
42
100
AcDbScale
 70
     0
300
3/16" = 1'-0"
140
0.1875
141
12.0
290
     0
  0
SCALE
  5
4B
102
{ACAD_REACTORS
330
42
102
}
330
42
100
AcDbScale
 70
     0
300
1/4" = 1'-0"
140
0.25
141
12.0
290
     0
  0
SCALE
  5
4C
102
{ACAD_REACTORS
330
42
102
}
330
42
100
AcDbScale
 70
     0
300
3/8" = 1'-0"
140
0.375
141
12.0
290
     0
  0
SCALE
  5
4D
102
{ACAD_REACTORS
330
42
102
}
330
42
100
AcDbScale
 70
     0
300
1/2" = 1'-0"
140
0.5
141
12.0
290
     0
  0
SCALE
  5
4E
102
{ACAD_REACTORS
330
42
102
}
330
42
100
AcDbScale
 70
     0
300
3/4" = 1'-0"
140
0.75
141
12.0
290
     0
  0
SCALE
  5
4F
102
{ACAD_REACTORS
330
42
102
}
330
42
100
AcDbScale
 70
     0
300
1" = 1'-0"
140
1.0
141
12.0
290
     0
  0
SCALE
  5
50
102
{ACAD_REACTORS
330
42
102
}
330
42
100
AcDbScale
 70
     0
300
1-1/2" = 1'-0"
140
1.5
141
12.0
290
     0
  0
SCALE
  5
51
102
{ACAD_REACTORS
330
42
102
}
330
42
100
AcDbScale
 70
     0
300
3" = 1'-0"
140
3.0
141
12.0
290
     0
  0
SCALE
  5
52
102
{ACAD_REACTORS
330
42
102
}
330
42
100
AcDbScale
 70
     0
300
6" = 1'-0"
140
6.0
141
12.0
290
     0
  0
SCALE
  5
53
102
{ACAD_REACTORS
330
42
102
}
330
42
100
AcDbScale
 70
     0
300
1'-0" = 1'-0"
140
12.0
141
12.0
290
     0
  0
ACDBSECTIONVIEWSTYLE
  5
69
102
{ACAD_XDICTIONARY
360
13A
102
}
102
{ACAD_REACTORS
330
68
102
}
330
68
100
AcDbModelDocViewStyle
 70
     0
  3
Imperial24
290
     0
100
AcDbSectionViewStyle
 70
     0
 71
     0
 90
       78
 71
     1
340
55
 62
   256
 40
0.24
340
0
340
0
 62
   256
 40
0.24
300
I, O, Q, S, X, Z
 40
0.48
 90
        3
 40
0.18
 90
        1
 71
     2
340
5D
 90
       25
 62
   256
340
5D
 90
       50
 62
   256
 40
0.24
 40
0.0
 40
0.24
 71
     3
340
55
 62
   256
 40
0.24
 90
        1
 40
0.75
 90
        1
300
%<\AcVar ViewType \f "%tc1">% %<\AcVar ViewSectionStartId>%-%<\AcVar ViewSectionEndId>%\PSCALE %<\AcVar ViewScale \f "%sn">%
 71
     4
 62
   256
 62
   257
300
ANSI31
 40
1.0
 90
        0
290
     0
290
     0
 90
        6
 40
0.0
 40
1.570796326794896
 40
0.2617993877991494
 40
1.308996938995747
 40
-0.2617993877991494
 40
1.832595714594046
  0
TABLESTYLE
  5
65
102
{ACAD_XDICTIONARY
360
102
102
}
102
{ACAD_REACTORS
330
64
102
}
330
64
100
AcDbTableStyle
280
     0
  3
Standard
 70
     0
 71
     0
 40
0.06
 41
0.06
280
     0
281
     0
  7
Standard
140
0.18
170
     2
 62
     0
 63
     7
283
     0
 90
      512
 91
        0
  1

274
    -2
284
     1
 64
     0
275
    -2
285
     1
 65
     0
276
    -2
286
     1
 66
     0
277
    -2
287
     1
 67
     0
278
    -2
288
     1
 68
     0
279
    -2
289
     1
 69
     0
  7
Standard
140
0.25
170
     5
 62
     0
 63
     7
283
     0
 90
      512
 91
        0
  1

274
    -2
284
     1
 64
     0
275
    -2
285
     1
 65
     0
276
    -2
286
     1
 66
     0
277
    -2
287
     1
 67
     0
278
    -2
288
     1
 68
     0
279
    -2
289
     1
 69
     0
  7
Standard
140
0.18
170
     5
 62
     0
 63
     7
283
     0
 90
      512
 91
        0
  1

274
    -2
284
     1
 64
     0
275
    -2
285
     1
 65
     0
276
    -2
286
     1
 66
     0
277
    -2
287
     1
 67
     0
278
    -2
288
     1
 68
     0
279
    -2
289
     1
 69
     0
  0
VISUALSTYLE
  5
2F
102
{ACAD_XDICTIONARY
360
112
102
}
102
{ACAD_REACTORS
330
29
102
}
330
29
100
AcDbVisualStyle
  2
2dWireframe
 70
     4
177
     2
291
     0
 71
     0
176
     1
 72
     2
176
     1
 73
     0
176
     1
 90
        0
176
     1
 40
0.6
176
     1
 41
30.0
176
     1
 63
     7
421
 16777215
176
     1
 74
     1
176
     1
 91
        4
176
     1
 64
     7
176
     1
 65
   257
176
     1
 75
     1
176
     1
175
     1
176
     1
 42
1.0
176
     1
 92
        0
176
     1
 66
   257
176
     1
 43
1.0
176
     1
 76
     1
176
     1
 77
     6
176
     1
 78
     2
176
     1
 67
     7
176
     1
 79
     5
176
     1
170
     0
176
     1
171
     0
176
     1
290
     0
176
     1
 93
        1
176
     1
 44
0.0
176
     1
173
     0
176
     1
1001
ACAD
1000
AcDbSavedByObjectVersion
1070
     0
  0
VISUALSTYLE
  5
2E
102
{ACAD_XDICTIONARY
360
110
102
}
102
{ACAD_REACTORS
330
29
102
}
330
29
100
AcDbVisualStyle
  2
Basic
 70
     7
177
     2
291
     1
 71
     1
176
     1
 72
     0
176
     1
 73
     1
176
     1
 90
        0
176
     1
 40
0.6
176
     1
 41
30.0
176
     1
 63
     7
421
 16777215
176
     1
 74
     0
176
     1
 91
        4
176
     1
 64
     7
176
     1
 65
   257
176
     1
 75
     1
176
     1
175
     1
176
     1
 42
1.0
176
     1
 92
        8
176
     1
 66
     7
176
     1
 43
1.0
176
     1
 76
     1
176
     1
 77
     6
176
     1
 78
     2
176
     1
 67
     7
176
     1
 79
     5
176
     1
170
     0
176
     1
171
     0
176
     1
290
     0
176
     1
 93
        1
176
     1
 44
0.0
176
     1
173
     0
176
     1
1001
ACAD
1000
AcDbSavedByObjectVersion
1070
     0
  0
VISUALSTYLE
  5
35
102
{ACAD_XDICTIONARY
360
11E
102
}
102
{ACAD_REACTORS
330
29
102
}
330
29
100
AcDbVisualStyle
  2
Brighten
 70
    12
177
     2
291
     1
 71
     2
176
     1
 72
     2
176
     1
 73
     0
176
     1
 90
        0
176
     1
 40
0.6
176
     1
 41
30.0
176
     1
 63
     7
421
 16777215
176
     1
 74
     1
176
     1
 91
        4
176
     1
 64
     7
176
     1
 65
   257
176
     1
 75
     1
176
     1
175
     1
176
     1
 42
1.0
176
     1
 92
        8
176
     1
 66
     7
176
     1
 43
1.0
176
     1
 76
     1
176
     1
 77
     6
176
     1
 78
     2
176
     1
 67
     7
176
     1
 79
     5
176
     1
170
     0
176
     1
171
     0
176
     1
290
     0
176
     1
 93
        1
176
     1
 44
50.0
176
     1
173
     0
176
     1
1001
ACAD
1000
AcDbSavedByObjectVersion
1070
     0
  0
VISUALSTYLE
  5
39
102
{ACAD_XDICTIONARY
360
126
102
}
102
{ACAD_REACTORS
330
29
102
}
330
29
100
AcDbVisualStyle
  2
ColorChange
 70
    16
177
     2
291
     1
 71
     2
176
     1
 72
     2
176
     1
 73
     3
176
     1
 90
        0
176
     1
 40
0.6
176
     1
 41
30.0
176
     1
 63
     8
421
  8421504
176
     1
 74
     1
176
     1
 91
        4
176
     1
 64
     7
176
     1
 65
   257
176
     1
 75
     1
176
     1
175
     1
176
     1
 42
1.0
176
     1
 92
        8
176
     1
 66
     8
424
  8421504
176
     1
 43
1.0
176
     1
 76
     1
176
     1
 77
     6
176
     1
 78
     2
176
     1
 67
     7
176
     1
 79
     5
176
     1
170
     0
176
     1
171
     0
176
     1
290
     0
176
     1
 93
        1
176
     1
 44
0.0
176
     1
173
     0
176
     1
1001
ACAD
1000
AcDbSavedByObjectVersion
1070
     0
  0
VISUALSTYLE
  5
32
102
{ACAD_XDICTIONARY
360
118
102
}
102
{ACAD_REACTORS
330
29
102
}
330
29
100
AcDbVisualStyle
  2
Conceptual
 70
     9
177
     2
291
     0
 71
     3
176
     1
 72
     2
176
     1
 73
     0
176
     1
 90
        0
176
     1
 40
0.6
176
     1
 41
30.0
176
     1
 63
     7
421
 16777215
176
     1
 74
     2
176
     1
 91
        2
176
     1
 64
     7
176
     1
 65
   257
176
     1
 75
     1
176
     1
175
     1
176
     1
 42
179.0
176
     1
 92
        8
176
     1
 66
     7
176
     1
 43
1.0
176
     1
 76
     1
176
     1
 77
     6
176
     1
 78
     2
176
     1
 67
     7
176
     1
 79
     3
176
     1
170
     0
176
     1
171
     0
176
     1
290
     0
176
     1
 93
        1
176
     1
 44
0.0
176
     1
173
     0
176
     1
1001
ACAD
1000
AcDbSavedByObjectVersion
1070
     0
  0
VISUALSTYLE
  5
34
102
{ACAD_XDICTIONARY
360
11C
102
}
102
{ACAD_REACTORS
330
29
102
}
330
29
100
AcDbVisualStyle
  2
Dim
 70
    11
177
     2
291
     1
 71
     2
176
     1
 72
     2
176
     1
 73
     0
176
     1
 90
        0
176
     1
 40
0.6
176
     1
 41
30.0
176
     1
 63
     7
421
 16777215
176
     1
 74
     1
176
     1
 91
        4
176
     1
 64
     7
176
     1
 65
   257
176
     1
 75
     1
176
     1
175
     1
176
     1
 42
1.0
176
     1
 92
        8
176
     1
 66
     7
176
     1
 43
1.0
176
     1
 76
     1
176
     1
 77
     6
176
     1
 78
     2
176
     1
 67
     7
176
     1
 79
     5
176
     1
170
     0
176
     1
171
     0
176
     1
290
     0
176
     1
 93
        1
176
     1
 44
-50.0
176
     1
173
     0
176
     1
1001
ACAD
1000
AcDbSavedByObjectVersion
1070
     0
  0
VISUALSTYLE
  5
41
102
{ACAD_XDICTIONARY
360
136
102
}
102
{ACAD_REACTORS
330
29
102
}
330
29
100
AcDbVisualStyle
  2
EdgeColorOff
 70
    22
177
     2
291
     1
 71
     2
176
     0
 72
     2
176
     0
 73
     0
176
     0
 90
        0
176
     0
 40
0.6
176
     0
 41
30.0
176
     0
 63
     7
421
 16777215
176
     0
 74
     1
176
     0
 91
        4
176
     0
 64
     7
176
     0
 65
   257
176
     0
 75
     1
176
     0
175
     1
176
     0
 42
1.0
176
     0
 92
        8
176
     2
 66
     7
176
     0
 43
1.0
176
     0
 76
     1
176
     0
 77
     6
176
     0
 78
     2
176
     0
 67
     7
176
     0
 79
     5
176
     0
170
     0
176
     0
171
     0
176
     0
290
     0
176
     0
 93
        1
176
     0
 44
0.0
176
     0
173
     0
176
     0
1001
ACAD
1000
AcDbSavedByObjectVersion
1070
     0
  0
VISUALSTYLE
  5
38
102
{ACAD_XDICTIONARY
360
124
102
}
102
{ACAD_REACTORS
330
29
102
}
330
29
100
AcDbVisualStyle
  2
Facepattern
 70
    15
177
     2
291
     1
 71
     2
176
     1
 72
     2
176
     1
 73
     0
176
     1
 90
        0
176
     1
 40
0.6
176
     1
 41
30.0
176
     1
 63
     7
421
 16777215
176
     1
 74
     1
176
     1
 91
        4
176
     1
 64
     7
176
     1
 65
   257
176
     1
 75
     1
176
     1
175
     1
176
     1
 42
1.0
176
     1
 92
        8
176
     1
 66
     7
176
     1
 43
1.0
176
     1
 76
     1
176
     1
 77
     6
176
     1
 78
     2
176
     1
 67
     7
176
     1
 79
     5
176
     1
170
     0
176
     1
171
     0
176
     1
290
     0
176
     1
 93
        1
176
     1
 44
0.0
176
     1
173
     0
176
     1
1001
ACAD
1000
AcDbSavedByObjectVersion
1070
     0
  0
VISUALSTYLE
  5
2A
102
{ACAD_XDICTIONARY
360
108
102
}
102
{ACAD_REACTORS
330
29
102
}
330
29
100
AcDbVisualStyle
  2
Flat
 70
     0
177
     2
291
     1
 71
     2
176
     1
 72
     1
176
     1
 73
     1
176
     1
 90
        2
176
     1
 40
0.6
176
     1
 41
30.0
176
     1
 63
     7
421
 16777215
176
     1
 74
     0
176
     1
 91
        0
176
     1
 64
     7
176
     1
 65
   257
176
     1
 75
     1
176
     1
175
     1
176
     1
 42
1.0
176
     1
 92
        8
176
     1
 66
     7
176
     1
 43
1.0
176
     1
 76
     1
176
     1
 77
     6
176
     1
 78
     2
176
     1
 67
     7
176
     1
 79
     5
176
     1
170
     0
176
     1
171
     0
176
     1
290
     0
176
     1
 93
       13
176
     1
 44
0.0
176
     1
173
     0
176
     1
1001
ACAD
1000
AcDbSavedByObjectVersion
1070
     0
  0
VISUALSTYLE
  5
2B
102
{ACAD_XDICTIONARY
360
10A
102
}
102
{ACAD_REACTORS
330
29
102
}
330
29
100
AcDbVisualStyle
  2
FlatWithEdges
 70
     1
177
     2
291
     1
 71
     2
176
     1
 72
     1
176
     1
 73
     1
176
     1
 90
        2
176
     1
 40
0.6
176
     1
 41
30.0
176
     1
 63
     7
421
 16777215
176
     1
 74
     1
176
     1
 91
        0
176
     1
 64
     7
176
     1
 65
   257
176
     1
 75
     1
176
     1
175
     1
176
     1
 42
1.0
176
     1
 92
        0
176
     1
 66
   257
176
     1
 43
1.0
176
     1
 76
     1
176
     1
 77
     6
176
     1
 78
     2
176
     1
 67
     7
176
     1
 79
     5
176
     1
170
     0
176
     1
171
     0
176
     1
290
     0
176
     1
 93
       13
176
     1
 44
0.0
176
     1
173
     0
176
     1
1001
ACAD
1000
AcDbSavedByObjectVersion
1070
     0
  0
VISUALSTYLE
  5
2C
102
{ACAD_XDICTIONARY
360
10C
102
}
102
{ACAD_REACTORS
330
29
102
}
330
29
100
AcDbVisualStyle
  2
Gouraud
 70
     2
177
     2
291
     1
 71
     2
176
     1
 72
     2
176
     1
 73
     1
176
     1
 90
        2
176
     1
 40
0.6
176
     1
 41
30.0
176
     1
 63
     7
421
 16777215
176
     1
 74
     0
176
     1
 91
        0
176
     1
 64
     7
176
     1
 65
   257
176
     1
 75
     1
176
     1
175
     1
176
     1
 42
1.0
176
     1
 92
        0
176
     1
 66
     7
176
     1
 43
1.0
176
     1
 76
     1
176
     1
 77
     6
176
     1
 78
     2
176
     1
 67
     7
176
     1
 79
     5
176
     1
170
     0
176
     1
171
     0
176
     1
290
     0
176
     1
 93
       13
176
     1
 44
0.0
176
     1
173
     0
176
     1
1001
ACAD
1000
AcDbSavedByObjectVersion
1070
     0
  0
VISUALSTYLE
  5
2D
102
{ACAD_XDICTIONARY
360
10E
102
}
102
{ACAD_REACTORS
330
29
102
}
330
29
100
AcDbVisualStyle
  2
GouraudWithEdges
 70
     3
177
     2
291
     1
 71
     2
176
     1
 72
     2
176
     1
 73
     1
176
     1
 90
        2
176
     1
 40
0.6
176
     1
 41
30.0
176
     1
 63
     7
421
 16777215
176
     1
 74
     1
176
     1
 91
        0
176
     1
 64
     7
176
     1
 65
   257
176
     1
 75
     1
176
     1
175
     1
176
     1
 42
1.0
176
     1
 92
        0
176
     1
 66
   257
176
     1
 43
1.0
176
     1
 76
     1
176
     1
 77
     6
176
     1
 78
     2
176
     1
 67
     7
176
     1
 79
     5
176
     1
170
     0
176
     1
171
     0
176
     1
290
     0
176
     1
 93
       13
176
     1
 44
0.0
176
     1
173
     0
176
     1
1001
ACAD
1000
AcDbSavedByObjectVersion
1070
     0
  0
VISUALSTYLE
  5
31
102
{ACAD_XDICTIONARY
360
116
102
}
102
{ACAD_REACTORS
330
29
102
}
330
29
100
AcDbVisualStyle
  2
Hidden
 70
     6
177
     2
291
     0
 71
     1
176
     1
 72
     2
176
     1
 73
     2
176
     1
 90
        0
176
     1
 40
0.6
176
     1
 41
30.0
176
     1
 63
     7
421
 16777215
176
     1
 74
     2
176
     1
 91
        2
176
     1
 64
     7
176
     1
 65
   257
176
     1
 75
     2
176
     1
175
     1
176
     1
 42
40.0
176
     1
 92
        0
176
     1
 66
   257
176
     1
 43
1.0
176
     1
 76
     1
176
     1
 77
     6
176
     1
 78
     2
176
     1
 67
     7
176
     1
 79
     3
176
     1
170
     0
176
     1
171
     0
176
     1
290
     0
176
     1
 93
        1
176
     1
 44
0.0
176
     1
173
     0
176
     1
1001
ACAD
1000
AcDbSavedByObjectVersion
1070
     0
  0
VISUALSTYLE
  5
3F
102
{ACAD_XDICTIONARY
360
132
102
}
102
{ACAD_REACTORS
330
29
102
}
330
29
100
AcDbVisualStyle
  2
JitterOff
 70
    20
177
     2
291
     1
 71
     2
176
     0
 72
     2
176
     0
 73
     0
176
     0
 90
        0
176
     0
 40
0.6
176
     0
 41
30.0
176
     0
 63
     7
421
 16777215
176
     0
 74
     1
176
     0
 91
        4
176
     0
 64
     7
176
     0
 65
   257
176
     0
 75
     1
176
     0
175
     1
176
     0
 42
1.0
176
     0
 92
       10
176
     2
 66
     7
176
     0
 43
1.0
176
     0
 76
     1
176
     0
 77
     6
176
     0
 78
     2
176
     0
 67
     7
176
     0
 79
     5
176
     0
170
     0
176
     0
171
     0
176
     0
290
     0
176
     0
 93
        1
176
     0
 44
0.0
176
     0
173
     0
176
     0
1001
ACAD
1000
AcDbSavedByObjectVersion
1070
     0
  0
VISUALSTYLE
  5
37
102
{ACAD_XDICTIONARY
360
122
102
}
102
{ACAD_REACTORS
330
29
102
}
330
29
100
AcDbVisualStyle
  2
Linepattern
 70
    14
177
     2
291
     1
 71
     2
176
     1
 72
     2
176
     1
 73
     0
176
     1
 90
        0
176
     1
 40
0.6
176
     1
 41
30.0
176
     1
 63
     7
421
 16777215
176
     1
 74
     1
176
     1
 91
        4
176
     1
 64
     7
176
     1
 65
   257
176
     1
 75
     7
176
     1
175
     7
176
     1
 42
1.0
176
     1
 92
        8
176
     1
 66
     7
176
     1
 43
1.0
176
     1
 76
     1
176
     1
 77
     6
176
     1
 78
     2
176
     1
 67
     7
176
     1
 79
     5
176
     1
170
     0
176
     1
171
     0
176
     1
290
     0
176
     1
 93
        1
176
     1
 44
0.0
176
     1
173
     0
176
     1
1001
ACAD
1000
AcDbSavedByObjectVersion
1070
     0
  0
VISUALSTYLE
  5
40
102
{ACAD_XDICTIONARY
360
134
102
}
102
{ACAD_REACTORS
330
29
102
}
330
29
100
AcDbVisualStyle
  2
OverhangOff
 70
    21
177
     2
291
     1
 71
     2
176
     0
 72
     2
176
     0
 73
     0
176
     0
 90
        0
176
     0
 40
0.6
176
     0
 41
30.0
176
     0
 63
     7
421
 16777215
176
     0
 74
     1
176
     0
 91
        4
176
     0
 64
     7
176
     0
 65
   257
176
     0
 75
     1
176
     0
175
     1
176
     0
 42
1.0
176
     0
 92
        9
176
     2
 66
     7
176
     0
 43
1.0
176
     0
 76
     1
176
     0
 77
     6
176
     0
 78
     2
176
     0
 67
     7
176
     0
 79
     5
176
     0
170
     0
176
     0
171
     0
176
     0
290
     0
176
     0
 93
        1
176
     0
 44
0.0
176
     0
173
     0
176
     0
1001
ACAD
1000
AcDbSavedByObjectVersion
1070
     0
  0
VISUALSTYLE
  5
33
102
{ACAD_XDICTIONARY
360
11A
102
}
102
{ACAD_REACTORS
330
29
102
}
330
29
100
AcDbVisualStyle
  2
Realistic
 70
     8
177
     2
291
     0
 71
     2
176
     1
 72
     3
176
     1
 73
     0
176
     1
 90
        2
176
     1
 40
0.6
176
     1
 41
30.0
176
     1
 63
     7
421
 16777215
176
     1
 74
     0
176
     1
 91
        0
176
     1
 64
     7
176
     1
 65
   257
176
     1
 75
     1
176
     1
175
     1
176
     1
 42
1.0
176
     1
 92
        8
176
     1
 66
   257
176
     1
 43
1.0
176
     1
 76
     1
176
     1
 77
     6
176
     1
 78
     2
176
     1
 67
     7
176
     1
 79
     3
176
     1
170
     0
176
     1
171
     0
176
     1
290
     0
176
     1
 93
       13
176
     1
 44
0.0
176
     1
173
     0
176
     1
1001
ACAD
1000
AcDbSavedByObjectVersion
1070
     0
  0
VISUALSTYLE
  5
3E
102
{ACAD_XDICTIONARY
360
130
102
}
102
{ACAD_REACTORS
330
29
102
}
330
29
100
AcDbVisualStyle
  2
Shaded
 70
    27
177
     2
291
     0
 71
     2
176
     1
 72
     2
176
     1
 73
     1
176
     1
 90
        2
176
     1
 40
0.6
176
     1
 41
30.0
176
     1
 63
     7
421
 16777215
176
     1
 74
     0
176
     1
 91
        4
176
     1
 64
     7
176
     1
 65
   257
176
     1
 75
     1
176
     1
175
     1
176
     1
 42
1.0
176
     1
 92
        8
176
     1
 66
   257
176
     1
 43
1.0
176
     1
 76
     1
176
     1
 77
     6
176
     1
 78
     2
176
     1
 67
     8
425
  7895160
176
     1
 79
     3
176
     1
170
     0
176
     1
171
     0
176
     1
290
     0
176
     1
 93
        5
176
     1
 44
0.0
176
     1
173
     0
176
     1
1001
ACAD
1000
AcDbSavedByObjectVersion
1070
     0
  0
VISUALSTYLE
  5
3D
102
{ACAD_XDICTIONARY
360
12E
102
}
102
{ACAD_REACTORS
330
29
102
}
330
29
100
AcDbVisualStyle
  2
Shaded with edges
 70
    26
177
     2
291
     0
 71
     2
176
     1
 72
     2
176
     1
 73
     1
176
     1
 90
        2
176
     1
 40
0.6
176
     1
 41
30.0
176
     1
 63
     7
421
 16777215
176
     1
 74
     1
176
     1
 91
        2
176
     1
 64
     7
176
     1
 65
   257
176
     1
 75
     2
176
     1
175
     1
176
     1
 42
1.0
176
     1
 92
        8
176
     1
 66
   257
176
     1
 43
1.0
176
     1
 76
     1
176
     1
 77
     6
176
     1
 78
     2
176
     1
 67
     7
176
     1
 79
     3
176
     1
170
     0
176
     1
171
     0
176
     1
290
     0
176
     1
 93
        5
176
     1
 44
0.0
176
     1
173
     0
176
     1
1001
ACAD
1000
AcDbSavedByObjectVersion
1070
     0
  0
VISUALSTYLE
  5
3A
102
{ACAD_XDICTIONARY
360
128
102
}
102
{ACAD_REACTORS
330
29
102
}
330
29
100
AcDbVisualStyle
  2
Shades of Gray
 70
    23
177
     2
291
     0
 71
     2
176
     1
 72
     2
176
     1
 73
     3
176
     1
 90
        0
176
     1
 40
0.6
176
     1
 41
30.0
176
     1
 63
     7
421
 16777215
176
     1
 74
     2
176
     1
 91
        2
176
     1
 64
     7
176
     1
 65
     7
176
     1
 75
     1
176
     1
175
     1
176
     1
 42
40.0
176
     1
 92
        8
176
     1
 66
     7
176
     1
 43
1.0
176
     1
 76
     1
176
     1
 77
     6
176
     1
 78
     2
176
     1
 67
     7
176
     1
 79
     3
176
     1
170
     0
176
     1
171
     0
176
     1
290
     0
176
     1
 93
        1
176
     1
 44
0.0
176
     1
173
     0
176
     1
1001
ACAD
1000
AcDbSavedByObjectVersion
1070
     0
  0
VISUALSTYLE
  5
3B
102
{ACAD_XDICTIONARY
360
12A
102
}
102
{ACAD_REACTORS
330
29
102
}
330
29
100
AcDbVisualStyle
  2
Sketchy
 70
    24
177
     2
291
     0
 71
     1
176
     1
 72
     2
176
     1
 73
     2
176
     1
 90
        0
176
     1
 40
0.6
176
     1
 41
30.0
176
     1
 63
     7
421
 16777215
176
     1
 74
     2
176
     1
 91
        2
176
     1
 64
     7
176
     1
 65
     7
176
     1
 75
     1
176
     1
175
     1
176
     1
 42
40.0
176
     1
 92
       11
176
     1
 66
     7
176
     1
 43
1.0
176
     1
 76
     1
176
     1
 77
     6
176
     1
 78
     2
176
     1
 67
     7
176
     1
 79
     6
176
     1
170
     0
176
     1
171
     0
176
     1
290
     0
176
     1
 93
        1
176
     1
 44
0.0
176
     1
173
     0
176
     1
1001
ACAD
1000
AcDbSavedByObjectVersion
1070
     0
  0
VISUALSTYLE
  5
36
102
{ACAD_XDICTIONARY
360
120
102
}
102
{ACAD_REACTORS
330
29
102
}
330
29
100
AcDbVisualStyle
  2
Thicken
 70
    13
177
     2
291
     1
 71
     2
176
     1
 72
     2
176
     1
 73
     0
176
     1
 90
        0
176
     1
 40
0.6
176
     1
 41
30.0
176
     1
 63
     7
421
 16777215
176
     1
 74
     1
176
     1
 91
        4
176
     1
 64
     7
176
     1
 65
   257
176
     1
 75
     1
176
     1
175
     1
176
     1
 42
1.0
176
     1
 92
       12
176
     1
 66
     7
176
     1
 43
1.0
176
     1
 76
     1
176
     1
 77
     6
176
     1
 78
     2
176
     1
 67
     7
176
     1
 79
     5
176
     1
170
     0
176
     1
171
     0
176
     1
290
     0
176
     1
 93
        1
176
     1
 44
0.0
176
     1
173
     0
176
     1
1001
ACAD
1000
AcDbSavedByObjectVersion
1070
     0
  0
VISUALSTYLE
  5
30
102
{ACAD_XDICTIONARY
360
114
102
}
102
{ACAD_REACTORS
330
29
102
}
330
29
100
AcDbVisualStyle
  2
Wireframe
 70
     5
177
     2
291
     0
 71
     0
176
     1
 72
     2
176
     1
 73
     0
176
     1
 90
        0
176
     1
 40
0.6
176
     1
 41
30.0
176
     1
 63
     7
421
 16777215
176
     1
 74
     1
176
     1
 91
        4
176
     1
 64
     7
176
     1
 65
   257
176
     1
 75
     1
176
     1
175
     1
176
     1
 42
1.0
176
     1
 92
        0
176
     1
 66
   257
176
     1
 43
1.0
176
     1
 76
     1
176
     1
 77
     6
176
     1
 78
     2
176
     1
 67
     7
176
     1
 79
     3
176
     1
170
     0
176
     1
171
     0
176
     1
290
     0
176
     1
 93
        1
176
     1
 44
0.0
176
     1
173
     0
176
     1
1001
ACAD
1000
AcDbSavedByObjectVersion
1070
     0
  0
VISUALSTYLE
  5
3C
102
{ACAD_XDICTIONARY
360
12C
102
}
102
{ACAD_REACTORS
330
29
102
}
330
29
100
AcDbVisualStyle
  2
X-Ray
 70
    25
177
     2
291
     0
 71
     2
176
     1
 72
     2
176
     1
 73
     1
176
     1
 90
        1
176
     1
 40
0.5
176
     1
 41
30.0
176
     1
 63
     7
421
 16777215
176
     1
 74
     1
176
     1
 91
        0
176
     1
 64
     7
176
     1
 65
   257
176
     1
 75
     1
176
     1
175
     1
176
     1
 42
1.0
176
     1
 92
        8
176
     1
 66
     7
176
     1
 43
1.0
176
     1
 76
     1
176
     1
 77
     6
176
     1
 78
     2
176
     1
 67
     7
176
     1
 79
     3
176
     1
170
     0
176
     1
171
     0
176
     1
290
     0
176
     1
 93
       13
176
     1
 44
0.0
176
     1
173
     0
176
     1
1001
ACAD
1000
AcDbSavedByObjectVersion
1070
     0
  0
DICTIONARYVAR
  5
101
102
{ACAD_REACTORS
330
FC
102
}
330
FC
100
DictionaryVariables
280
     0
  1
1:1
  0
DICTIONARYVAR
  5
FE
102
{ACAD_REACTORS
330
FC
102
}
330
FC
100
DictionaryVariables
280
     0
  1
STANDARD
  0
DICTIONARYVAR
  5
FD
102
{ACAD_REACTORS
330
FC
102
}
330
FC
100
DictionaryVariables
280
     0
  1
STANDARD
  0
DICTIONARYVAR
  5
FF
102
{ACAD_REACTORS
330
FC
102
}
330
FC
100
DictionaryVariables
280
     0
  1
Imperial24
  0
DICTIONARYVAR
  5
100
102
{ACAD_REACTORS
330
FC
102
}
330
FC
100
DictionaryVariables
280
     0
  1
Imperial24
  0
DICTIONARY
  5
13C
330
6B
100
AcDbDictionary
280
     1
281
     1
  3
ACAD_XREC_ROUNDTRIP
360
13D
  0
DICTIONARY
  5
1A
330
19
100
AcDbDictionary
280
     1
281
     1
  3
BUMPTILE
360
1C
  3
DIFFUSETILE
360
1B
  3
OPACITYTILE
360
1F
  3
REFLECTIONTILE
360
1E
  3
REFRACTIONTILE
360
20
  3
SPECULARTILE
360
1D
  0
DICTIONARY
  5
12
330
11
100
AcDbDictionary
280
     1
281
     1
  3
BUMPTILE
360
14
  3
DIFFUSETILE
360
13
  3
OPACITYTILE
360
17
  3
REFLECTIONTILE
360
16
  3
REFRACTIONTILE
360
18
  3
SPECULARTILE
360
15
  0
DICTIONARY
  5
22
330
21
100
AcDbDictionary
280
     1
281
     1
  3
BUMPTILE
360
24
  3
DIFFUSETILE
360
23
  3
OPACITYTILE
360
27
  3
REFLECTIONTILE
360
26
  3
REFRACTIONTILE
360
28
  3
SPECULARTILE
360
25
  0
DICTIONARY
  5
138
330
67
100
AcDbDictionary
280
     1
281
     1
  3
ACAD_XREC_ROUNDTRIP
360
139
  0
DICTIONARY
  5
13A
330
69
100
AcDbDictionary
280
     1
281
     1
  3
ACAD_XREC_ROUNDTRIP
360
13B
  0
DICTIONARY
  5
102
330
65
100
AcDbDictionary
280
     1
281
     1
  3
ACAD_ROUNDTRIP_2008_TABLESTYLE_CELLSTYLEMAP
360
103
  0
DICTIONARY
  5
112
330
2F
100
AcDbDictionary
280
     1
281
     1
  3
ACAD_XREC_ROUNDTRIP
360
113
  0
DICTIONARY
  5
110
330
2E
100
AcDbDictionary
280
     1
281
     1
  3
ACAD_XREC_ROUNDTRIP
360
111
  0
DICTIONARY
  5
11E
330
35
100
AcDbDictionary
280
     1
281
     1
  3
ACAD_XREC_ROUNDTRIP
360
11F
  0
DICTIONARY
  5
126
330
39
100
AcDbDictionary
280
     1
281
     1
  3
ACAD_XREC_ROUNDTRIP
360
127
  0
DICTIONARY
  5
118
330
32
100
AcDbDictionary
280
     1
281
     1
  3
ACAD_XREC_ROUNDTRIP
360
119
  0
DICTIONARY
  5
11C
330
34
100
AcDbDictionary
280
     1
281
     1
  3
ACAD_XREC_ROUNDTRIP
360
11D
  0
DICTIONARY
  5
136
330
41
100
AcDbDictionary
280
     1
281
     1
  3
ACAD_XREC_ROUNDTRIP
360
137
  0
DICTIONARY
  5
124
330
38
100
AcDbDictionary
280
     1
281
     1
  3
ACAD_XREC_ROUNDTRIP
360
125
  0
DICTIONARY
  5
108
330
2A
100
AcDbDictionary
280
     1
281
     1
  3
ACAD_XREC_ROUNDTRIP
360
109
  0
DICTIONARY
  5
10A
330
2B
100
AcDbDictionary
280
     1
281
     1
  3
ACAD_XREC_ROUNDTRIP
360
10B
  0
DICTIONARY
  5
10C
330
2C
100
AcDbDictionary
280
     1
281
     1
  3
ACAD_XREC_ROUNDTRIP
360
10D
  0
DICTIONARY
  5
10E
330
2D
100
AcDbDictionary
280
     1
281
     1
  3
ACAD_XREC_ROUNDTRIP
360
10F
  0
DICTIONARY
  5
116
330
31
100
AcDbDictionary
280
     1
281
     1
  3
ACAD_XREC_ROUNDTRIP
360
117
  0
DICTIONARY
  5
132
330
3F
100
AcDbDictionary
280
     1
281
     1
  3
ACAD_XREC_ROUNDTRIP
360
133
  0
DICTIONARY
  5
122
330
37
100
AcDbDictionary
280
     1
281
     1
  3
ACAD_XREC_ROUNDTRIP
360
123
  0
DICTIONARY
  5
134
330
40
100
AcDbDictionary
280
     1
281
     1
  3
ACAD_XREC_ROUNDTRIP
360
135
  0
DICTIONARY
  5
11A
330
33
100
AcDbDictionary
280
     1
281
     1
  3
ACAD_XREC_ROUNDTRIP
360
11B
  0
DICTIONARY
  5
130
330
3E
100
AcDbDictionary
280
     1
281
     1
  3
ACAD_XREC_ROUNDTRIP
360
131
  0
DICTIONARY
  5
12E
330
3D
100
AcDbDictionary
280
     1
281
     1
  3
ACAD_XREC_ROUNDTRIP
360
12F
  0
DICTIONARY
  5
128
330
3A
100
AcDbDictionary
280
     1
281
     1
  3
ACAD_XREC_ROUNDTRIP
360
129
  0
DICTIONARY
  5
12A
330
3B
100
AcDbDictionary
280
     1
281
     1
  3
ACAD_XREC_ROUNDTRIP
360
12B
  0
DICTIONARY
  5
120
330
36
100
AcDbDictionary
280
     1
281
     1
  3
ACAD_XREC_ROUNDTRIP
360
121
  0
DICTIONARY
  5
114
330
30
100
AcDbDictionary
280
     1
281
     1
  3
ACAD_XREC_ROUNDTRIP
360
115
  0
DICTIONARY
  5
12C
330
3C
100
AcDbDictionary
280
     1
281
     1
  3
ACAD_XREC_ROUNDTRIP
360
12D
  0
XRECORD
  5
13D
102
{ACAD_REACTORS
330
13C
102
}
330
13C
100
AcDbXrecord
280
     1
102
DISPLAYNAME
  1
Imperial24
102
FLAGS
 90
        0
  0
XRECORD
  5
1C
102
{ACAD_REACTORS
330
1A
102
}
330
1A
100
AcDbXrecord
280
     1
270
     1
271
     1
  0
XRECORD
  5
1B
102
{ACAD_REACTORS
330
1A
102
}
330
1A
100
AcDbXrecord
280
     1
270
     1
271
     1
  0
XRECORD
  5
1F
102
{ACAD_REACTORS
330
1A
102
}
330
1A
100
AcDbXrecord
280
     1
270
     1
271
     1
  0
XRECORD
  5
1E
102
{ACAD_REACTORS
330
1A
102
}
330
1A
100
AcDbXrecord
280
     1
270
     1
271
     1
  0
XRECORD
  5
20
102
{ACAD_REACTORS
330
1A
102
}
330
1A
100
AcDbXrecord
280
     1
270
     1
271
     1
  0
XRECORD
  5
1D
102
{ACAD_REACTORS
330
1A
102
}
330
1A
100
AcDbXrecord
280
     1
270
     1
271
     1
  0
XRECORD
  5
14
102
{ACAD_REACTORS
330
12
102
}
330
12
100
AcDbXrecord
280
     1
270
     1
271
     1
  0
XRECORD
  5
13
102
{ACAD_REACTORS
330
12
102
}
330
12
100
AcDbXrecord
280
     1
270
     1
271
     1
  0
XRECORD
  5
17
102
{ACAD_REACTORS
330
12
102
}
330
12
100
AcDbXrecord
280
     1
270
     1
271
     1
  0
XRECORD
  5
16
102
{ACAD_REACTORS
330
12
102
}
330
12
100
AcDbXrecord
280
     1
270
     1
271
     1
  0
XRECORD
  5
18
102
{ACAD_REACTORS
330
12
102
}
330
12
100
AcDbXrecord
280
     1
270
     1
271
     1
  0
XRECORD
  5
15
102
{ACAD_REACTORS
330
12
102
}
330
12
100
AcDbXrecord
280
     1
270
     1
271
     1
  0
XRECORD
  5
24
102
{ACAD_REACTORS
330
22
102
}
330
22
100
AcDbXrecord
280
     1
270
     1
271
     1
  0
XRECORD
  5
23
102
{ACAD_REACTORS
330
22
102
}
330
22
100
AcDbXrecord
280
     1
270
     1
271
     1
  0
XRECORD
  5
27
102
{ACAD_REACTORS
330
22
102
}
330
22
100
AcDbXrecord
280
     1
270
     1
271
     1
  0
XRECORD
  5
26
102
{ACAD_REACTORS
330
22
102
}
330
22
100
AcDbXrecord
280
     1
270
     1
271
     1
  0
XRECORD
  5
28
102
{ACAD_REACTORS
330
22
102
}
330
22
100
AcDbXrecord
280
     1
270
     1
271
     1
  0
XRECORD
  5
25
102
{ACAD_REACTORS
330
22
102
}
330
22
100
AcDbXrecord
280
     1
270
     1
271
     1
  0
XRECORD
  5
139
102
{ACAD_REACTORS
330
138
102
}
330
138
100
AcDbXrecord
280
     1
102
ACAD_ROUNDTRIP_2012_MLEADER_STYLE
298
     1
  0
XRECORD
  5
13B
102
{ACAD_REACTORS
330
13A
102
}
330
13A
100
AcDbXrecord
280
     1
102
DISPLAYNAME
  1
Imperial24
102
FLAGS
 90
        0
  0
CELLSTYLEMAP
  5
103
102
{ACAD_REACTORS
330
102
102
}
330
102
100
AcDbCellStyleMap
 90
        3
300
CELLSTYLE
  1
TABLEFORMAT_BEGIN
 90
        5
170
     1
 91
        0
 92
    32768
 62
   257
 93
        1
300
CONTENTFORMAT
  1
CONTENTFORMAT_BEGIN
 90
        0
 91
        0
 92
      512
 93
        0
300

 40
0.0
140
1.0
 94
        5
 62
     0
340
55
144
0.25
309
CONTENTFORMAT_END
171
     0
 94
        0
309
TABLEFORMAT_END
  1
CELLSTYLE_BEGIN
 90
        1
 91
        1
300
_TITLE
309
CELLSTYLE_END
300
CELLSTYLE
  1
TABLEFORMAT_BEGIN
 90
        5
170
     1
 91
        0
 92
        0
 62
   257
 93
        1
300
CONTENTFORMAT
  1
CONTENTFORMAT_BEGIN
 90
        0
 91
        0
 92
      512
 93
        0
300

 40
0.0
140
1.0
 94
        5
 62
     0
340
55
144
0.18
309
CONTENTFORMAT_END
171
     0
 94
        0
309
TABLEFORMAT_END
  1
CELLSTYLE_BEGIN
 90
        2
 91
        1
300
_HEADER
309
CELLSTYLE_END
300
CELLSTYLE
  1
TABLEFORMAT_BEGIN
 90
        5
170
     1
 91
        0
 92
        0
 62
   257
 93
        1
300
CONTENTFORMAT
  1
CONTENTFORMAT_BEGIN
 90
        0
 91
        0
 92
      512
 93
        0
300

 40
0.0
140
1.0
 94
        2
 62
     0
340
55
144
0.18
309
CONTENTFORMAT_END
171
     0
 94
        0
309
TABLEFORMAT_END
  1
CELLSTYLE_BEGIN
 90
        3
 91
        2
300
_DATA
309
CELLSTYLE_END
  0
XRECORD
  5
113
102
{ACAD_REACTORS
330
112
102
}
330
112
100
AcDbXrecord
280
     1
102
RTVSPost2010Prop28
280
     1
102
RTVSPost2010PropOp28
 70
     1
102
RTVSPost2010Prop29
280
     1
102
RTVSPost2010PropOp29
 70
     1
102
RTVSPost2010Prop30
280
     0
102
RTVSPost2010PropOp30
 70
     1
102
RTVSPost2010Prop31
280
     0
102
RTVSPost2010PropOp31
 70
     1
102
RTVSPost2010Prop32
280
     0
102
RTVSPost2010PropOp32
 70
     1
102
RTVSPost2010Prop33
280
     0
102
RTVSPost2010PropOp33
 70
     1
102
RTVSPost2010Prop34
280
     0
102
RTVSPost2010PropOp34
 70
     1
102
RTVSPost2010Prop35
280
     0
102
RTVSPost2010PropOp35
 70
     1
102
RTVSPost2010Prop36
280
     0
102
RTVSPost2010PropOp36
 70
     1
102
RTVSPost2010Prop37
 90
       50
102
RTVSPost2010PropOp37
 70
     1
102
RTVSPost2010Prop38
140
0.0
102
RTVSPost2010PropOp38
 70
     1
102
RTVSPost2010Prop39
140
1.0
102
RTVSPost2010PropOp39
 70
     1
102
RTVSPost2010Prop40
 90
        0
102
RTVSPost2010PropOp40
 70
     1
102
RTVSPost2010Prop41ColorIndex
 90
       18
102
RTVSPost2010Prop41ColorRGB
 90
        0
102
RTVSPost2010PropOp41
 70
     1
102
RTVSPost2010Prop42
 90
       50
102
RTVSPost2010PropOp42
 70
     1
102
RTVSPost2010Prop43
 90
        3
102
RTVSPost2010PropOp43
 70
     1
102
RTVSPost2010Prop44ColorIndex
 90
        5
102
RTVSPost2010Prop44ColorRGB
 90
      255
102
RTVSPost2010PropOp44
 70
     1
102
RTVSPost2010Prop45
280
     0
102
RTVSPost2010PropOp45
 70
     1
102
RTVSPost2010Prop46
 90
       50
102
RTVSPost2010PropOp46
 70
     1
102
RTVSPost2010Prop47
 90
       50
102
RTVSPost2010PropOp47
 70
     1
102
RTVSPost2010Prop48
 90
       50
102
RTVSPost2010PropOp48
 70
     1
102
RTVSPost2010Prop49
280
     0
102
RTVSPost2010PropOp49
 70
     1
102
RTVSPost2010Prop50
 90
       50
102
RTVSPost2010PropOp50
 70
     1
102
RTVSPost2010Prop51ColorIndex
 90
      256
102
RTVSPost2010Prop51ColorRGB
 90
-16777216
102
RTVSPost2010PropOp51
 70
     0
102
RTVSPost2010Prop52
140
1.0
102
RTVSPost2010PropOp52
 70
     0
102
RTVSPost2010Prop53
 90
        2
102
RTVSPost2010PropOp53
 70
     1
102
RTVSPost2010Prop54
  1
strokes_ogs.tif
102
RTVSPost2010PropOp54
 70
     1
102
RTVSPost2010Prop55
280
     0
102
RTVSPost2010PropOp55
 70
     1
102
RTVSPost2010Prop56
140
1.0
102
RTVSPost2010PropOp56
 70
     1
102
RTVSPost2010Prop57
140
1.0
102
RTVSPost2010PropOp57
 70
     1
  0
XRECORD
  5
111
102
{ACAD_REACTORS
330
110
102
}
330
110
100
AcDbXrecord
280
     1
102
RTVSPost2010Prop28
280
     0
102
RTVSPost2010PropOp28
 70
     1
102
RTVSPost2010Prop29
280
     1
102
RTVSPost2010PropOp29
 70
     1
102
RTVSPost2010Prop30
280
     1
102
RTVSPost2010PropOp30
 70
     1
102
RTVSPost2010Prop31
280
     0
102
RTVSPost2010PropOp31
 70
     1
102
RTVSPost2010Prop32
280
     0
102
RTVSPost2010PropOp32
 70
     1
102
RTVSPost2010Prop33
280
     0
102
RTVSPost2010PropOp33
 70
     1
102
RTVSPost2010Prop34
280
     0
102
RTVSPost2010PropOp34
 70
     1
102
RTVSPost2010Prop35
280
     0
102
RTVSPost2010PropOp35
 70
     1
102
RTVSPost2010Prop36
280
     0
102
RTVSPost2010PropOp36
 70
     1
102
RTVSPost2010Prop37
 90
       50
102
RTVSPost2010PropOp37
 70
     1
102
RTVSPost2010Prop38
140
0.0
102
RTVSPost2010PropOp38
 70
     1
102
RTVSPost2010Prop39
140
1.0
102
RTVSPost2010PropOp39
 70
     1
102
RTVSPost2010Prop40
 90
        0
102
RTVSPost2010PropOp40
 70
     1
102
RTVSPost2010Prop41ColorIndex
 90
       18
102
RTVSPost2010Prop41ColorRGB
 90
        0
102
RTVSPost2010PropOp41
 70
     1
102
RTVSPost2010Prop42
 90
       50
102
RTVSPost2010PropOp42
 70
     1
102
RTVSPost2010Prop43
 90
        3
102
RTVSPost2010PropOp43
 70
     1
102
RTVSPost2010Prop44ColorIndex
 90
        5
102
RTVSPost2010Prop44ColorRGB
 90
      255
102
RTVSPost2010PropOp44
 70
     1
102
RTVSPost2010Prop45
280
     0
102
RTVSPost2010PropOp45
 70
     1
102
RTVSPost2010Prop46
 90
       50
102
RTVSPost2010PropOp46
 70
     1
102
RTVSPost2010Prop47
 90
       50
102
RTVSPost2010PropOp47
 70
     1
102
RTVSPost2010Prop48
 90
       50
102
RTVSPost2010PropOp48
 70
     1
102
RTVSPost2010Prop49
280
     0
102
RTVSPost2010PropOp49
 70
     1
102
RTVSPost2010Prop50
 90
       50
102
RTVSPost2010PropOp50
 70
     1
102
RTVSPost2010Prop51ColorIndex
 90
      256
102
RTVSPost2010Prop51ColorRGB
 90
-16777216
102
RTVSPost2010PropOp51
 70
     0
102
RTVSPost2010Prop52
140
1.0
102
RTVSPost2010PropOp52
 70
     0
102
RTVSPost2010Prop53
 90
        2
102
RTVSPost2010PropOp53
 70
     1
102
RTVSPost2010Prop54
  1
strokes_ogs.tif
102
RTVSPost2010PropOp54
 70
     1
102
RTVSPost2010Prop55
280
     0
102
RTVSPost2010PropOp55
 70
     1
102
RTVSPost2010Prop56
140
1.0
102
RTVSPost2010PropOp56
 70
     1
102
RTVSPost2010Prop57
140
1.0
102
RTVSPost2010PropOp57
 70
     1
  0
XRECORD
  5
11F
102
{ACAD_REACTORS
330
11E
102
}
330
11E
100
AcDbXrecord
280
     1
102
RTVSPost2010Prop28
280
     0
102
RTVSPost2010PropOp28
 70
     1
102
RTVSPost2010Prop29
280
     1
102
RTVSPost2010PropOp29
 70
     1
102
RTVSPost2010Prop30
280
     1
102
RTVSPost2010PropOp30
 70
     1
102
RTVSPost2010Prop31
280
     0
102
RTVSPost2010PropOp31
 70
     1
102
RTVSPost2010Prop32
280
     0
102
RTVSPost2010PropOp32
 70
     1
102
RTVSPost2010Prop33
280
     0
102
RTVSPost2010PropOp33
 70
     1
102
RTVSPost2010Prop34
280
     0
102
RTVSPost2010PropOp34
 70
     1
102
RTVSPost2010Prop35
280
     0
102
RTVSPost2010PropOp35
 70
     1
102
RTVSPost2010Prop36
280
     0
102
RTVSPost2010PropOp36
 70
     1
102
RTVSPost2010Prop37
 90
       50
102
RTVSPost2010PropOp37
 70
     1
102
RTVSPost2010Prop38
140
0.0
102
RTVSPost2010PropOp38
 70
     1
102
RTVSPost2010Prop39
140
1.0
102
RTVSPost2010PropOp39
 70
     1
102
RTVSPost2010Prop40
 90
        0
102
RTVSPost2010PropOp40
 70
     1
102
RTVSPost2010Prop41ColorIndex
 90
       18
102
RTVSPost2010Prop41ColorRGB
 90
        0
102
RTVSPost2010PropOp41
 70
     1
102
RTVSPost2010Prop42
 90
       50
102
RTVSPost2010PropOp42
 70
     1
102
RTVSPost2010Prop43
 90
        3
102
RTVSPost2010PropOp43
 70
     1
102
RTVSPost2010Prop44ColorIndex
 90
        5
102
RTVSPost2010Prop44ColorRGB
 90
      255
102
RTVSPost2010PropOp44
 70
     1
102
RTVSPost2010Prop45
280
     0
102
RTVSPost2010PropOp45
 70
     1
102
RTVSPost2010Prop46
 90
       50
102
RTVSPost2010PropOp46
 70
     1
102
RTVSPost2010Prop47
 90
       50
102
RTVSPost2010PropOp47
 70
     1
102
RTVSPost2010Prop48
 90
       50
102
RTVSPost2010PropOp48
 70
     1
102
RTVSPost2010Prop49
280
     0
102
RTVSPost2010PropOp49
 70
     1
102
RTVSPost2010Prop50
 90
       50
102
RTVSPost2010PropOp50
 70
     1
102
RTVSPost2010Prop51ColorIndex
 90
      256
102
RTVSPost2010Prop51ColorRGB
 90
-16777216
102
RTVSPost2010PropOp51
 70
     0
102
RTVSPost2010Prop52
140
1.0
102
RTVSPost2010PropOp52
 70
     0
102
RTVSPost2010Prop53
 90
        2
102
RTVSPost2010PropOp53
 70
     1
102
RTVSPost2010Prop54
  1
strokes_ogs.tif
102
RTVSPost2010PropOp54
 70
     1
102
RTVSPost2010Prop55
280
     0
102
RTVSPost2010PropOp55
 70
     1
102
RTVSPost2010Prop56
140
1.0
102
RTVSPost2010PropOp56
 70
     1
102
RTVSPost2010Prop57
140
1.0
102
RTVSPost2010PropOp57
 70
     1
  0
XRECORD
  5
127
102
{ACAD_REACTORS
330
126
102
}
330
126
100
AcDbXrecord
280
     1
102
RTVSPost2010Prop28
280
     0
102
RTVSPost2010PropOp28
 70
     1
102
RTVSPost2010Prop29
280
     1
102
RTVSPost2010PropOp29
 70
     1
102
RTVSPost2010Prop30
280
     1
102
RTVSPost2010PropOp30
 70
     1
102
RTVSPost2010Prop31
280
     0
102
RTVSPost2010PropOp31
 70
     1
102
RTVSPost2010Prop32
280
     0
102
RTVSPost2010PropOp32
 70
     1
102
RTVSPost2010Prop33
280
     0
102
RTVSPost2010PropOp33
 70
     1
102
RTVSPost2010Prop34
280
     0
102
RTVSPost2010PropOp34
 70
     1
102
RTVSPost2010Prop35
280
     0
102
RTVSPost2010PropOp35
 70
     1
102
RTVSPost2010Prop36
280
     0
102
RTVSPost2010PropOp36
 70
     1
102
RTVSPost2010Prop37
 90
       50
102
RTVSPost2010PropOp37
 70
     1
102
RTVSPost2010Prop38
140
0.0
102
RTVSPost2010PropOp38
 70
     1
102
RTVSPost2010Prop39
140
1.0
102
RTVSPost2010PropOp39
 70
     1
102
RTVSPost2010Prop40
 90
        0
102
RTVSPost2010PropOp40
 70
     1
102
RTVSPost2010Prop41ColorIndex
 90
       18
102
RTVSPost2010Prop41ColorRGB
 90
        0
102
RTVSPost2010PropOp41
 70
     1
102
RTVSPost2010Prop42
 90
       50
102
RTVSPost2010PropOp42
 70
     1
102
RTVSPost2010Prop43
 90
        3
102
RTVSPost2010PropOp43
 70
     1
102
RTVSPost2010Prop44ColorIndex
 90
        5
102
RTVSPost2010Prop44ColorRGB
 90
      255
102
RTVSPost2010PropOp44
 70
     1
102
RTVSPost2010Prop45
280
     0
102
RTVSPost2010PropOp45
 70
     1
102
RTVSPost2010Prop46
 90
       50
102
RTVSPost2010PropOp46
 70
     1
102
RTVSPost2010Prop47
 90
       50
102
RTVSPost2010PropOp47
 70
     1
102
RTVSPost2010Prop48
 90
       50
102
RTVSPost2010PropOp48
 70
     1
102
RTVSPost2010Prop49
280
     0
102
RTVSPost2010PropOp49
 70
     1
102
RTVSPost2010Prop50
 90
       50
102
RTVSPost2010PropOp50
 70
     1
102
RTVSPost2010Prop51ColorIndex
 90
      256
102
RTVSPost2010Prop51ColorRGB
 90
-16777216
102
RTVSPost2010PropOp51
 70
     0
102
RTVSPost2010Prop52
140
1.0
102
RTVSPost2010PropOp52
 70
     0
102
RTVSPost2010Prop53
 90
        2
102
RTVSPost2010PropOp53
 70
     1
102
RTVSPost2010Prop54
  1
strokes_ogs.tif
102
RTVSPost2010PropOp54
 70
     1
102
RTVSPost2010Prop55
280
     0
102
RTVSPost2010PropOp55
 70
     1
102
RTVSPost2010Prop56
140
1.0
102
RTVSPost2010PropOp56
 70
     1
102
RTVSPost2010Prop57
140
1.0
102
RTVSPost2010PropOp57
 70
     1
  0
XRECORD
  5
119
102
{ACAD_REACTORS
330
118
102
}
330
118
100
AcDbXrecord
280
     1
102
RTVSPost2010Prop28
280
     0
102
RTVSPost2010PropOp28
 70
     1
102
RTVSPost2010Prop29
280
     1
102
RTVSPost2010PropOp29
 70
     1
102
RTVSPost2010Prop30
280
     1
102
RTVSPost2010PropOp30
 70
     1
102
RTVSPost2010Prop31
280
     0
102
RTVSPost2010PropOp31
 70
     1
102
RTVSPost2010Prop32
280
     0
102
RTVSPost2010PropOp32
 70
     1
102
RTVSPost2010Prop33
280
     0
102
RTVSPost2010PropOp33
 70
     1
102
RTVSPost2010Prop34
280
     0
102
RTVSPost2010PropOp34
 70
     1
102
RTVSPost2010Prop35
280
     0
102
RTVSPost2010PropOp35
 70
     1
102
RTVSPost2010Prop36
280
     0
102
RTVSPost2010PropOp36
 70
     1
102
RTVSPost2010Prop37
 90
       50
102
RTVSPost2010PropOp37
 70
     1
102
RTVSPost2010Prop38
140
0.0
102
RTVSPost2010PropOp38
 70
     1
102
RTVSPost2010Prop39
140
1.0
102
RTVSPost2010PropOp39
 70
     1
102
RTVSPost2010Prop40
 90
        0
102
RTVSPost2010PropOp40
 70
     1
102
RTVSPost2010Prop41ColorIndex
 90
       18
102
RTVSPost2010Prop41ColorRGB
 90
        0
102
RTVSPost2010PropOp41
 70
     1
102
RTVSPost2010Prop42
 90
       50
102
RTVSPost2010PropOp42
 70
     1
102
RTVSPost2010Prop43
 90
        3
102
RTVSPost2010PropOp43
 70
     1
102
RTVSPost2010Prop44ColorIndex
 90
        5
102
RTVSPost2010Prop44ColorRGB
 90
      255
102
RTVSPost2010PropOp44
 70
     1
102
RTVSPost2010Prop45
280
     0
102
RTVSPost2010PropOp45
 70
     1
102
RTVSPost2010Prop46
 90
       50
102
RTVSPost2010PropOp46
 70
     1
102
RTVSPost2010Prop47
 90
       50
102
RTVSPost2010PropOp47
 70
     1
102
RTVSPost2010Prop48
 90
       50
102
RTVSPost2010PropOp48
 70
     1
102
RTVSPost2010Prop49
280
     0
102
RTVSPost2010PropOp49
 70
     1
102
RTVSPost2010Prop50
 90
       50
102
RTVSPost2010PropOp50
 70
     1
102
RTVSPost2010Prop51ColorIndex
 90
      256
102
RTVSPost2010Prop51ColorRGB
 90
-16777216
102
RTVSPost2010PropOp51
 70
     0
102
RTVSPost2010Prop52
140
1.0
102
RTVSPost2010PropOp52
 70
     0
102
RTVSPost2010Prop53
 90
        2
102
RTVSPost2010PropOp53
 70
     1
102
RTVSPost2010Prop54
  1
strokes_ogs.tif
102
RTVSPost2010PropOp54
 70
     1
102
RTVSPost2010Prop55
280
     0
102
RTVSPost2010PropOp55
 70
     1
102
RTVSPost2010Prop56
140
1.0
102
RTVSPost2010PropOp56
 70
     1
102
RTVSPost2010Prop57
140
1.0
102
RTVSPost2010PropOp57
 70
     1
  0
XRECORD
  5
11D
102
{ACAD_REACTORS
330
11C
102
}
330
11C
100
AcDbXrecord
280
     1
102
RTVSPost2010Prop28
280
     0
102
RTVSPost2010PropOp28
 70
     1
102
RTVSPost2010Prop29
280
     1
102
RTVSPost2010PropOp29
 70
     1
102
RTVSPost2010Prop30
280
     1
102
RTVSPost2010PropOp30
 70
     1
102
RTVSPost2010Prop31
280
     0
102
RTVSPost2010PropOp31
 70
     1
102
RTVSPost2010Prop32
280
     0
102
RTVSPost2010PropOp32
 70
     1
102
RTVSPost2010Prop33
280
     0
102
RTVSPost2010PropOp33
 70
     1
102
RTVSPost2010Prop34
280
     0
102
RTVSPost2010PropOp34
 70
     1
102
RTVSPost2010Prop35
280
     0
102
RTVSPost2010PropOp35
 70
     1
102
RTVSPost2010Prop36
280
     0
102
RTVSPost2010PropOp36
 70
     1
102
RTVSPost2010Prop37
 90
       50
102
RTVSPost2010PropOp37
 70
     1
102
RTVSPost2010Prop38
140
0.0
102
RTVSPost2010PropOp38
 70
     1
102
RTVSPost2010Prop39
140
1.0
102
RTVSPost2010PropOp39
 70
     1
102
RTVSPost2010Prop40
 90
        0
102
RTVSPost2010PropOp40
 70
     1
102
RTVSPost2010Prop41ColorIndex
 90
       18
102
RTVSPost2010Prop41ColorRGB
 90
        0
102
RTVSPost2010PropOp41
 70
     1
102
RTVSPost2010Prop42
 90
       50
102
RTVSPost2010PropOp42
 70
     1
102
RTVSPost2010Prop43
 90
        3
102
RTVSPost2010PropOp43
 70
     1
102
RTVSPost2010Prop44ColorIndex
 90
        5
102
RTVSPost2010Prop44ColorRGB
 90
      255
102
RTVSPost2010PropOp44
 70
     1
102
RTVSPost2010Prop45
280
     0
102
RTVSPost2010PropOp45
 70
     1
102
RTVSPost2010Prop46
 90
       50
102
RTVSPost2010PropOp46
 70
     1
102
RTVSPost2010Prop47
 90
       50
102
RTVSPost2010PropOp47
 70
     1
102
RTVSPost2010Prop48
 90
       50
102
RTVSPost2010PropOp48
 70
     1
102
RTVSPost2010Prop49
280
     0
102
RTVSPost2010PropOp49
 70
     1
102
RTVSPost2010Prop50
 90
       50
102
RTVSPost2010PropOp50
 70
     1
102
RTVSPost2010Prop51ColorIndex
 90
      256
102
RTVSPost2010Prop51ColorRGB
 90
-16777216
102
RTVSPost2010PropOp51
 70
     0
102
RTVSPost2010Prop52
140
1.0
102
RTVSPost2010PropOp52
 70
     0
102
RTVSPost2010Prop53
 90
        2
102
RTVSPost2010PropOp53
 70
     1
102
RTVSPost2010Prop54
  1
strokes_ogs.tif
102
RTVSPost2010PropOp54
 70
     1
102
RTVSPost2010Prop55
280
     0
102
RTVSPost2010PropOp55
 70
     1
102
RTVSPost2010Prop56
140
1.0
102
RTVSPost2010PropOp56
 70
     1
102
RTVSPost2010Prop57
140
1.0
102
RTVSPost2010PropOp57
 70
     1
  0
XRECORD
  5
137
102
{ACAD_REACTORS
330
136
102
}
330
136
100
AcDbXrecord
280
     1
102
RTVSPost2010Prop28
280
     0
102
RTVSPost2010PropOp28
 70
     0
102
RTVSPost2010Prop29
280
     1
102
RTVSPost2010PropOp29
 70
     0
102
RTVSPost2010Prop30
280
     1
102
RTVSPost2010PropOp30
 70
     0
102
RTVSPost2010Prop31
280
     0
102
RTVSPost2010PropOp31
 70
     0
102
RTVSPost2010Prop32
280
     0
102
RTVSPost2010PropOp32
 70
     0
102
RTVSPost2010Prop33
280
     0
102
RTVSPost2010PropOp33
 70
     0
102
RTVSPost2010Prop34
280
     0
102
RTVSPost2010PropOp34
 70
     0
102
RTVSPost2010Prop35
280
     0
102
RTVSPost2010PropOp35
 70
     0
102
RTVSPost2010Prop36
280
     0
102
RTVSPost2010PropOp36
 70
     0
102
RTVSPost2010Prop37
 90
       50
102
RTVSPost2010PropOp37
 70
     0
102
RTVSPost2010Prop38
140
0.0
102
RTVSPost2010PropOp38
 70
     0
102
RTVSPost2010Prop39
140
1.0
102
RTVSPost2010PropOp39
 70
     0
102
RTVSPost2010Prop40
 90
        0
102
RTVSPost2010PropOp40
 70
     0
102
RTVSPost2010Prop41ColorIndex
 90
       18
102
RTVSPost2010Prop41ColorRGB
 90
        0
102
RTVSPost2010PropOp41
 70
     0
102
RTVSPost2010Prop42
 90
       50
102
RTVSPost2010PropOp42
 70
     0
102
RTVSPost2010Prop43
 90
        3
102
RTVSPost2010PropOp43
 70
     0
102
RTVSPost2010Prop44ColorIndex
 90
        5
102
RTVSPost2010Prop44ColorRGB
 90
      255
102
RTVSPost2010PropOp44
 70
     0
102
RTVSPost2010Prop45
280
     0
102
RTVSPost2010PropOp45
 70
     0
102
RTVSPost2010Prop46
 90
       50
102
RTVSPost2010PropOp46
 70
     0
102
RTVSPost2010Prop47
 90
       50
102
RTVSPost2010PropOp47
 70
     0
102
RTVSPost2010Prop48
 90
       50
102
RTVSPost2010PropOp48
 70
     0
102
RTVSPost2010Prop49
280
     0
102
RTVSPost2010PropOp49
 70
     0
102
RTVSPost2010Prop50
 90
       50
102
RTVSPost2010PropOp50
 70
     0
102
RTVSPost2010Prop51ColorIndex
 90
      256
102
RTVSPost2010Prop51ColorRGB
 90
-16777216
102
RTVSPost2010PropOp51
 70
     0
102
RTVSPost2010Prop52
140
1.0
102
RTVSPost2010PropOp52
 70
     0
102
RTVSPost2010Prop53
 90
        2
102
RTVSPost2010PropOp53
 70
     0
102
RTVSPost2010Prop54
  1
strokes_ogs.tif
102
RTVSPost2010PropOp54
 70
     0
102
RTVSPost2010Prop55
280
     0
102
RTVSPost2010PropOp55
 70
     0
102
RTVSPost2010Prop56
140
1.0
102
RTVSPost2010PropOp56
 70
     0
102
RTVSPost2010Prop57
140
1.0
102
RTVSPost2010PropOp57
 70
     0
  0
XRECORD
  5
125
102
{ACAD_REACTORS
330
124
102
}
330
124
100
AcDbXrecord
280
     1
102
RTVSPost2010Prop28
280
     0
102
RTVSPost2010PropOp28
 70
     1
102
RTVSPost2010Prop29
280
     1
102
RTVSPost2010PropOp29
 70
     1
102
RTVSPost2010Prop30
280
     1
102
RTVSPost2010PropOp30
 70
     1
102
RTVSPost2010Prop31
280
     0
102
RTVSPost2010PropOp31
 70
     1
102
RTVSPost2010Prop32
280
     0
102
RTVSPost2010PropOp32
 70
     1
102
RTVSPost2010Prop33
280
     0
102
RTVSPost2010PropOp33
 70
     1
102
RTVSPost2010Prop34
280
     0
102
RTVSPost2010PropOp34
 70
     1
102
RTVSPost2010Prop35
280
     0
102
RTVSPost2010PropOp35
 70
     1
102
RTVSPost2010Prop36
280
     0
102
RTVSPost2010PropOp36
 70
     1
102
RTVSPost2010Prop37
 90
       50
102
RTVSPost2010PropOp37
 70
     1
102
RTVSPost2010Prop38
140
0.0
102
RTVSPost2010PropOp38
 70
     1
102
RTVSPost2010Prop39
140
1.0
102
RTVSPost2010PropOp39
 70
     1
102
RTVSPost2010Prop40
 90
        0
102
RTVSPost2010PropOp40
 70
     1
102
RTVSPost2010Prop41ColorIndex
 90
       18
102
RTVSPost2010Prop41ColorRGB
 90
        0
102
RTVSPost2010PropOp41
 70
     1
102
RTVSPost2010Prop42
 90
       50
102
RTVSPost2010PropOp42
 70
     1
102
RTVSPost2010Prop43
 90
        3
102
RTVSPost2010PropOp43
 70
     1
102
RTVSPost2010Prop44ColorIndex
 90
        5
102
RTVSPost2010Prop44ColorRGB
 90
      255
102
RTVSPost2010PropOp44
 70
     1
102
RTVSPost2010Prop45
280
     0
102
RTVSPost2010PropOp45
 70
     1
102
RTVSPost2010Prop46
 90
       50
102
RTVSPost2010PropOp46
 70
     1
102
RTVSPost2010Prop47
 90
       50
102
RTVSPost2010PropOp47
 70
     1
102
RTVSPost2010Prop48
 90
       50
102
RTVSPost2010PropOp48
 70
     1
102
RTVSPost2010Prop49
280
     0
102
RTVSPost2010PropOp49
 70
     1
102
RTVSPost2010Prop50
 90
       50
102
RTVSPost2010PropOp50
 70
     1
102
RTVSPost2010Prop51ColorIndex
 90
      256
102
RTVSPost2010Prop51ColorRGB
 90
-16777216
102
RTVSPost2010PropOp51
 70
     0
102
RTVSPost2010Prop52
140
1.0
102
RTVSPost2010PropOp52
 70
     0
102
RTVSPost2010Prop53
 90
        2
102
RTVSPost2010PropOp53
 70
     1
102
RTVSPost2010Prop54
  1
strokes_ogs.tif
102
RTVSPost2010PropOp54
 70
     1
102
RTVSPost2010Prop55
280
     0
102
RTVSPost2010PropOp55
 70
     1
102
RTVSPost2010Prop56
140
1.0
102
RTVSPost2010PropOp56
 70
     1
102
RTVSPost2010Prop57
140
1.0
102
RTVSPost2010PropOp57
 70
     1
  0
XRECORD
  5
109
102
{ACAD_REACTORS
330
108
102
}
330
108
100
AcDbXrecord
280
     1
102
RTVSPost2010Prop28
280
     0
102
RTVSPost2010PropOp28
 70
     1
102
RTVSPost2010Prop29
280
     1
102
RTVSPost2010PropOp29
 70
     1
102
RTVSPost2010Prop30
280
     1
102
RTVSPost2010PropOp30
 70
     1
102
RTVSPost2010Prop31
280
     0
102
RTVSPost2010PropOp31
 70
     1
102
RTVSPost2010Prop32
280
     0
102
RTVSPost2010PropOp32
 70
     1
102
RTVSPost2010Prop33
280
     0
102
RTVSPost2010PropOp33
 70
     1
102
RTVSPost2010Prop34
280
     0
102
RTVSPost2010PropOp34
 70
     1
102
RTVSPost2010Prop35
280
     0
102
RTVSPost2010PropOp35
 70
     1
102
RTVSPost2010Prop36
280
     0
102
RTVSPost2010PropOp36
 70
     1
102
RTVSPost2010Prop37
 90
       50
102
RTVSPost2010PropOp37
 70
     1
102
RTVSPost2010Prop38
140
0.0
102
RTVSPost2010PropOp38
 70
     1
102
RTVSPost2010Prop39
140
1.0
102
RTVSPost2010PropOp39
 70
     1
102
RTVSPost2010Prop40
 90
        0
102
RTVSPost2010PropOp40
 70
     1
102
RTVSPost2010Prop41ColorIndex
 90
       18
102
RTVSPost2010Prop41ColorRGB
 90
        0
102
RTVSPost2010PropOp41
 70
     1
102
RTVSPost2010Prop42
 90
       50
102
RTVSPost2010PropOp42
 70
     1
102
RTVSPost2010Prop43
 90
        3
102
RTVSPost2010PropOp43
 70
     1
102
RTVSPost2010Prop44ColorIndex
 90
        5
102
RTVSPost2010Prop44ColorRGB
 90
      255
102
RTVSPost2010PropOp44
 70
     1
102
RTVSPost2010Prop45
280
     0
102
RTVSPost2010PropOp45
 70
     1
102
RTVSPost2010Prop46
 90
       50
102
RTVSPost2010PropOp46
 70
     1
102
RTVSPost2010Prop47
 90
       50
102
RTVSPost2010PropOp47
 70
     1
102
RTVSPost2010Prop48
 90
       50
102
RTVSPost2010PropOp48
 70
     1
102
RTVSPost2010Prop49
280
     0
102
RTVSPost2010PropOp49
 70
     1
102
RTVSPost2010Prop50
 90
       50
102
RTVSPost2010PropOp50
 70
     1
102
RTVSPost2010Prop51ColorIndex
 90
      256
102
RTVSPost2010Prop51ColorRGB
 90
-16777216
102
RTVSPost2010PropOp51
 70
     0
102
RTVSPost2010Prop52
140
1.0
102
RTVSPost2010PropOp52
 70
     0
102
RTVSPost2010Prop53
 90
        2
102
RTVSPost2010PropOp53
 70
     1
102
RTVSPost2010Prop54
  1
strokes_ogs.tif
102
RTVSPost2010PropOp54
 70
     1
102
RTVSPost2010Prop55
280
     0
102
RTVSPost2010PropOp55
 70
     1
102
RTVSPost2010Prop56
140
1.0
102
RTVSPost2010PropOp56
 70
     1
102
RTVSPost2010Prop57
140
1.0
102
RTVSPost2010PropOp57
 70
     1
  0
XRECORD
  5
10B
102
{ACAD_REACTORS
330
10A
102
}
330
10A
100
AcDbXrecord
280
     1
102
RTVSPost2010Prop28
280
     0
102
RTVSPost2010PropOp28
 70
     1
102
RTVSPost2010Prop29
280
     1
102
RTVSPost2010PropOp29
 70
     1
102
RTVSPost2010Prop30
280
     1
102
RTVSPost2010PropOp30
 70
     1
102
RTVSPost2010Prop31
280
     0
102
RTVSPost2010PropOp31
 70
     1
102
RTVSPost2010Prop32
280
     0
102
RTVSPost2010PropOp32
 70
     1
102
RTVSPost2010Prop33
280
     0
102
RTVSPost2010PropOp33
 70
     1
102
RTVSPost2010Prop34
280
     0
102
RTVSPost2010PropOp34
 70
     1
102
RTVSPost2010Prop35
280
     0
102
RTVSPost2010PropOp35
 70
     1
102
RTVSPost2010Prop36
280
     0
102
RTVSPost2010PropOp36
 70
     1
102
RTVSPost2010Prop37
 90
       50
102
RTVSPost2010PropOp37
 70
     1
102
RTVSPost2010Prop38
140
0.0
102
RTVSPost2010PropOp38
 70
     1
102
RTVSPost2010Prop39
140
1.0
102
RTVSPost2010PropOp39
 70
     1
102
RTVSPost2010Prop40
 90
        0
102
RTVSPost2010PropOp40
 70
     1
102
RTVSPost2010Prop41ColorIndex
 90
       18
102
RTVSPost2010Prop41ColorRGB
 90
        0
102
RTVSPost2010PropOp41
 70
     1
102
RTVSPost2010Prop42
 90
       50
102
RTVSPost2010PropOp42
 70
     1
102
RTVSPost2010Prop43
 90
        3
102
RTVSPost2010PropOp43
 70
     1
102
RTVSPost2010Prop44ColorIndex
 90
        5
102
RTVSPost2010Prop44ColorRGB
 90
      255
102
RTVSPost2010PropOp44
 70
     1
102
RTVSPost2010Prop45
280
     0
102
RTVSPost2010PropOp45
 70
     1
102
RTVSPost2010Prop46
 90
       50
102
RTVSPost2010PropOp46
 70
     1
102
RTVSPost2010Prop47
 90
       50
102
RTVSPost2010PropOp47
 70
     1
102
RTVSPost2010Prop48
 90
       50
102
RTVSPost2010PropOp48
 70
     1
102
RTVSPost2010Prop49
280
     0
102
RTVSPost2010PropOp49
 70
     1
102
RTVSPost2010Prop50
 90
       50
102
RTVSPost2010PropOp50
 70
     1
102
RTVSPost2010Prop51ColorIndex
 90
      256
102
RTVSPost2010Prop51ColorRGB
 90
-16777216
102
RTVSPost2010PropOp51
 70
     0
102
RTVSPost2010Prop52
140
1.0
102
RTVSPost2010PropOp52
 70
     0
102
RTVSPost2010Prop53
 90
        2
102
RTVSPost2010PropOp53
 70
     1
102
RTVSPost2010Prop54
  1
strokes_ogs.tif
102
RTVSPost2010PropOp54
 70
     1
102
RTVSPost2010Prop55
280
     0
102
RTVSPost2010PropOp55
 70
     1
102
RTVSPost2010Prop56
140
1.0
102
RTVSPost2010PropOp56
 70
     1
102
RTVSPost2010Prop57
140
1.0
102
RTVSPost2010PropOp57
 70
     1
  0
XRECORD
  5
10D
102
{ACAD_REACTORS
330
10C
102
}
330
10C
100
AcDbXrecord
280
     1
102
RTVSPost2010Prop28
280
     0
102
RTVSPost2010PropOp28
 70
     1
102
RTVSPost2010Prop29
280
     1
102
RTVSPost2010PropOp29
 70
     1
102
RTVSPost2010Prop30
280
     1
102
RTVSPost2010PropOp30
 70
     1
102
RTVSPost2010Prop31
280
     0
102
RTVSPost2010PropOp31
 70
     1
102
RTVSPost2010Prop32
280
     0
102
RTVSPost2010PropOp32
 70
     1
102
RTVSPost2010Prop33
280
     0
102
RTVSPost2010PropOp33
 70
     1
102
RTVSPost2010Prop34
280
     0
102
RTVSPost2010PropOp34
 70
     1
102
RTVSPost2010Prop35
280
     0
102
RTVSPost2010PropOp35
 70
     1
102
RTVSPost2010Prop36
280
     0
102
RTVSPost2010PropOp36
 70
     1
102
RTVSPost2010Prop37
 90
       50
102
RTVSPost2010PropOp37
 70
     1
102
RTVSPost2010Prop38
140
0.0
102
RTVSPost2010PropOp38
 70
     1
102
RTVSPost2010Prop39
140
1.0
102
RTVSPost2010PropOp39
 70
     1
102
RTVSPost2010Prop40
 90
        0
102
RTVSPost2010PropOp40
 70
     1
102
RTVSPost2010Prop41ColorIndex
 90
       18
102
RTVSPost2010Prop41ColorRGB
 90
        0
102
RTVSPost2010PropOp41
 70
     1
102
RTVSPost2010Prop42
 90
       50
102
RTVSPost2010PropOp42
 70
     1
102
RTVSPost2010Prop43
 90
        3
102
RTVSPost2010PropOp43
 70
     1
102
RTVSPost2010Prop44ColorIndex
 90
        5
102
RTVSPost2010Prop44ColorRGB
 90
      255
102
RTVSPost2010PropOp44
 70
     1
102
RTVSPost2010Prop45
280
     0
102
RTVSPost2010PropOp45
 70
     1
102
RTVSPost2010Prop46
 90
       50
102
RTVSPost2010PropOp46
 70
     1
102
RTVSPost2010Prop47
 90
       50
102
RTVSPost2010PropOp47
 70
     1
102
RTVSPost2010Prop48
 90
       50
102
RTVSPost2010PropOp48
 70
     1
102
RTVSPost2010Prop49
280
     0
102
RTVSPost2010PropOp49
 70
     1
102
RTVSPost2010Prop50
 90
       50
102
RTVSPost2010PropOp50
 70
     1
102
RTVSPost2010Prop51ColorIndex
 90
      256
102
RTVSPost2010Prop51ColorRGB
 90
-16777216
102
RTVSPost2010PropOp51
 70
     0
102
RTVSPost2010Prop52
140
1.0
102
RTVSPost2010PropOp52
 70
     0
102
RTVSPost2010Prop53
 90
        2
102
RTVSPost2010PropOp53
 70
     1
102
RTVSPost2010Prop54
  1
strokes_ogs.tif
102
RTVSPost2010PropOp54
 70
     1
102
RTVSPost2010Prop55
280
     0
102
RTVSPost2010PropOp55
 70
     1
102
RTVSPost2010Prop56
140
1.0
102
RTVSPost2010PropOp56
 70
     1
102
RTVSPost2010Prop57
140
1.0
102
RTVSPost2010PropOp57
 70
     1
  0
XRECORD
  5
10F
102
{ACAD_REACTORS
330
10E
102
}
330
10E
100
AcDbXrecord
280
     1
102
RTVSPost2010Prop28
280
     0
102
RTVSPost2010PropOp28
 70
     1
102
RTVSPost2010Prop29
280
     1
102
RTVSPost2010PropOp29
 70
     1
102
RTVSPost2010Prop30
280
     1
102
RTVSPost2010PropOp30
 70
     1
102
RTVSPost2010Prop31
280
     0
102
RTVSPost2010PropOp31
 70
     1
102
RTVSPost2010Prop32
280
     0
102
RTVSPost2010PropOp32
 70
     1
102
RTVSPost2010Prop33
280
     0
102
RTVSPost2010PropOp33
 70
     1
102
RTVSPost2010Prop34
280
     0
102
RTVSPost2010PropOp34
 70
     1
102
RTVSPost2010Prop35
280
     0
102
RTVSPost2010PropOp35
 70
     1
102
RTVSPost2010Prop36
280
     0
102
RTVSPost2010PropOp36
 70
     1
102
RTVSPost2010Prop37
 90
       50
102
RTVSPost2010PropOp37
 70
     1
102
RTVSPost2010Prop38
140
0.0
102
RTVSPost2010PropOp38
 70
     1
102
RTVSPost2010Prop39
140
1.0
102
RTVSPost2010PropOp39
 70
     1
102
RTVSPost2010Prop40
 90
        0
102
RTVSPost2010PropOp40
 70
     1
102
RTVSPost2010Prop41ColorIndex
 90
       18
102
RTVSPost2010Prop41ColorRGB
 90
        0
102
RTVSPost2010PropOp41
 70
     1
102
RTVSPost2010Prop42
 90
       50
102
RTVSPost2010PropOp42
 70
     1
102
RTVSPost2010Prop43
 90
        3
102
RTVSPost2010PropOp43
 70
     1
102
RTVSPost2010Prop44ColorIndex
 90
        5
102
RTVSPost2010Prop44ColorRGB
 90
      255
102
RTVSPost2010PropOp44
 70
     1
102
RTVSPost2010Prop45
280
     0
102
RTVSPost2010PropOp45
 70
     1
102
RTVSPost2010Prop46
 90
       50
102
RTVSPost2010PropOp46
 70
     1
102
RTVSPost2010Prop47
 90
       50
102
RTVSPost2010PropOp47
 70
     1
102
RTVSPost2010Prop48
 90
       50
102
RTVSPost2010PropOp48
 70
     1
102
RTVSPost2010Prop49
280
     0
102
RTVSPost2010PropOp49
 70
     1
102
RTVSPost2010Prop50
 90
       50
102
RTVSPost2010PropOp50
 70
     1
102
RTVSPost2010Prop51ColorIndex
 90
      256
102
RTVSPost2010Prop51ColorRGB
 90
-16777216
102
RTVSPost2010PropOp51
 70
     0
102
RTVSPost2010Prop52
140
1.0
102
RTVSPost2010PropOp52
 70
     0
102
RTVSPost2010Prop53
 90
        2
102
RTVSPost2010PropOp53
 70
     1
102
RTVSPost2010Prop54
  1
strokes_ogs.tif
102
RTVSPost2010PropOp54
 70
     1
102
RTVSPost2010Prop55
280
     0
102
RTVSPost2010PropOp55
 70
     1
102
RTVSPost2010Prop56
140
1.0
102
RTVSPost2010PropOp56
 70
     1
102
RTVSPost2010Prop57
140
1.0
102
RTVSPost2010PropOp57
 70
     1
  0
XRECORD
  5
117
102
{ACAD_REACTORS
330
116
102
}
330
116
100
AcDbXrecord
280
     1
102
RTVSPost2010Prop28
280
     0
102
RTVSPost2010PropOp28
 70
     1
102
RTVSPost2010Prop29
280
     1
102
RTVSPost2010PropOp29
 70
     1
102
RTVSPost2010Prop30
280
     1
102
RTVSPost2010PropOp30
 70
     1
102
RTVSPost2010Prop31
280
     0
102
RTVSPost2010PropOp31
 70
     1
102
RTVSPost2010Prop32
280
     0
102
RTVSPost2010PropOp32
 70
     1
102
RTVSPost2010Prop33
280
     0
102
RTVSPost2010PropOp33
 70
     1
102
RTVSPost2010Prop34
280
     0
102
RTVSPost2010PropOp34
 70
     1
102
RTVSPost2010Prop35
280
     0
102
RTVSPost2010PropOp35
 70
     1
102
RTVSPost2010Prop36
280
     0
102
RTVSPost2010PropOp36
 70
     1
102
RTVSPost2010Prop37
 90
       50
102
RTVSPost2010PropOp37
 70
     1
102
RTVSPost2010Prop38
140
0.0
102
RTVSPost2010PropOp38
 70
     1
102
RTVSPost2010Prop39
140
1.0
102
RTVSPost2010PropOp39
 70
     1
102
RTVSPost2010Prop40
 90
        0
102
RTVSPost2010PropOp40
 70
     1
102
RTVSPost2010Prop41ColorIndex
 90
       18
102
RTVSPost2010Prop41ColorRGB
 90
        0
102
RTVSPost2010PropOp41
 70
     1
102
RTVSPost2010Prop42
 90
       50
102
RTVSPost2010PropOp42
 70
     1
102
RTVSPost2010Prop43
 90
        3
102
RTVSPost2010PropOp43
 70
     1
102
RTVSPost2010Prop44ColorIndex
 90
        5
102
RTVSPost2010Prop44ColorRGB
 90
      255
102
RTVSPost2010PropOp44
 70
     1
102
RTVSPost2010Prop45
280
     0
102
RTVSPost2010PropOp45
 70
     1
102
RTVSPost2010Prop46
 90
       50
102
RTVSPost2010PropOp46
 70
     1
102
RTVSPost2010Prop47
 90
       50
102
RTVSPost2010PropOp47
 70
     1
102
RTVSPost2010Prop48
 90
       50
102
RTVSPost2010PropOp48
 70
     1
102
RTVSPost2010Prop49
280
     0
102
RTVSPost2010PropOp49
 70
     1
102
RTVSPost2010Prop50
 90
       50
102
RTVSPost2010PropOp50
 70
     1
102
RTVSPost2010Prop51ColorIndex
 90
      256
102
RTVSPost2010Prop51ColorRGB
 90
-16777216
102
RTVSPost2010PropOp51
 70
     0
102
RTVSPost2010Prop52
140
1.0
102
RTVSPost2010PropOp52
 70
     0
102
RTVSPost2010Prop53
 90
        2
102
RTVSPost2010PropOp53
 70
     1
102
RTVSPost2010Prop54
  1
strokes_ogs.tif
102
RTVSPost2010PropOp54
 70
     1
102
RTVSPost2010Prop55
280
     0
102
RTVSPost2010PropOp55
 70
     1
102
RTVSPost2010Prop56
140
1.0
102
RTVSPost2010PropOp56
 70
     1
102
RTVSPost2010Prop57
140
1.0
102
RTVSPost2010PropOp57
 70
     1
  0
XRECORD
  5
133
102
{ACAD_REACTORS
330
132
102
}
330
132
100
AcDbXrecord
280
     1
102
RTVSPost2010Prop28
280
     0
102
RTVSPost2010PropOp28
 70
     0
102
RTVSPost2010Prop29
280
     1
102
RTVSPost2010PropOp29
 70
     0
102
RTVSPost2010Prop30
280
     1
102
RTVSPost2010PropOp30
 70
     0
102
RTVSPost2010Prop31
280
     0
102
RTVSPost2010PropOp31
 70
     0
102
RTVSPost2010Prop32
280
     0
102
RTVSPost2010PropOp32
 70
     0
102
RTVSPost2010Prop33
280
     0
102
RTVSPost2010PropOp33
 70
     0
102
RTVSPost2010Prop34
280
     0
102
RTVSPost2010PropOp34
 70
     0
102
RTVSPost2010Prop35
280
     0
102
RTVSPost2010PropOp35
 70
     0
102
RTVSPost2010Prop36
280
     0
102
RTVSPost2010PropOp36
 70
     0
102
RTVSPost2010Prop37
 90
       50
102
RTVSPost2010PropOp37
 70
     0
102
RTVSPost2010Prop38
140
0.0
102
RTVSPost2010PropOp38
 70
     0
102
RTVSPost2010Prop39
140
1.0
102
RTVSPost2010PropOp39
 70
     0
102
RTVSPost2010Prop40
 90
        0
102
RTVSPost2010PropOp40
 70
     0
102
RTVSPost2010Prop41ColorIndex
 90
       18
102
RTVSPost2010Prop41ColorRGB
 90
        0
102
RTVSPost2010PropOp41
 70
     0
102
RTVSPost2010Prop42
 90
       50
102
RTVSPost2010PropOp42
 70
     0
102
RTVSPost2010Prop43
 90
        3
102
RTVSPost2010PropOp43
 70
     0
102
RTVSPost2010Prop44ColorIndex
 90
        5
102
RTVSPost2010Prop44ColorRGB
 90
      255
102
RTVSPost2010PropOp44
 70
     0
102
RTVSPost2010Prop45
280
     0
102
RTVSPost2010PropOp45
 70
     0
102
RTVSPost2010Prop46
 90
       50
102
RTVSPost2010PropOp46
 70
     0
102
RTVSPost2010Prop47
 90
       50
102
RTVSPost2010PropOp47
 70
     0
102
RTVSPost2010Prop48
 90
       50
102
RTVSPost2010PropOp48
 70
     0
102
RTVSPost2010Prop49
280
     0
102
RTVSPost2010PropOp49
 70
     0
102
RTVSPost2010Prop50
 90
       50
102
RTVSPost2010PropOp50
 70
     0
102
RTVSPost2010Prop51ColorIndex
 90
      256
102
RTVSPost2010Prop51ColorRGB
 90
-16777216
102
RTVSPost2010PropOp51
 70
     0
102
RTVSPost2010Prop52
140
1.0
102
RTVSPost2010PropOp52
 70
     0
102
RTVSPost2010Prop53
 90
        2
102
RTVSPost2010PropOp53
 70
     0
102
RTVSPost2010Prop54
  1
strokes_ogs.tif
102
RTVSPost2010PropOp54
 70
     0
102
RTVSPost2010Prop55
280
     0
102
RTVSPost2010PropOp55
 70
     0
102
RTVSPost2010Prop56
140
1.0
102
RTVSPost2010PropOp56
 70
     0
102
RTVSPost2010Prop57
140
1.0
102
RTVSPost2010PropOp57
 70
     0
  0
XRECORD
  5
123
102
{ACAD_REACTORS
330
122
102
}
330
122
100
AcDbXrecord
280
     1
102
RTVSPost2010Prop28
280
     0
102
RTVSPost2010PropOp28
 70
     1
102
RTVSPost2010Prop29
280
     1
102
RTVSPost2010PropOp29
 70
     1
102
RTVSPost2010Prop30
280
     1
102
RTVSPost2010PropOp30
 70
     1
102
RTVSPost2010Prop31
280
     0
102
RTVSPost2010PropOp31
 70
     1
102
RTVSPost2010Prop32
280
     0
102
RTVSPost2010PropOp32
 70
     1
102
RTVSPost2010Prop33
280
     0
102
RTVSPost2010PropOp33
 70
     1
102
RTVSPost2010Prop34
280
     0
102
RTVSPost2010PropOp34
 70
     1
102
RTVSPost2010Prop35
280
     0
102
RTVSPost2010PropOp35
 70
     1
102
RTVSPost2010Prop36
280
     0
102
RTVSPost2010PropOp36
 70
     1
102
RTVSPost2010Prop37
 90
       50
102
RTVSPost2010PropOp37
 70
     1
102
RTVSPost2010Prop38
140
0.0
102
RTVSPost2010PropOp38
 70
     1
102
RTVSPost2010Prop39
140
1.0
102
RTVSPost2010PropOp39
 70
     1
102
RTVSPost2010Prop40
 90
        0
102
RTVSPost2010PropOp40
 70
     1
102
RTVSPost2010Prop41ColorIndex
 90
       18
102
RTVSPost2010Prop41ColorRGB
 90
        0
102
RTVSPost2010PropOp41
 70
     1
102
RTVSPost2010Prop42
 90
       50
102
RTVSPost2010PropOp42
 70
     1
102
RTVSPost2010Prop43
 90
        3
102
RTVSPost2010PropOp43
 70
     1
102
RTVSPost2010Prop44ColorIndex
 90
        5
102
RTVSPost2010Prop44ColorRGB
 90
      255
102
RTVSPost2010PropOp44
 70
     1
102
RTVSPost2010Prop45
280
     0
102
RTVSPost2010PropOp45
 70
     1
102
RTVSPost2010Prop46
 90
       50
102
RTVSPost2010PropOp46
 70
     1
102
RTVSPost2010Prop47
 90
       50
102
RTVSPost2010PropOp47
 70
     1
102
RTVSPost2010Prop48
 90
       50
102
RTVSPost2010PropOp48
 70
     1
102
RTVSPost2010Prop49
280
     0
102
RTVSPost2010PropOp49
 70
     1
102
RTVSPost2010Prop50
 90
       50
102
RTVSPost2010PropOp50
 70
     1
102
RTVSPost2010Prop51ColorIndex
 90
      256
102
RTVSPost2010Prop51ColorRGB
 90
-16777216
102
RTVSPost2010PropOp51
 70
     0
102
RTVSPost2010Prop52
140
1.0
102
RTVSPost2010PropOp52
 70
     0
102
RTVSPost2010Prop53
 90
        2
102
RTVSPost2010PropOp53
 70
     1
102
RTVSPost2010Prop54
  1
strokes_ogs.tif
102
RTVSPost2010PropOp54
 70
     1
102
RTVSPost2010Prop55
280
     0
102
RTVSPost2010PropOp55
 70
     1
102
RTVSPost2010Prop56
140
1.0
102
RTVSPost2010PropOp56
 70
     1
102
RTVSPost2010Prop57
140
1.0
102
RTVSPost2010PropOp57
 70
     1
  0
XRECORD
  5
135
102
{ACAD_REACTORS
330
134
102
}
330
134
100
AcDbXrecord
280
     1
102
RTVSPost2010Prop28
280
     0
102
RTVSPost2010PropOp28
 70
     0
102
RTVSPost2010Prop29
280
     1
102
RTVSPost2010PropOp29
 70
     0
102
RTVSPost2010Prop30
280
     1
102
RTVSPost2010PropOp30
 70
     0
102
RTVSPost2010Prop31
280
     0
102
RTVSPost2010PropOp31
 70
     0
102
RTVSPost2010Prop32
280
     0
102
RTVSPost2010PropOp32
 70
     0
102
RTVSPost2010Prop33
280
     0
102
RTVSPost2010PropOp33
 70
     0
102
RTVSPost2010Prop34
280
     0
102
RTVSPost2010PropOp34
 70
     0
102
RTVSPost2010Prop35
280
     0
102
RTVSPost2010PropOp35
 70
     0
102
RTVSPost2010Prop36
280
     0
102
RTVSPost2010PropOp36
 70
     0
102
RTVSPost2010Prop37
 90
       50
102
RTVSPost2010PropOp37
 70
     0
102
RTVSPost2010Prop38
140
0.0
102
RTVSPost2010PropOp38
 70
     0
102
RTVSPost2010Prop39
140
1.0
102
RTVSPost2010PropOp39
 70
     0
102
RTVSPost2010Prop40
 90
        0
102
RTVSPost2010PropOp40
 70
     0
102
RTVSPost2010Prop41ColorIndex
 90
       18
102
RTVSPost2010Prop41ColorRGB
 90
        0
102
RTVSPost2010PropOp41
 70
     0
102
RTVSPost2010Prop42
 90
       50
102
RTVSPost2010PropOp42
 70
     0
102
RTVSPost2010Prop43
 90
        3
102
RTVSPost2010PropOp43
 70
     0
102
RTVSPost2010Prop44ColorIndex
 90
        5
102
RTVSPost2010Prop44ColorRGB
 90
      255
102
RTVSPost2010PropOp44
 70
     0
102
RTVSPost2010Prop45
280
     0
102
RTVSPost2010PropOp45
 70
     0
102
RTVSPost2010Prop46
 90
       50
102
RTVSPost2010PropOp46
 70
     0
102
RTVSPost2010Prop47
 90
       50
102
RTVSPost2010PropOp47
 70
     0
102
RTVSPost2010Prop48
 90
       50
102
RTVSPost2010PropOp48
 70
     0
102
RTVSPost2010Prop49
280
     0
102
RTVSPost2010PropOp49
 70
     0
102
RTVSPost2010Prop50
 90
       50
102
RTVSPost2010PropOp50
 70
     0
102
RTVSPost2010Prop51ColorIndex
 90
      256
102
RTVSPost2010Prop51ColorRGB
 90
-16777216
102
RTVSPost2010PropOp51
 70
     0
102
RTVSPost2010Prop52
140
1.0
102
RTVSPost2010PropOp52
 70
     0
102
RTVSPost2010Prop53
 90
        2
102
RTVSPost2010PropOp53
 70
     0
102
RTVSPost2010Prop54
  1
strokes_ogs.tif
102
RTVSPost2010PropOp54
 70
     0
102
RTVSPost2010Prop55
280
     0
102
RTVSPost2010PropOp55
 70
     0
102
RTVSPost2010Prop56
140
1.0
102
RTVSPost2010PropOp56
 70
     0
102
RTVSPost2010Prop57
140
1.0
102
RTVSPost2010PropOp57
 70
     0
  0
XRECORD
  5
11B
102
{ACAD_REACTORS
330
11A
102
}
330
11A
100
AcDbXrecord
280
     1
102
RTVSPost2010Prop28
280
     0
102
RTVSPost2010PropOp28
 70
     1
102
RTVSPost2010Prop29
280
     1
102
RTVSPost2010PropOp29
 70
     1
102
RTVSPost2010Prop30
280
     1
102
RTVSPost2010PropOp30
 70
     1
102
RTVSPost2010Prop31
280
     0
102
RTVSPost2010PropOp31
 70
     1
102
RTVSPost2010Prop32
280
     0
102
RTVSPost2010PropOp32
 70
     1
102
RTVSPost2010Prop33
280
     0
102
RTVSPost2010PropOp33
 70
     1
102
RTVSPost2010Prop34
280
     0
102
RTVSPost2010PropOp34
 70
     1
102
RTVSPost2010Prop35
280
     0
102
RTVSPost2010PropOp35
 70
     1
102
RTVSPost2010Prop36
280
     0
102
RTVSPost2010PropOp36
 70
     1
102
RTVSPost2010Prop37
 90
       50
102
RTVSPost2010PropOp37
 70
     1
102
RTVSPost2010Prop38
140
0.0
102
RTVSPost2010PropOp38
 70
     1
102
RTVSPost2010Prop39
140
1.0
102
RTVSPost2010PropOp39
 70
     1
102
RTVSPost2010Prop40
 90
        0
102
RTVSPost2010PropOp40
 70
     1
102
RTVSPost2010Prop41ColorIndex
 90
       18
102
RTVSPost2010Prop41ColorRGB
 90
        0
102
RTVSPost2010PropOp41
 70
     1
102
RTVSPost2010Prop42
 90
       50
102
RTVSPost2010PropOp42
 70
     1
102
RTVSPost2010Prop43
 90
        3
102
RTVSPost2010PropOp43
 70
     1
102
RTVSPost2010Prop44ColorIndex
 90
        5
102
RTVSPost2010Prop44ColorRGB
 90
      255
102
RTVSPost2010PropOp44
 70
     1
102
RTVSPost2010Prop45
280
     0
102
RTVSPost2010PropOp45
 70
     1
102
RTVSPost2010Prop46
 90
       50
102
RTVSPost2010PropOp46
 70
     1
102
RTVSPost2010Prop47
 90
       50
102
RTVSPost2010PropOp47
 70
     1
102
RTVSPost2010Prop48
 90
       50
102
RTVSPost2010PropOp48
 70
     1
102
RTVSPost2010Prop49
280
     0
102
RTVSPost2010PropOp49
 70
     1
102
RTVSPost2010Prop50
 90
       50
102
RTVSPost2010PropOp50
 70
     1
102
RTVSPost2010Prop51ColorIndex
 90
      256
102
RTVSPost2010Prop51ColorRGB
 90
-16777216
102
RTVSPost2010PropOp51
 70
     0
102
RTVSPost2010Prop52
140
1.0
102
RTVSPost2010PropOp52
 70
     0
102
RTVSPost2010Prop53
 90
        2
102
RTVSPost2010PropOp53
 70
     1
102
RTVSPost2010Prop54
  1
strokes_ogs.tif
102
RTVSPost2010PropOp54
 70
     1
102
RTVSPost2010Prop55
280
     0
102
RTVSPost2010PropOp55
 70
     1
102
RTVSPost2010Prop56
140
1.0
102
RTVSPost2010PropOp56
 70
     1
102
RTVSPost2010Prop57
140
1.0
102
RTVSPost2010PropOp57
 70
     1
  0
XRECORD
  5
131
102
{ACAD_REACTORS
330
130
102
}
330
130
100
AcDbXrecord
280
     1
102
RTVSPost2010Prop28
280
     0
102
RTVSPost2010PropOp28
 70
     1
102
RTVSPost2010Prop29
280
     1
102
RTVSPost2010PropOp29
 70
     1
102
RTVSPost2010Prop30
280
     1
102
RTVSPost2010PropOp30
 70
     1
102
RTVSPost2010Prop31
280
     0
102
RTVSPost2010PropOp31
 70
     1
102
RTVSPost2010Prop32
280
     0
102
RTVSPost2010PropOp32
 70
     1
102
RTVSPost2010Prop33
280
     0
102
RTVSPost2010PropOp33
 70
     1
102
RTVSPost2010Prop34
280
     0
102
RTVSPost2010PropOp34
 70
     1
102
RTVSPost2010Prop35
280
     0
102
RTVSPost2010PropOp35
 70
     1
102
RTVSPost2010Prop36
280
     0
102
RTVSPost2010PropOp36
 70
     1
102
RTVSPost2010Prop37
 90
       50
102
RTVSPost2010PropOp37
 70
     1
102
RTVSPost2010Prop38
140
0.0
102
RTVSPost2010PropOp38
 70
     1
102
RTVSPost2010Prop39
140
1.0
102
RTVSPost2010PropOp39
 70
     1
102
RTVSPost2010Prop40
 90
        0
102
RTVSPost2010PropOp40
 70
     1
102
RTVSPost2010Prop41ColorIndex
 90
       18
102
RTVSPost2010Prop41ColorRGB
 90
        0
102
RTVSPost2010PropOp41
 70
     1
102
RTVSPost2010Prop42
 90
       50
102
RTVSPost2010PropOp42
 70
     1
102
RTVSPost2010Prop43
 90
        3
102
RTVSPost2010PropOp43
 70
     1
102
RTVSPost2010Prop44ColorIndex
 90
        5
102
RTVSPost2010Prop44ColorRGB
 90
      255
102
RTVSPost2010PropOp44
 70
     1
102
RTVSPost2010Prop45
280
     0
102
RTVSPost2010PropOp45
 70
     1
102
RTVSPost2010Prop46
 90
       50
102
RTVSPost2010PropOp46
 70
     1
102
RTVSPost2010Prop47
 90
       50
102
RTVSPost2010PropOp47
 70
     1
102
RTVSPost2010Prop48
 90
       50
102
RTVSPost2010PropOp48
 70
     1
102
RTVSPost2010Prop49
280
     0
102
RTVSPost2010PropOp49
 70
     1
102
RTVSPost2010Prop50
 90
       50
102
RTVSPost2010PropOp50
 70
     1
102
RTVSPost2010Prop51ColorIndex
 90
      256
102
RTVSPost2010Prop51ColorRGB
 90
-16777216
102
RTVSPost2010PropOp51
 70
     0
102
RTVSPost2010Prop52
140
1.0
102
RTVSPost2010PropOp52
 70
     0
102
RTVSPost2010Prop53
 90
        2
102
RTVSPost2010PropOp53
 70
     1
102
RTVSPost2010Prop54
  1
strokes_ogs.tif
102
RTVSPost2010PropOp54
 70
     1
102
RTVSPost2010Prop55
280
     0
102
RTVSPost2010PropOp55
 70
     1
102
RTVSPost2010Prop56
140
1.0
102
RTVSPost2010PropOp56
 70
     1
102
RTVSPost2010Prop57
140
1.0
102
RTVSPost2010PropOp57
 70
     1
  0
XRECORD
  5
12F
102
{ACAD_REACTORS
330
12E
102
}
330
12E
100
AcDbXrecord
280
     1
102
RTVSPost2010Prop28
280
     0
102
RTVSPost2010PropOp28
 70
     1
102
RTVSPost2010Prop29
280
     1
102
RTVSPost2010PropOp29
 70
     1
102
RTVSPost2010Prop30
280
     1
102
RTVSPost2010PropOp30
 70
     1
102
RTVSPost2010Prop31
280
     0
102
RTVSPost2010PropOp31
 70
     1
102
RTVSPost2010Prop32
280
     0
102
RTVSPost2010PropOp32
 70
     1
102
RTVSPost2010Prop33
280
     0
102
RTVSPost2010PropOp33
 70
     1
102
RTVSPost2010Prop34
280
     0
102
RTVSPost2010PropOp34
 70
     1
102
RTVSPost2010Prop35
280
     0
102
RTVSPost2010PropOp35
 70
     1
102
RTVSPost2010Prop36
280
     0
102
RTVSPost2010PropOp36
 70
     1
102
RTVSPost2010Prop37
 90
       50
102
RTVSPost2010PropOp37
 70
     1
102
RTVSPost2010Prop38
140
0.0
102
RTVSPost2010PropOp38
 70
     1
102
RTVSPost2010Prop39
140
1.0
102
RTVSPost2010PropOp39
 70
     1
102
RTVSPost2010Prop40
 90
        0
102
RTVSPost2010PropOp40
 70
     1
102
RTVSPost2010Prop41ColorIndex
 90
       18
102
RTVSPost2010Prop41ColorRGB
 90
        0
102
RTVSPost2010PropOp41
 70
     1
102
RTVSPost2010Prop42
 90
       50
102
RTVSPost2010PropOp42
 70
     1
102
RTVSPost2010Prop43
 90
        3
102
RTVSPost2010PropOp43
 70
     1
102
RTVSPost2010Prop44ColorIndex
 90
        5
102
RTVSPost2010Prop44ColorRGB
 90
      255
102
RTVSPost2010PropOp44
 70
     1
102
RTVSPost2010Prop45
280
     0
102
RTVSPost2010PropOp45
 70
     1
102
RTVSPost2010Prop46
 90
       50
102
RTVSPost2010PropOp46
 70
     1
102
RTVSPost2010Prop47
 90
       50
102
RTVSPost2010PropOp47
 70
     1
102
RTVSPost2010Prop48
 90
       50
102
RTVSPost2010PropOp48
 70
     1
102
RTVSPost2010Prop49
280
     0
102
RTVSPost2010PropOp49
 70
     1
102
RTVSPost2010Prop50
 90
       50
102
RTVSPost2010PropOp50
 70
     1
102
RTVSPost2010Prop51ColorIndex
 90
      256
102
RTVSPost2010Prop51ColorRGB
 90
-16777216
102
RTVSPost2010PropOp51
 70
     0
102
RTVSPost2010Prop52
140
1.0
102
RTVSPost2010PropOp52
 70
     0
102
RTVSPost2010Prop53
 90
        2
102
RTVSPost2010PropOp53
 70
     1
102
RTVSPost2010Prop54
  1
strokes_ogs.tif
102
RTVSPost2010PropOp54
 70
     1
102
RTVSPost2010Prop55
280
     0
102
RTVSPost2010PropOp55
 70
     1
102
RTVSPost2010Prop56
140
1.0
102
RTVSPost2010PropOp56
 70
     1
102
RTVSPost2010Prop57
140
1.0
102
RTVSPost2010PropOp57
 70
     1
  0
XRECORD
  5
129
102
{ACAD_REACTORS
330
128
102
}
330
128
100
AcDbXrecord
280
     1
102
RTVSPost2010Prop28
280
     0
102
RTVSPost2010PropOp28
 70
     1
102
RTVSPost2010Prop29
280
     1
102
RTVSPost2010PropOp29
 70
     1
102
RTVSPost2010Prop30
280
     1
102
RTVSPost2010PropOp30
 70
     1
102
RTVSPost2010Prop31
280
     0
102
RTVSPost2010PropOp31
 70
     1
102
RTVSPost2010Prop32
280
     0
102
RTVSPost2010PropOp32
 70
     1
102
RTVSPost2010Prop33
280
     0
102
RTVSPost2010PropOp33
 70
     1
102
RTVSPost2010Prop34
280
     0
102
RTVSPost2010PropOp34
 70
     1
102
RTVSPost2010Prop35
280
     0
102
RTVSPost2010PropOp35
 70
     1
102
RTVSPost2010Prop36
280
     0
102
RTVSPost2010PropOp36
 70
     1
102
RTVSPost2010Prop37
 90
       50
102
RTVSPost2010PropOp37
 70
     1
102
RTVSPost2010Prop38
140
0.0
102
RTVSPost2010PropOp38
 70
     1
102
RTVSPost2010Prop39
140
1.0
102
RTVSPost2010PropOp39
 70
     1
102
RTVSPost2010Prop40
 90
        0
102
RTVSPost2010PropOp40
 70
     1
102
RTVSPost2010Prop41ColorIndex
 90
       18
102
RTVSPost2010Prop41ColorRGB
 90
        0
102
RTVSPost2010PropOp41
 70
     1
102
RTVSPost2010Prop42
 90
       50
102
RTVSPost2010PropOp42
 70
     1
102
RTVSPost2010Prop43
 90
        3
102
RTVSPost2010PropOp43
 70
     1
102
RTVSPost2010Prop44ColorIndex
 90
        5
102
RTVSPost2010Prop44ColorRGB
 90
      255
102
RTVSPost2010PropOp44
 70
     1
102
RTVSPost2010Prop45
280
     0
102
RTVSPost2010PropOp45
 70
     1
102
RTVSPost2010Prop46
 90
       50
102
RTVSPost2010PropOp46
 70
     1
102
RTVSPost2010Prop47
 90
       50
102
RTVSPost2010PropOp47
 70
     1
102
RTVSPost2010Prop48
 90
       50
102
RTVSPost2010PropOp48
 70
     1
102
RTVSPost2010Prop49
280
     0
102
RTVSPost2010PropOp49
 70
     1
102
RTVSPost2010Prop50
 90
       50
102
RTVSPost2010PropOp50
 70
     1
102
RTVSPost2010Prop51ColorIndex
 90
      256
102
RTVSPost2010Prop51ColorRGB
 90
-16777216
102
RTVSPost2010PropOp51
 70
     0
102
RTVSPost2010Prop52
140
1.0
102
RTVSPost2010PropOp52
 70
     0
102
RTVSPost2010Prop53
 90
        2
102
RTVSPost2010PropOp53
 70
     1
102
RTVSPost2010Prop54
  1
strokes_ogs.tif
102
RTVSPost2010PropOp54
 70
     1
102
RTVSPost2010Prop55
280
     0
102
RTVSPost2010PropOp55
 70
     1
102
RTVSPost2010Prop56
140
1.0
102
RTVSPost2010PropOp56
 70
     1
102
RTVSPost2010Prop57
140
1.0
102
RTVSPost2010PropOp57
 70
     1
  0
XRECORD
  5
12B
102
{ACAD_REACTORS
330
12A
102
}
330
12A
100
AcDbXrecord
280
     1
102
RTVSPost2010Prop28
280
     0
102
RTVSPost2010PropOp28
 70
     1
102
RTVSPost2010Prop29
280
     1
102
RTVSPost2010PropOp29
 70
     1
102
RTVSPost2010Prop30
280
     1
102
RTVSPost2010PropOp30
 70
     1
102
RTVSPost2010Prop31
280
     0
102
RTVSPost2010PropOp31
 70
     1
102
RTVSPost2010Prop32
280
     0
102
RTVSPost2010PropOp32
 70
     1
102
RTVSPost2010Prop33
280
     0
102
RTVSPost2010PropOp33
 70
     1
102
RTVSPost2010Prop34
280
     0
102
RTVSPost2010PropOp34
 70
     1
102
RTVSPost2010Prop35
280
     0
102
RTVSPost2010PropOp35
 70
     1
102
RTVSPost2010Prop36
280
     0
102
RTVSPost2010PropOp36
 70
     1
102
RTVSPost2010Prop37
 90
       50
102
RTVSPost2010PropOp37
 70
     1
102
RTVSPost2010Prop38
140
0.0
102
RTVSPost2010PropOp38
 70
     1
102
RTVSPost2010Prop39
140
1.0
102
RTVSPost2010PropOp39
 70
     1
102
RTVSPost2010Prop40
 90
        0
102
RTVSPost2010PropOp40
 70
     1
102
RTVSPost2010Prop41ColorIndex
 90
       18
102
RTVSPost2010Prop41ColorRGB
 90
        0
102
RTVSPost2010PropOp41
 70
     1
102
RTVSPost2010Prop42
 90
       50
102
RTVSPost2010PropOp42
 70
     1
102
RTVSPost2010Prop43
 90
        3
102
RTVSPost2010PropOp43
 70
     1
102
RTVSPost2010Prop44ColorIndex
 90
        5
102
RTVSPost2010Prop44ColorRGB
 90
      255
102
RTVSPost2010PropOp44
 70
     1
102
RTVSPost2010Prop45
280
     0
102
RTVSPost2010PropOp45
 70
     1
102
RTVSPost2010Prop46
 90
       50
102
RTVSPost2010PropOp46
 70
     1
102
RTVSPost2010Prop47
 90
       50
102
RTVSPost2010PropOp47
 70
     1
102
RTVSPost2010Prop48
 90
       50
102
RTVSPost2010PropOp48
 70
     1
102
RTVSPost2010Prop49
280
     0
102
RTVSPost2010PropOp49
 70
     1
102
RTVSPost2010Prop50
 90
       50
102
RTVSPost2010PropOp50
 70
     1
102
RTVSPost2010Prop51ColorIndex
 90
      256
102
RTVSPost2010Prop51ColorRGB
 90
-16777216
102
RTVSPost2010PropOp51
 70
     0
102
RTVSPost2010Prop52
140
1.0
102
RTVSPost2010PropOp52
 70
     0
102
RTVSPost2010Prop53
 90
        2
102
RTVSPost2010PropOp53
 70
     1
102
RTVSPost2010Prop54
  1
strokes_ogs.tif
102
RTVSPost2010PropOp54
 70
     1
102
RTVSPost2010Prop55
280
     0
102
RTVSPost2010PropOp55
 70
     1
102
RTVSPost2010Prop56
140
1.0
102
RTVSPost2010PropOp56
 70
     1
102
RTVSPost2010Prop57
140
1.0
102
RTVSPost2010PropOp57
 70
     1
  0
XRECORD
  5
121
102
{ACAD_REACTORS
330
120
102
}
330
120
100
AcDbXrecord
280
     1
102
RTVSPost2010Prop28
280
     0
102
RTVSPost2010PropOp28
 70
     1
102
RTVSPost2010Prop29
280
     1
102
RTVSPost2010PropOp29
 70
     1
102
RTVSPost2010Prop30
280
     1
102
RTVSPost2010PropOp30
 70
     1
102
RTVSPost2010Prop31
280
     0
102
RTVSPost2010PropOp31
 70
     1
102
RTVSPost2010Prop32
280
     0
102
RTVSPost2010PropOp32
 70
     1
102
RTVSPost2010Prop33
280
     0
102
RTVSPost2010PropOp33
 70
     1
102
RTVSPost2010Prop34
280
     0
102
RTVSPost2010PropOp34
 70
     1
102
RTVSPost2010Prop35
280
     0
102
RTVSPost2010PropOp35
 70
     1
102
RTVSPost2010Prop36
280
     0
102
RTVSPost2010PropOp36
 70
     1
102
RTVSPost2010Prop37
 90
       50
102
RTVSPost2010PropOp37
 70
     1
102
RTVSPost2010Prop38
140
0.0
102
RTVSPost2010PropOp38
 70
     1
102
RTVSPost2010Prop39
140
1.0
102
RTVSPost2010PropOp39
 70
     1
102
RTVSPost2010Prop40
 90
        0
102
RTVSPost2010PropOp40
 70
     1
102
RTVSPost2010Prop41ColorIndex
 90
       18
102
RTVSPost2010Prop41ColorRGB
 90
        0
102
RTVSPost2010PropOp41
 70
     1
102
RTVSPost2010Prop42
 90
       50
102
RTVSPost2010PropOp42
 70
     1
102
RTVSPost2010Prop43
 90
        3
102
RTVSPost2010PropOp43
 70
     1
102
RTVSPost2010Prop44ColorIndex
 90
        5
102
RTVSPost2010Prop44ColorRGB
 90
      255
102
RTVSPost2010PropOp44
 70
     1
102
RTVSPost2010Prop45
280
     0
102
RTVSPost2010PropOp45
 70
     1
102
RTVSPost2010Prop46
 90
       50
102
RTVSPost2010PropOp46
 70
     1
102
RTVSPost2010Prop47
 90
       50
102
RTVSPost2010PropOp47
 70
     1
102
RTVSPost2010Prop48
 90
       50
102
RTVSPost2010PropOp48
 70
     1
102
RTVSPost2010Prop49
280
     0
102
RTVSPost2010PropOp49
 70
     1
102
RTVSPost2010Prop50
 90
       50
102
RTVSPost2010PropOp50
 70
     1
102
RTVSPost2010Prop51ColorIndex
 90
      256
102
RTVSPost2010Prop51ColorRGB
 90
-16777216
102
RTVSPost2010PropOp51
 70
     0
102
RTVSPost2010Prop52
140
1.0
102
RTVSPost2010PropOp52
 70
     0
102
RTVSPost2010Prop53
 90
        2
102
RTVSPost2010PropOp53
 70
     1
102
RTVSPost2010Prop54
  1
strokes_ogs.tif
102
RTVSPost2010PropOp54
 70
     1
102
RTVSPost2010Prop55
280
     0
102
RTVSPost2010PropOp55
 70
     1
102
RTVSPost2010Prop56
140
1.0
102
RTVSPost2010PropOp56
 70
     1
102
RTVSPost2010Prop57
140
1.0
102
RTVSPost2010PropOp57
 70
     1
  0
XRECORD
  5
115
102
{ACAD_REACTORS
330
114
102
}
330
114
100
AcDbXrecord
280
     1
102
RTVSPost2010Prop28
280
     0
102
RTVSPost2010PropOp28
 70
     1
102
RTVSPost2010Prop29
280
     1
102
RTVSPost2010PropOp29
 70
     1
102
RTVSPost2010Prop30
280
     1
102
RTVSPost2010PropOp30
 70
     1
102
RTVSPost2010Prop31
280
     0
102
RTVSPost2010PropOp31
 70
     1
102
RTVSPost2010Prop32
280
     0
102
RTVSPost2010PropOp32
 70
     1
102
RTVSPost2010Prop33
280
     0
102
RTVSPost2010PropOp33
 70
     1
102
RTVSPost2010Prop34
280
     0
102
RTVSPost2010PropOp34
 70
     1
102
RTVSPost2010Prop35
280
     0
102
RTVSPost2010PropOp35
 70
     1
102
RTVSPost2010Prop36
280
     0
102
RTVSPost2010PropOp36
 70
     1
102
RTVSPost2010Prop37
 90
       50
102
RTVSPost2010PropOp37
 70
     1
102
RTVSPost2010Prop38
140
0.0
102
RTVSPost2010PropOp38
 70
     1
102
RTVSPost2010Prop39
140
1.0
102
RTVSPost2010PropOp39
 70
     1
102
RTVSPost2010Prop40
 90
        0
102
RTVSPost2010PropOp40
 70
     1
102
RTVSPost2010Prop41ColorIndex
 90
       18
102
RTVSPost2010Prop41ColorRGB
 90
        0
102
RTVSPost2010PropOp41
 70
     1
102
RTVSPost2010Prop42
 90
       50
102
RTVSPost2010PropOp42
 70
     1
102
RTVSPost2010Prop43
 90
        3
102
RTVSPost2010PropOp43
 70
     1
102
RTVSPost2010Prop44ColorIndex
 90
        5
102
RTVSPost2010Prop44ColorRGB
 90
      255
102
RTVSPost2010PropOp44
 70
     1
102
RTVSPost2010Prop45
280
     0
102
RTVSPost2010PropOp45
 70
     1
102
RTVSPost2010Prop46
 90
       50
102
RTVSPost2010PropOp46
 70
     1
102
RTVSPost2010Prop47
 90
       50
102
RTVSPost2010PropOp47
 70
     1
102
RTVSPost2010Prop48
 90
       50
102
RTVSPost2010PropOp48
 70
     1
102
RTVSPost2010Prop49
280
     0
102
RTVSPost2010PropOp49
 70
     1
102
RTVSPost2010Prop50
 90
       50
102
RTVSPost2010PropOp50
 70
     1
102
RTVSPost2010Prop51ColorIndex
 90
      256
102
RTVSPost2010Prop51ColorRGB
 90
-16777216
102
RTVSPost2010PropOp51
 70
     0
102
RTVSPost2010Prop52
140
1.0
102
RTVSPost2010PropOp52
 70
     0
102
RTVSPost2010Prop53
 90
        2
102
RTVSPost2010PropOp53
 70
     1
102
RTVSPost2010Prop54
  1
strokes_ogs.tif
102
RTVSPost2010PropOp54
 70
     1
102
RTVSPost2010Prop55
280
     0
102
RTVSPost2010PropOp55
 70
     1
102
RTVSPost2010Prop56
140
1.0
102
RTVSPost2010PropOp56
 70
     1
102
RTVSPost2010Prop57
140
1.0
102
RTVSPost2010PropOp57
 70
     1
  0
XRECORD
  5
12D
102
{ACAD_REACTORS
330
12C
102
}
330
12C
100
AcDbXrecord
280
     1
102
RTVSPost2010Prop28
280
     0
102
RTVSPost2010PropOp28
 70
     1
102
RTVSPost2010Prop29
280
     1
102
RTVSPost2010PropOp29
 70
     1
102
RTVSPost2010Prop30
280
     1
102
RTVSPost2010PropOp30
 70
     1
102
RTVSPost2010Prop31
280
     0
102
RTVSPost2010PropOp31
 70
     1
102
RTVSPost2010Prop32
280
     0
102
RTVSPost2010PropOp32
 70
     1
102
RTVSPost2010Prop33
280
     0
102
RTVSPost2010PropOp33
 70
     1
102
RTVSPost2010Prop34
280
     0
102
RTVSPost2010PropOp34
 70
     1
102
RTVSPost2010Prop35
280
     0
102
RTVSPost2010PropOp35
 70
     1
102
RTVSPost2010Prop36
280
     0
102
RTVSPost2010PropOp36
 70
     1
102
RTVSPost2010Prop37
 90
       50
102
RTVSPost2010PropOp37
 70
     1
102
RTVSPost2010Prop38
140
0.0
102
RTVSPost2010PropOp38
 70
     1
102
RTVSPost2010Prop39
140
1.0
102
RTVSPost2010PropOp39
 70
     1
102
RTVSPost2010Prop40
 90
        0
102
RTVSPost2010PropOp40
 70
     1
102
RTVSPost2010Prop41ColorIndex
 90
       18
102
RTVSPost2010Prop41ColorRGB
 90
        0
102
RTVSPost2010PropOp41
 70
     1
102
RTVSPost2010Prop42
 90
       50
102
RTVSPost2010PropOp42
 70
     1
102
RTVSPost2010Prop43
 90
        3
102
RTVSPost2010PropOp43
 70
     1
102
RTVSPost2010Prop44ColorIndex
 90
        5
102
RTVSPost2010Prop44ColorRGB
 90
      255
102
RTVSPost2010PropOp44
 70
     1
102
RTVSPost2010Prop45
280
     0
102
RTVSPost2010PropOp45
 70
     1
102
RTVSPost2010Prop46
 90
       50
102
RTVSPost2010PropOp46
 70
     1
102
RTVSPost2010Prop47
 90
       50
102
RTVSPost2010PropOp47
 70
     1
102
RTVSPost2010Prop48
 90
       50
102
RTVSPost2010PropOp48
 70
     1
102
RTVSPost2010Prop49
280
     0
102
RTVSPost2010PropOp49
 70
     1
102
RTVSPost2010Prop50
 90
       50
102
RTVSPost2010PropOp50
 70
     1
102
RTVSPost2010Prop51ColorIndex
 90
      256
102
RTVSPost2010Prop51ColorRGB
 90
-16777216
102
RTVSPost2010PropOp51
 70
     0
102
RTVSPost2010Prop52
140
1.0
102
RTVSPost2010PropOp52
 70
     0
102
RTVSPost2010Prop53
 90
        2
102
RTVSPost2010PropOp53
 70
     1
102
RTVSPost2010Prop54
  1
strokes_ogs.tif
102
RTVSPost2010PropOp54
 70
     1
102
RTVSPost2010Prop55
280
     0
102
RTVSPost2010PropOp55
 70
     1
102
RTVSPost2010Prop56
140
1.0
102
RTVSPost2010PropOp56
 70
     1
102
RTVSPost2010Prop57
140
1.0
102
RTVSPost2010PropOp57
 70
     1
  0
ENDSEC
  0
EOF
