  0
SECTION
  2
HEADER
  9
$ACADVER
  1
AC1024
  9
$ACADMAINTVER
 70
   226
  9
$DWGCODEPAGE
  3
ANSI_932
  9
$INSBASE
 10
0.0
 20
0.0
 30
0.0
  9
$EXTMIN
 10
1.000000000000000E+20
 20
1.000000000000000E+20
 30
1.000000000000000E+20
  9
$EXTMAX
 10
-1.000000000000000E+20
 20
-1.000000000000000E+20
 30
-1.000000000000000E+20
  9
$LIMMIN
 10
0.0
 20
0.0
  9
$LIMMAX
 10
12.0
 20
9.0
  9
$ORTHOMODE
 70
     0
  9
$REGENMODE
 70
     1
  9
$FILLMODE
 70
     1
  9
$QTEXTMODE
 70
     0
  9
$MIRRTEXT
 70
     0
  9
$LTSCALE
 40
1.0
  9
$ATTMODE
 70
     1
  9
$TEXTSIZE
 40
0.2
  9
$TRACEWID
 40
0.05
  9
$TEXTSTYLE
  7
Standard
  9
$CLAYER
  8
0
  9
$CELTYPE
  6
ByLayer
  9
$CECOLOR
 62
   256
  9
$CELTSCALE
 40
1.0
  9
$DISPSILH
 70
     0
  9
$DIMSCALE
 40
1.0
  9
$DIMASZ
 40
0.18
  9
$DIMEXO
 40
0.0625
  9
$DIMDLI
 40
0.38
  9
$DIMRND
 40
0.0
  9
$DIMDLE
 40
0.0
  9
$DIMEXE
 40
0.18
  9
$DIMTP
 40
0.0
  9
$DIMTM
 40
0.0
  9
$DIMTXT
 40
0.18
  9
$DIMCEN
 40
0.09
  9
$DIMTSZ
 40
0.0
  9
$DIMTOL
 70
     0
  9
$DIMLIM
 70
     0
  9
$DIMTIH
 70
     1
  9
$DIMTOH
 70
     1
  9
$DIMSE1
 70
     0
  9
$DIMSE2
 70
     0
  9
$DIMTAD
 70
     0
  9
$DIMZIN
 70
     0
  9
$DIMBLK
  1

  9
$DIMASO
 70
     1
  9
$DIMSHO
 70
     1
  9
$DIMPOST
  1

  9
$DIMAPOST
  1

  9
$DIMALT
 70
     0
  9
$DIMALTD
 70
     2
  9
$DIMALTF
 40
25.4
  9
$DIMLFAC
 40
1.0
  9
$DIMTOFL
 70
     0
  9
$DIMTVP
 40
0.0
  9
$DIMTIX
 70
     0
  9
$DIMSOXD
 70
     0
  9
$DIMSAH
 70
     0
  9
$DIMBLK1
  1

  9
$DIMBLK2
  1

  9
$DIMSTYLE
  2
Standard
  9
$DIMCLRD
 70
     0
  9
$DIMCLRE
 70
     0
  9
$DIMCLRT
 70
     0
  9
$DIMTFAC
 40
1.0
  9
$DIMGAP
 40
0.09
  9
$DIMJUST
 70
     0
  9
$DIMSD1
 70
     0
  9
$DIMSD2
 70
     0
  9
$DIMTOLJ
 70
     1
  9
$DIMTZIN
 70
     0
  9
$DIMALTZ
 70
     0
  9
$DIMALTTZ
 70
     0
  9
$DIMUPT
 70
     0
  9
$DIMDEC
 70
     4
  9
$DIMTDEC
 70
     4
  9
$DIMALTU
 70
     2
  9
$DIMALTTD
 70
     2
  9
$DIMTXSTY
  7
Standard
  9
$DIMAUNIT
 70
     0
  9
$DIMADEC
 70
     0
  9
$DIMALTRND
 40
0.0
  9
$DIMAZIN
 70
     0
  9
$DIMDSEP
 70
    46
  9
$DIMATFIT
 70
     3
  9
$DIMFRAC
 70
     0
  9
$DIMLDRBLK
  1

  9
$DIMLUNIT
 70
     2
  9
$DIMLWD
 70
    -2
  9
$DIMLWE
 70
    -2
  9
$DIMTMOVE
 70
     0
  9
$DIMFXL
 40
1.0
  9
$DIMFXLON
 70
     0
  9
$DIMJOGANG
 40
0.7853981633974483
  9
$DIMTFILL
 70
     0
  9
$DIMTFILLCLR
 70
     0
  9
$DIMARCSYM
 70
     0
  9
$DIMLTYPE
  6

  9
$DIMLTEX1
  6

  9
$DIMLTEX2
  6

  9
$DIMTXTDIRECTION
 70
     0
  9
$LUNITS
 70
     2
  9
$LUPREC
 70
     4
  9
$SKETCHINC
 40
0.1
  9
$FILLETRAD
 40
0.0
  9
$AUNITS
 70
     0
  9
$AUPREC
 70
     0
  9
$MENU
  1
.
  9
$ELEVATION
 40
0.0
  9
$PELEVATION
 40
0.0
  9
$THICKNESS
 40
0.0
  9
$LIMCHECK
 70
     0
  9
$CHAMFERA
 40
0.0
  9
$CHAMFERB
 40
0.0
  9
$CHAMFERC
 40
0.0
  9
$CHAMFERD
 40
0.0
  9
$SKPOLY
 70
     0
  9
$TDCREATE
 40
2460019.825902778
  9
$TDUCREATE
 40
2460019.450902778
  9
$TDUPDATE
 40
2460019.825902778
  9
$TDUUPDATE
 40
2460019.450902778
  9
$TDINDWG
 40
0.0000000000
  9
$TDUSRTIMER
 40
0.0000000000
  9
$USRTIMER
 70
     1
  9
$ANGBASE
 50
0.0
  9
$ANGDIR
 70
     0
  9
$PDMODE
 70
     0
  9
$PDSIZE
 40
0.0
  9
$PLINEWID
 40
0.0
  9
$SPLFRAME
 70
     0
  9
$SPLINETYPE
 70
     6
  9
$SPLINESEGS
 70
     8
  9
$HANDSEED
  5
142
  9
$SURFTAB1
 70
     6
  9
$SURFTAB2
 70
     6
  9
$SURFTYPE
 70
     6
  9
$SURFU
 70
     6
  9
$SURFV
 70
     6
  9
$UCSBASE
  2

  9
$UCSNAME
  2

  9
$UCSORG
 10
0.0
 20
0.0
 30
0.0
  9
$UCSXDIR
 10
1.0
 20
0.0
 30
0.0
  9
$UCSYDIR
 10
0.0
 20
1.0
 30
0.0
  9
$UCSORTHOREF
  2

  9
$UCSORTHOVIEW
 70
     0
  9
$UCSORGTOP
 10
0.0
 20
0.0
 30
0.0
  9
$UCSORGBOTTOM
 10
0.0
 20
0.0
 30
0.0
  9
$UCSORGLEFT
 10
0.0
 20
0.0
 30
0.0
  9
$UCSORGRIGHT
 10
0.0
 20
0.0
 30
0.0
  9
$UCSORGFRONT
 10
0.0
 20
0.0
 30
0.0
  9
$UCSORGBACK
 10
0.0
 20
0.0
 30
0.0
  9
$PUCSBASE
  2

  9
$PUCSNAME
  2

  9
$PUCSORG
 10
0.0
 20
0.0
 30
0.0
  9
$PUCSXDIR
 10
1.0
 20
0.0
 30
0.0
  9
$PUCSYDIR
 10
0.0
 20
1.0
 30
0.0
  9
$PUCSORTHOREF
  2

  9
$PUCSORTHOVIEW
 70
     0
  9
$PUCSORGTOP
 10
0.0
 20
0.0
 30
0.0
  9
$PUCSORGBOTTOM
 10
0.0
 20
0.0
 30
0.0
  9
$PUCSORGLEFT
 10
0.0
 20
0.0
 30
0.0
  9
$PUCSORGRIGHT
 10
0.0
 20
0.0
 30
0.0
  9
$PUCSORGFRONT
 10
0.0
 20
0.0
 30
0.0
  9
$PUCSORGBACK
 10
0.0
 20
0.0
 30
0.0
  9
$USERI1
 70
     0
  9
$USERI2
 70
     0
  9
$USERI3
 70
     0
  9
$USERI4
 70
     0
  9
$USERI5
 70
     0
  9
$USERR1
 40
0.0
  9
$USERR2
 40
0.0
  9
$USERR3
 40
0.0
  9
$USERR4
 40
0.0
  9
$USERR5
 40
0.0
  9
$WORLDVIEW
 70
     1
  9
$SHADEDGE
 70
     3
  9
$SHADEDIF
 70
    70
  9
$TILEMODE
 70
     1
  9
$MAXACTVP
 70
    64
  9
$PINSBASE
 10
0.0
 20
0.0
 30
0.0
  9
$PLIMCHECK
 70
     0
  9
$PEXTMIN
 10
1.000000000000000E+20
 20
1.000000000000000E+20
 30
1.000000000000000E+20
  9
$PEXTMAX
 10
-1.000000000000000E+20
 20
-1.000000000000000E+20
 30
-1.000000000000000E+20
  9
$PLIMMIN
 10
0.0
 20
0.0
  9
$PLIMMAX
 10
12.0
 20
9.0
  9
$UNITMODE
 70
     0
  9
$VISRETAIN
 70
     1
  9
$PLINEGEN
 70
     0
  9
$PSLTSCALE
 70
     1
  9
$TREEDEPTH
 70
  3020
  9
$CMLSTYLE
  2
Standard
  9
$CMLJUST
 70
     0
  9
$CMLSCALE
 40
1.0
  9
$PROXYGRAPHICS
 70
     1
  9
$MEASUREMENT
 70
     0
  9
$CELWEIGHT
370
    -1
  9
$ENDCAPS
280
     0
  9
$JOINSTYLE
280
     0
  9
$LWDISPLAY
290
     1
  9
$INSUNITS
 70
     4
  9
$HYPERLINKBASE
  1

  9
$STYLESHEET
  1

  9
$XEDIT
290
     1
  9
$CEPSNTYPE
380
     0
  9
$PSTYLEMODE
290
     1
  9
$FINGERPRINTGUID
  2
{B6493C04-F8EA-4041-9F8F-C063070AB565}
  9
$VERSIONGUID
  2
{7E2A765B-EC2E-714B-A6A0-913A6649AAA8}
  9
$EXTNAMES
290
     1
  9
$PSVPSCALE
 40
0.0
  9
$OLESTARTUP
290
     0
  9
$SORTENTS
280
   127
  9
$INDEXCTL
280
     0
  9
$HIDETEXT
280
     1
  9
$XCLIPFRAME
280
     2
  9
$HALOGAP
280
     0
  9
$OBSCOLOR
 70
   257
  9
$OBSLTYPE
280
     0
  9
$INTERSECTIONDISPLAY
280
     0
  9
$INTERSECTIONCOLOR
 70
   257
  9
$DIMASSOC
280
     2
  9
$PROJECTNAME
  1

  9
$CAMERADISPLAY
290
     0
  9
$LENSLENGTH
 40
50.0
  9
$CAMERAHEIGHT
 40
0.0
  9
$STEPSPERSEC
 40
2.0
  9
$STEPSIZE
 40
6.0
  9
$3DDWFPREC
 40
2.0
  9
$PSOLWIDTH
 40
0.25
  9
$PSOLHEIGHT
 40
4.0
  9
$LOFTANG1
 40
1.570796326794896
  9
$LOFTANG2
 40
1.570796326794896
  9
$LOFTMAG1
 40
0.0
  9
$LOFTMAG2
 40
0.0
  9
$LOFTPARAM
 70
     7
  9
$LOFTNORMALS
280
     1
  9
$LATITUDE
 40
37.795
  9
$LONGITUDE
 40
-122.394
  9
$NORTHDIRECTION
 40
0.0
  9
$TIMEZONE
 70
 -8000
  9
$LIGHTGLYPHDISPLAY
280
     1
  9
$TILEMODELIGHTSYNCH
280
     1
  9
$CMATERIAL
347
11
  9
$SOLIDHIST
280
     0
  9
$SHOWHIST
280
     1
  9
$DWFFRAME
280
     2
  9
$DGNFRAME
280
     0
  9
$REALWORLDSCALE
290
     1
  9
$INTERFERECOLOR
 62
     1
  9
$INTERFEREOBJVS
345
33
  9
$INTERFEREVPVS
346
30
  9
$CSHADOW
280
     0
  9
$SHADOWPLANELOCATION
 40
0.0
  0
ENDSEC
  0
SECTION
  2
CLASSES
  0
CLASS
  1
ACDBDICTIONARYWDFLT
  2
AcDbDictionaryWithDefault
  3
ObjectDBX Classes
 90
        0
 91
        1
280
     0
281
     0
  0
CLASS
  1
MATERIAL
  2
AcDbMaterial
  3
ObjectDBX Classes
 90
     1153
 91
        3
280
     0
281
     0
  0
CLASS
  1
VISUALSTYLE
  2
AcDbVisualStyle
  3
ObjectDBX Classes
 90
     4095
 91
       24
280
     0
281
     0
  0
CLASS
  1
SCALE
  2
AcDbScale
  3
ObjectDBX Classes
 90
     1153
 91
       17
280
     0
281
     0
  0
CLASS
  1
TABLESTYLE
  2
AcDbTableStyle
  3
ObjectDBX Classes
 90
     4095
 91
        1
280
     0
281
     0
  0
CLASS
  1
MLEADERSTYLE
  2
AcDbMLeaderStyle
  3
ACDB_MLEADERSTYLE_CLASS
 90
     4095
 91
        1
280
     0
281
     0
  0
CLASS
  1
ACDBSECTIONVIEWSTYLE
  2
AcDbSectionViewStyle
  3
ObjectDBX Classes
 90
     1025
 91
        1
280
     0
281
     0
  0
CLASS
  1
ACDBDETAILVIEWSTYLE
  2
AcDbDetailViewStyle
  3
ObjectDBX Classes
 90
     1025
 91
        1
280
     0
281
     0
  0
CLASS
  1
DICTIONARYVAR
  2
AcDbDictionaryVar
  3
ObjectDBX Classes
 90
        0
 91
        5
280
     0
281
     0
  0
CLASS
  1
CELLSTYLEMAP
  2
AcDbCellStyleMap
  3
ObjectDBX Classes
 90
     1152
 91
        1
280
     0
281
     0
  0
ENDSEC
  0
SECTION
  2
TABLES
  0
TABLE
  2
VPORT
  5
8
330
0
100
AcDbSymbolTable
 70
     1
  0
VPORT
  5
57
330
8
100
AcDbSymbolTableRecord
100
AcDbViewportTableRecord
  2
*Active
 70
     0
 10
0.0
 20
0.0
 11
1.0
 21
1.0
 12
0.0
 22
0.0
 13
0.0
 23
0.0
 14
1.0
 24
1.0
 15
0.0
 25
0.0
 16
0.0
 26
0.0
 36
1.0
 17
-1377.917314312097
 27
845.0010587018146
 37
0.0
 40
302.9399999242658
 41
1.41414180916879
 42
50.0
 43
0.0
 44
0.0
 50
0.0
 51
0.0
 71
     0
 72
   100
 73
     1
 74
     1
 75
     0
 76
     0
 77
     0
 78
     0
281
     0
 65
     1
110
0.0
120
0.0
130
0.0
111
1.0
121
0.0
131
0.0
112
0.0
122
1.0
132
0.0
 79
     0
146
0.0
 60
     3
 61
     5
292
     1
282
     1
141
0.0
142
0.0
 63
   250
421
  3355443
  0
ENDTAB
  0
TABLE
  2
LTYPE
  5
5
330
0
100
AcDbSymbolTable
 70
     7
  0
LTYPE
  5
5B
330
5
100
AcDbSymbolTableRecord
100
AcDbLinetypeTableRecord
  2
ByBlock
 70
     0
  3

 72
    65
 73
     0
 40
0.0
  0
LTYPE
  5
5C
330
5
100
AcDbSymbolTableRecord
100
AcDbLinetypeTableRecord
  2
ByLayer
 70
     0
  3

 72
    65
 73
     0
 40
0.0
  0
LTYPE
  5
5D
330
5
100
AcDbSymbolTableRecord
100
AcDbLinetypeTableRecord
  2
Continuous
 70
     0
  3
Solid line
 72
    65
 73
     0
 40
0.0
  0
LTYPE
  5
8B
330
5
100
AcDbSymbolTableRecord
100
AcDbLinetypeTableRecord
  2
AI-Linetype-0
 70
     0
  3
Adobe Illustrator Linetype No. 0
 72
    65
 73
     2
 40
1.411111110758333
 49
0.7055555553791667
 74
     0
 49
-0.7055555553791667
 74
     0
  0
LTYPE
  5
8D
330
5
100
AcDbSymbolTableRecord
100
AcDbLinetypeTableRecord
  2
AI-Linetype-1
 70
     0
  3
Adobe Illustrator Linetype No. 1
 72
    65
 73
     2
 40
1.411111110758333
 49
0.7055555553791667
 74
     0
 49
-0.7055555553791667
 74
     0
  0
LTYPE
  5
96
330
5
100
AcDbSymbolTableRecord
100
AcDbLinetypeTableRecord
  2
AI-Linetype-2
 70
     0
  3
Adobe Illustrator Linetype No. 2
 72
    65
 73
     4
 40
7.408333331481251
 49
5.29166666534375
 74
     0
 49
-0.7055555553791667
 74
     0
 49
0.7055555553791667
 74
     0
 49
-0.7055555553791667
 74
     0
  0
LTYPE
  5
99
330
5
100
AcDbSymbolTableRecord
100
AcDbLinetypeTableRecord
  2
AI-Linetype-3
 70
     0
  3
Adobe Illustrator Linetype No. 3
 72
    65
 73
     4
 40
7.408333331481251
 49
5.29166666534375
 74
     0
 49
-0.7055555553791667
 74
     0
 49
0.7055555553791667
 74
     0
 49
-0.7055555553791667
 74
     0
  0
LTYPE
  5
9B
330
5
100
AcDbSymbolTableRecord
100
AcDbLinetypeTableRecord
  2
AI-Linetype-4
 70
     0
  3
Adobe Illustrator Linetype No. 4
 72
    65
 73
     4
 40
2.822222221516666
 49
0.7055555553791667
 74
     0
 49
-0.7055555553791667
 74
     0
 49
0.7055555553791667
 74
     0
 49
-0.7055555553791667
 74
     0
  0
LTYPE
  5
9D
330
5
100
AcDbSymbolTableRecord
100
AcDbLinetypeTableRecord
  2
AI-Linetype-5
 70
     0
  3
Adobe Illustrator Linetype No. 5
 72
    65
 73
     4
 40
2.822222221516666
 49
0.7055555553791667
 74
     0
 49
-0.7055555553791667
 74
     0
 49
0.7055555553791667
 74
     0
 49
-0.7055555553791667
 74
     0
  0
ENDTAB
  0
TABLE
  2
LAYER
  5
2
330
0
100
AcDbSymbolTable
 70
    16
  0
LAYER
  5
54
330
2
100
AcDbSymbolTableRecord
100
AcDbLayerTableRecord
  2
0
 70
     0
 62
     7
  6
Continuous
370
    -3
390
F
347
21
  0
LAYER
  5
78
330
2
100
AcDbSymbolTableRecord
100
AcDbLayerTableRecord
  2
レイヤー 10
 70
     0
 62
     7
  6
Continuous
370
     0
390
F
347
21
  0
LAYER
  5
79
330
2
100
AcDbSymbolTableRecord
100
AcDbLayerTableRecord
  2
cut(穴あり)
 70
     0
 62
     7
  6
Continuous
370
     0
390
F
347
21
  0
LAYER
  5
80
330
2
100
AcDbSymbolTableRecord
100
AcDbLayerTableRecord
  2
断面
 70
     0
 62
     7
  6
Continuous
370
     0
390
F
347
21
  0
LAYER
  5
89
330
2
100
AcDbSymbolTableRecord
100
AcDbLayerTableRecord
  2
bottom
 70
     0
 62
     7
  6
Continuous
370
     0
390
F
347
21
  0
LAYER
  5
8E
330
2
100
AcDbSymbolTableRecord
100
AcDbLayerTableRecord
  2
top
 70
     0
 62
     7
  6
Continuous
370
     0
390
F
347
21
  0
LAYER
  5
91
330
2
100
AcDbSymbolTableRecord
100
AcDbLayerTableRecord
  2
切り欠き
 70
     0
 62
     7
  6
Continuous
370
     0
390
F
347
21
  0
LAYER
  5
94
330
2
100
AcDbSymbolTableRecord
100
AcDbLayerTableRecord
  2
中心線
 70
     0
 62
     7
  6
Continuous
370
     0
390
F
347
21
  0
LAYER
  5
97
330
2
100
AcDbSymbolTableRecord
100
AcDbLayerTableRecord
  2
H200ガイド
 70
     0
 62
     7
  6
Continuous
370
     0
390
F
347
21
  0
LAYER
  5
9E
330
2
100
AcDbSymbolTableRecord
100
AcDbLayerTableRecord
  2
間隔表示
 70
     0
 62
     7
  6
Continuous
370
     0
390
F
347
21
  0
LAYER
  5
9F
330
2
100
AcDbSymbolTableRecord
100
AcDbLayerTableRecord
  2
電源穴
 70
     0
 62
     7
  6
Continuous
370
     0
390
F
347
21
  0
LAYER
  5
A3
330
2
100
AcDbSymbolTableRecord
100
AcDbLayerTableRecord
  2
アンカー
 70
     0
 62
     7
  6
Continuous
370
     0
390
F
347
21
  0
LAYER
  5
AC
330
2
100
AcDbSymbolTableRecord
100
AcDbLayerTableRecord
  2
コメント
 70
     0
 62
     7
  6
Continuous
370
     0
390
F
347
21
  0
LAYER
  5
C3
330
2
100
AcDbSymbolTableRecord
100
AcDbLayerTableRecord
  2
上
 70
     0
 62
     7
  6
Continuous
370
     0
390
F
347
21
  0
LAYER
  5
C6
330
2
100
AcDbSymbolTableRecord
100
AcDbLayerTableRecord
  2
寸法
 70
     0
 62
     7
  6
Continuous
370
     0
390
F
347
21
  0
LAYER
  5
FF
330
2
100
AcDbSymbolTableRecord
100
AcDbLayerTableRecord
  2
TEXT
 70
     0
 62
     7
  6
Continuous
370
     0
390
F
347
21
  0
ENDTAB
  0
TABLE
  2
STYLE
  5
3
330
0
100
AcDbSymbolTable
 70
     2
  0
STYLE
  5
55
330
3
100
AcDbSymbolTableRecord
100
AcDbTextStyleTableRecord
  2
Standard
 70
     0
 40
0.0
 41
1.0
 50
0.0
 71
     0
 42
0.2
  3
txt
  4

  0
STYLE
  5
5A
330
3
100
AcDbSymbolTableRecord
100
AcDbTextStyleTableRecord
  2
Annotative
 70
     0
 40
0.0
 41
1.0
 50
0.0
 71
     0
 42
0.2
  3
txt
  4

1001
AcadAnnotative
1000
AnnotativeData
1002
{
1070
     1
1070
     1
1002
}
  0
ENDTAB
  0
TABLE
  2
VIEW
  5
6
330
0
100
AcDbSymbolTable
 70
     0
  0
ENDTAB
  0
TABLE
  2
UCS
  5
7
330
0
100
AcDbSymbolTable
 70
     0
  0
ENDTAB
  0
TABLE
  2
APPID
  5
9
330
0
100
AcDbSymbolTable
 70
     2
  0
APPID
  5
56
330
9
100
AcDbSymbolTableRecord
100
AcDbRegAppTableRecord
  2
ACAD
 70
     0
  0
APPID
  5
5E
330
9
100
AcDbSymbolTableRecord
100
AcDbRegAppTableRecord
  2
AcadAnnotative
 70
     0
  0
ENDTAB
  0
TABLE
  2
DIMSTYLE
  5
A
330
0
100
AcDbSymbolTable
 70
     2
100
AcDbDimStyleTable
 71
     0
  0
DIMSTYLE
105
58
330
A
100
AcDbSymbolTableRecord
100
AcDbDimStyleTableRecord
  2
Standard
 70
     0
340
55
  0
DIMSTYLE
105
59
330
A
100
AcDbSymbolTableRecord
100
AcDbDimStyleTableRecord
  2
Annotative
 70
     0
340
55
1001
AcadAnnotative
1000
AnnotativeData
1002
{
1070
     1
1070
     1
1002
}
  0
ENDTAB
  0
TABLE
  2
BLOCK_RECORD
  5
1
330
0
100
AcDbSymbolTable
 70
    13
  0
BLOCK_RECORD
  5
70
330
1
100
AcDbSymbolTableRecord
100
AcDbBlockTableRecord
  2
*Model_Space
340
73
 70
     0
280
     1
281
     0
  0
BLOCK_RECORD
  5
6C
330
1
100
AcDbSymbolTableRecord
100
AcDbBlockTableRecord
  2
*Paper_Space
340
6F
 70
     0
280
     1
281
     0
  0
BLOCK_RECORD
  5
74
330
1
100
AcDbSymbolTableRecord
100
AcDbBlockTableRecord
  2
*Paper_Space0
340
77
 70
     0
280
     1
281
     0
  0
BLOCK_RECORD
  5
81
330
1
100
AcDbSymbolTableRecord
100
AcDbBlockTableRecord
  2
Block_0
340
0
102
{BLKREFS
331
82
102
}
 70
     0
280
     1
281
     0
  0
BLOCK_RECORD
  5
B1
330
1
100
AcDbSymbolTableRecord
100
AcDbBlockTableRecord
  2
Block_1
340
0
102
{BLKREFS
331
B2
102
}
 70
     0
280
     1
281
     0
  0
BLOCK_RECORD
  5
B6
330
1
100
AcDbSymbolTableRecord
100
AcDbBlockTableRecord
  2
Block_2
340
0
102
{BLKREFS
331
B7
102
}
 70
     0
280
     1
281
     0
  0
BLOCK_RECORD
  5
C7
330
1
100
AcDbSymbolTableRecord
100
AcDbBlockTableRecord
  2
Block_3
340
0
102
{BLKREFS
331
C8
102
}
 70
     0
280
     1
281
     0
  0
BLOCK_RECORD
  5
CC
330
1
100
AcDbSymbolTableRecord
100
AcDbBlockTableRecord
  2
Block_4
340
0
102
{BLKREFS
331
CD
102
}
 70
     0
280
     1
281
     0
  0
BLOCK_RECORD
  5
D2
330
1
100
AcDbSymbolTableRecord
100
AcDbBlockTableRecord
  2
Block_5
340
0
102
{BLKREFS
331
D3
102
}
 70
     0
280
     1
281
     0
  0
BLOCK_RECORD
  5
D9
330
1
100
AcDbSymbolTableRecord
100
AcDbBlockTableRecord
  2
Block_6
340
0
102
{BLKREFS
331
DA
102
}
 70
     0
280
     1
281
     0
  0
BLOCK_RECORD
  5
DE
330
1
100
AcDbSymbolTableRecord
100
AcDbBlockTableRecord
  2
Block_7
340
0
102
{BLKREFS
331
DF
102
}
 70
     0
280
     1
281
     0
  0
BLOCK_RECORD
  5
E4
330
1
100
AcDbSymbolTableRecord
100
AcDbBlockTableRecord
  2
Block_8
340
0
102
{BLKREFS
331
E5
102
}
 70
     0
280
     1
281
     0
  0
BLOCK_RECORD
  5
ED
330
1
100
AcDbSymbolTableRecord
100
AcDbBlockTableRecord
  2
Block_9
340
0
102
{BLKREFS
331
EE
102
}
 70
     0
280
     1
281
     0
  0
BLOCK_RECORD
  5
F2
330
1
100
AcDbSymbolTableRecord
100
AcDbBlockTableRecord
  2
Block_10
340
0
102
{BLKREFS
331
F3
102
}
 70
     0
280
     1
281
     0
  0
BLOCK_RECORD
  5
F8
330
1
100
AcDbSymbolTableRecord
100
AcDbBlockTableRecord
  2
Block_11
340
0
102
{BLKREFS
331
F9
102
}
 70
     0
280
     1
281
     0
  0
ENDTAB
  0
ENDSEC
  0
SECTION
  2
BLOCKS
  0
BLOCK
  5
71
330
70
100
AcDbEntity
  8
0
100
AcDbBlockBegin
  2
*Model_Space
 70
     0
 10
0.0
 20
0.0
 30
0.0
  3
*Model_Space
  1

  0
ENDBLK
  5
72
330
70
100
AcDbEntity
  8
0
100
AcDbBlockEnd
  0
BLOCK
  5
6D
330
6C
100
AcDbEntity
 67
     1
  8
0
100
AcDbBlockBegin
  2
*Paper_Space
 70
     0
 10
0.0
 20
0.0
 30
0.0
  3
*Paper_Space
  1

  0
ENDBLK
  5
6E
330
6C
100
AcDbEntity
 67
     1
  8
0
100
AcDbBlockEnd
  0
BLOCK
  5
75
330
74
100
AcDbEntity
 67
     1
  8
0
100
AcDbBlockBegin
  2
*Paper_Space0
 70
     0
 10
0.0
 20
0.0
 30
0.0
  3
*Paper_Space0
  1

  0
ENDBLK
  5
76
330
74
100
AcDbEntity
 67
     1
  8
0
100
AcDbBlockEnd
  0
BLOCK
  5
83
330
81
100
AcDbEntity
  8
0
100
AcDbBlockBegin
  2
Block_0
 70
     0
 10
0.0
 20
0.0
 30
0.0
  3
Block_0
  1

  0
SPLINE
  5
85
330
81
100
AcDbEntity
  8
断面
 62
    29
370
    18
100
AcDbSpline
210
0.0
220
0.0
230
1.0
 70
     9
 71
     3
 72
    65
 73
    61
 74
     0
 42
0.0000000001
 43
0.0000000001
 40
0.0
 40
0.0
 40
0.0
 40
0.0
 40
1.0
 40
1.0
 40
1.0
 40
2.0
 40
2.0
 40
2.0
 40
3.0
 40
3.0
 40
3.0
 40
4.0
 40
4.0
 40
4.0
 40
5.0
 40
5.0
 40
5.0
 40
6.0
 40
6.0
 40
6.0
 40
7.0
 40
7.0
 40
7.0
 40
8.0
 40
8.0
 40
8.0
 40
9.0
 40
9.0
 40
9.0
 40
10.0
 40
10.0
 40
10.0
 40
11.0
 40
11.0
 40
11.0
 40
12.0
 40
12.0
 40
12.0
 40
13.0
 40
13.0
 40
13.0
 40
14.0
 40
14.0
 40
14.0
 40
15.0
 40
15.0
 40
15.0
 40
16.0
 40
16.0
 40
16.0
 40
17.0
 40
17.0
 40
17.0
 40
18.0
 40
18.0
 40
18.0
 40
19.0
 40
19.0
 40
19.0
 40
20.0
 40
20.0
 40
20.0
 40
20.0
 10
-1197.364379698073
 20
953.2074717244327
 30
0.0
 10
-1194.764482055441
 20
953.9041121453355
 30
0.0
 10
-1192.917292791028
 20
955.8114159671394
 30
0.0
 10
-1192.917292738231
 20
958.5030280543813
 30
0.0
 10
-1192.917292738231
 20
958.5030280543813
 30
0.0
 10
-1192.917292498963
 20
964.1508483736663
 30
0.0
 10
-1192.917292498963
 20
964.1508483736663
 30
0.0
 10
-1192.917292498963
 20
964.1508483736663
 30
0.0
 10
-1194.917293255146
 20
964.1508484325134
 30
0.0
 10
-1194.917293255146
 20
964.1508484325134
 30
0.0
 10
-1194.917293255146
 20
964.1508484325134
 30
0.0
 10
-1194.917293494414
 20
958.5030281132279
 30
0.0
 10
-1194.917293494414
 20
958.5030281132279
 30
0.0
 10
-1194.917293520809
 20
957.157222069607
 30
0.0
 10
-1195.84088815491
 20
955.9535701582518
 30
0.0
 10
-1197.140836976238
 20
955.6052499478179
 30
0.0
 10
-1197.140836976238
 20
955.6052499478179
 30
0.0
 10
-1221.470004058987
 20
949.6926387617188
 30
0.0
 10
-1221.470004058987
 20
949.6926387617188
 30
0.0
 10
-1224.069901702113
 20
948.9959983417998
 30
0.0
 10
-1225.917090968385
 20
946.5886945201832
 30
0.0
 10
-1225.917091021182
 20
943.8970824312796
 30
0.0
 10
-1225.917091021182
 20
943.8970824312796
 30
0.0
 10
-1225.917094763473
 20
741.6081052378445
 30
0.0
 10
-1225.917094763473
 20
741.6081052378445
 30
0.0
 10
-1225.91709481627
 20
738.9164931490606
 30
0.0
 10
-1224.069905642908
 20
736.5091892545814
 30
0.0
 10
-1221.470008023867
 20
735.8125487341281
 30
0.0
 10
-1221.470008023867
 20
735.8125487341281
 30
0.0
 10
-1197.140841177846
 20
729.899936683614
 30
0.0
 10
-1197.140841177846
 20
729.899936683614
 30
0.0
 10
-1195.840892369024
 20
729.5516164230009
 30
0.0
 10
-1194.917297783306
 20
728.3479644755139
 30
0.0
 10
-1194.917297809705
 20
727.002158430976
 30
0.0
 10
-1194.917297809705
 20
727.002158430976
 30
0.0
 10
-1194.917298049128
 20
720.2962456244065
 30
0.0
 10
-1194.917298049128
 20
720.2962456244065
 30
0.0
 10
-1194.917298049128
 20
720.2962456244065
 30
0.0
 10
-1192.917297292945
 20
720.2962455655629
 30
0.0
 10
-1192.917297292945
 20
720.2962455655629
 30
0.0
 10
-1192.917297292945
 20
720.2962455655629
 30
0.0
 10
-1192.917297053522
 20
727.0021583721328
 30
0.0
 10
-1192.917297053522
 20
727.0021583721328
 30
0.0
 10
-1192.917297000725
 20
729.6937704612091
 30
0.0
 10
-1194.764486173102
 20
731.6010743565844
 30
0.0
 10
-1197.364383790754
 20
732.2977148778107
 30
0.0
 10
-1197.364383790754
 20
732.2977148778107
 30
0.0
 10
-1221.69355063917
 20
738.2103269289634
 30
0.0
 10
-1221.69355063917
 20
738.2103269289634
 30
0.0
 10
-1222.99349944867
 20
738.5586471891952
 30
0.0
 10
-1223.917094033693
 20
740.2622991358387
 30
0.0
 10
-1223.917094007294
 20
741.608105180229
 30
0.0
 10
-1223.917094007294
 20
741.608105180229
 30
0.0
 10
-1223.917090265007
 20
943.8970823724362
 30
0.0
 10
-1223.917090265007
 20
943.8970823724362
 30
0.0
 10
-1223.917090238608
 20
945.2428884168618
 30
0.0
 10
-1222.993495605445
 20
946.9465403275432
 30
0.0
 10
-1221.693546783895
 20
947.2948605375004
 30
0.0
 10
-1221.693546783895
 20
947.2948605375004
 30
0.0
 10
-1197.364379698073
 20
953.2074717244327
 30
0.0
 10
-1197.364379698073
 20
953.2074717244327
 30
0.0
  0
ENDBLK
  5
84
330
81
100
AcDbEntity
  8
0
100
AcDbBlockEnd
  0
BLOCK
  5
B3
330
B1
100
AcDbEntity
  8
0
100
AcDbBlockBegin
  2
Block_1
 70
     0
 10
0.0
 20
0.0
 30
0.0
  3
Block_1
  1

  0
LWPOLYLINE
  5
B5
330
B1
100
AcDbEntity
  8
コメント
100
AcDbPolyline
 90
        4
 70
     1
 43
0.0
 10
-1526.461416339926
 20
707.0091192292474
 10
-1577.532844898593
 20
707.0091192292474
 10
-1577.532844898593
 20
729.0091192237476
 10
-1526.461416339926
 20
729.0091192237476
  0
INSERT
  5
B7
330
B1
100
AcDbEntity
  8
コメント
100
AcDbBlockReference
  2
Block_2
 10
0.0
 20
0.0
 30
0.0
  0
ENDBLK
  5
B4
330
B1
100
AcDbEntity
  8
0
100
AcDbBlockEnd
  0
BLOCK
  5
B8
330
B6
100
AcDbEntity
  8
0
100
AcDbBlockBegin
  2
Block_2
 70
     0
 10
0.0
 20
0.0
 30
0.0
  3
Block_2
  1

  0
LINE
  5
BA
330
B6
100
AcDbEntity
  8
コメント
 62
   251
370
   100
100
AcDbLine
 10
-1575.647298267028
 20
724.4448869367297
 30
0.0
 11
-1569.906807762608
 21
724.4448869367297
 31
0.0
  0
LINE
  5
BB
330
B6
100
AcDbEntity
  8
コメント
 62
   251
370
   100
100
AcDbLine
 10
-1572.777053014816
 20
721.5746416845177
 30
0.0
 11
-1572.777053014816
 21
727.315132188934
 31
0.0
  0
LINE
  5
BC
330
B6
100
AcDbEntity
  8
コメント
 62
   251
370
   100
100
AcDbLine
 10
-1575.647298267024
 20
717.7737188791995
 30
0.0
 11
-1569.906807762612
 21
717.7737188791995
 31
0.0
  0
LINE
  5
BD
330
B6
100
AcDbEntity
  8
コメント
 62
   251
370
   100
100
AcDbLine
 10
-1572.777053014816
 20
714.9034736269946
 30
0.0
 11
-1572.777053014816
 21
720.6439641314112
 31
0.0
  0
CIRCLE
  5
BE
330
B6
100
AcDbEntity
  8
コメント
 62
   251
370
   100
100
AcDbCircle
 10
-1572.777053014582
 20
717.7737188789666
 30
0.0
 40
2.296196202002832
  0
SPLINE
  5
BF
330
B6
100
AcDbEntity
  8
コメント
 62
     7
370
    50
100
AcDbSpline
210
0.0
220
0.0
230
1.0
 70
     9
 71
     3
 72
    17
 73
    13
 74
     0
 42
0.0000000001
 43
0.0000000001
 40
0.0
 40
0.0
 40
0.0
 40
0.0
 40
1.0
 40
1.0
 40
1.0
 40
2.0
 40
2.0
 40
2.0
 40
3.0
 40
3.0
 40
3.0
 40
4.0
 40
4.0
 40
4.0
 40
4.0
 10
-1572.777028294143
 20
712.8492508553919
 30
0.0
 10
-1571.984483536805
 20
712.8492508553919
 30
0.0
 10
-1571.341943819628
 20
712.2067358588842
 30
0.0
 10
-1571.341943819628
 20
711.4141416602063
 30
0.0
 10
-1571.341943819628
 20
710.6215721821944
 30
0.0
 10
-1571.984483536805
 20
709.9790324650171
 30
0.0
 10
-1572.777028294143
 20
709.9790324650171
 30
0.0
 10
-1573.569622492828
 20
709.9790324650171
 30
0.0
 10
-1574.212162210005
 20
710.6215721821944
 30
0.0
 10
-1574.212162210005
 20
711.4141416602063
 30
0.0
 10
-1574.212162210005
 20
712.2067358588842
 30
0.0
 10
-1573.569622492828
 20
712.8492508553919
 30
0.0
 10
-1572.777028294143
 20
712.8492508553919
 30
0.0
  0
MTEXT
  5
C0
330
B6
100
AcDbEntity
  8
コメント
100
AcDbMText
 10
-1567.076269128884
 20
723.0852778004569
 30
0.0
 40
0.2
 41
0.0
 46
0.0
 71
     7
 72
     1
  1
\C7;\FKozuka Gothic Pr6N R|b0|i0|c128;\H2.437430;\W1.000000;ベース仮固定穴位置
 73
     1
 44
1.0
  0
MTEXT
  5
C1
330
B6
100
AcDbEntity
  8
コメント
100
AcDbMText
 10
-1567.076269128884
 20
716.4582921250304
 30
0.0
 40
0.2
 41
0.0
 46
0.0
 71
     7
 72
     1
  1
\C7;\FKozuka Gothic Pr6N R|b0|i0|c128;\H2.437430;\W1.000000;ベース電源穴位置 
 73
     1
 44
1.0
  0
MTEXT
  5
C2
330
B6
100
AcDbEntity
  8
コメント
100
AcDbMText
 10
-1567.076269128884
 20
710.1567818455728
 30
0.0
 40
0.2
 41
0.0
 46
0.0
 71
     7
 72
     1
  1
\C7;\FKozuka Gothic Pr6N R|b0|i0|c128;\H2.437430;\W1.000000;本体/ベース仮固定穴位置
 73
     1
 44
1.0
  0
ENDBLK
  5
B9
330
B6
100
AcDbEntity
  8
0
100
AcDbBlockEnd
  0
BLOCK
  5
C9
330
C7
100
AcDbEntity
  8
0
100
AcDbBlockBegin
  2
Block_3
 70
     0
 10
0.0
 20
0.0
 30
0.0
  3
Block_3
  1

  0
LINE
  5
CB
330
C7
100
AcDbEntity
  8
寸法
 62
     7
370
    35
100
AcDbLine
 10
-1512.226806943021
 20
745.0010587268179
 30
0.0
 11
-1512.226806943021
 21
945.0010586768186
 31
0.0
  0
INSERT
  5
CD
330
C7
100
AcDbEntity
  8
寸法
100
AcDbBlockReference
  2
Block_4
 10
0.0
 20
0.0
 30
0.0
  0
INSERT
  5
D3
330
C7
100
AcDbEntity
  8
寸法
100
AcDbBlockReference
  2
Block_5
 10
0.0
 20
0.0
 30
0.0
  0
MTEXT
  5
D8
330
C7
100
AcDbEntity
  8
寸法
100
AcDbMText
 10
-1515.321201199945
 20
805.8999903041675
 30
0.0
 40
0.2
 41
0.0
 46
0.0
 71
     7
 72
     1
  1
\C7;\FMS UI Gothic|b0|i0|c128;\H5.696928;\W1.000000;TOP面 H200(基準寸)
 11
0.0000000000000001
 21
1.0
 31
0.0
 73
     1
 44
1.0
  0
ENDBLK
  5
CA
330
C7
100
AcDbEntity
  8
0
100
AcDbBlockEnd
  0
BLOCK
  5
CE
330
CC
100
AcDbEntity
  8
0
100
AcDbBlockBegin
  2
Block_4
 70
     0
 10
0.0
 20
0.0
 30
0.0
  3
Block_4
  1

  0
LINE
  5
D0
330
CC
100
AcDbEntity
  8
寸法
 62
     7
370
    35
100
AcDbLine
 10
-1512.226806943134
 20
945.0010586768186
 30
0.0
 11
-1514.79888200013
 21
937.4547221872532
 31
0.0
  0
LINE
  5
D1
330
CC
100
AcDbEntity
  8
寸法
 62
     7
370
    35
100
AcDbLine
 10
-1512.226806943134
 20
945.0010586769881
 30
0.0
 11
-1509.65473188625
 21
937.4547221870837
 31
0.0
  0
ENDBLK
  5
CF
330
CC
100
AcDbEntity
  8
0
100
AcDbBlockEnd
  0
BLOCK
  5
D4
330
D2
100
AcDbEntity
  8
0
100
AcDbBlockBegin
  2
Block_5
 70
     0
 10
0.0
 20
0.0
 30
0.0
  3
Block_5
  1

  0
LINE
  5
D6
330
D2
100
AcDbEntity
  8
寸法
 62
     7
370
    35
100
AcDbLine
 10
-1512.226806943247
 20
745.0010587269873
 30
0.0
 11
-1509.65473188625
 21
752.5473952165529
 31
0.0
  0
LINE
  5
D7
330
D2
100
AcDbEntity
  8
寸法
 62
     7
370
    35
100
AcDbLine
 10
-1512.226806943247
 20
745.0010587268179
 30
0.0
 11
-1514.79888200013
 21
752.5473952167223
 31
0.0
  0
ENDBLK
  5
D5
330
D2
100
AcDbEntity
  8
0
100
AcDbBlockEnd
  0
BLOCK
  5
DB
330
D9
100
AcDbEntity
  8
0
100
AcDbBlockBegin
  2
Block_6
 70
     0
 10
0.0
 20
0.0
 30
0.0
  3
Block_6
  1

  0
LINE
  5
DD
330
D9
100
AcDbEntity
  8
寸法
 62
     7
370
    35
100
AcDbLine
 10
-1243.714270962458
 20
735.9971390485075
 30
0.0
 11
-1243.714270962458
 21
948.430321025266
 31
0.0
  0
INSERT
  5
DF
330
D9
100
AcDbEntity
  8
寸法
100
AcDbBlockReference
  2
Block_7
 10
0.0
 20
0.0
 30
0.0
  0
INSERT
  5
E5
330
D9
100
AcDbEntity
  8
寸法
100
AcDbBlockReference
  2
Block_8
 10
0.0
 20
0.0
 30
0.0
  0
MTEXT
  5
EA
330
D9
100
AcDbEntity
  8
寸法
100
AcDbMText
 10
-1246.808392022282
 20
801.5083117706517
 30
0.0
 40
0.2
 41
0.0
 46
0.0
 71
     7
 72
     1
  1
\C7;\FMS UI Gothic|b0|i0|c128;\H5.696928;\W1.035170;TOP面 H212.5(参考寸)
 11
0.0000000000000001
 21
1.0
 31
0.0
 73
     1
 44
1.0
  0
ENDBLK
  5
DC
330
D9
100
AcDbEntity
  8
0
100
AcDbBlockEnd
  0
BLOCK
  5
E0
330
DE
100
AcDbEntity
  8
0
100
AcDbBlockBegin
  2
Block_7
 70
     0
 10
0.0
 20
0.0
 30
0.0
  3
Block_7
  1

  0
LINE
  5
E2
330
DE
100
AcDbEntity
  8
寸法
 62
     7
370
    35
100
AcDbLine
 10
-1243.714270962571
 20
948.430321025266
 30
0.0
 11
-1246.286346019571
 21
940.618545949826
 31
0.0
  0
LINE
  5
E3
330
DE
100
AcDbEntity
  8
寸法
 62
     7
370
    35
100
AcDbLine
 10
-1243.714270962571
 20
948.4303210254424
 30
0.0
 11
-1241.142195905688
 21
940.6185459496496
 31
0.0
  0
ENDBLK
  5
E1
330
DE
100
AcDbEntity
  8
0
100
AcDbBlockEnd
  0
BLOCK
  5
E6
330
E4
100
AcDbEntity
  8
0
100
AcDbBlockBegin
  2
Block_8
 70
     0
 10
0.0
 20
0.0
 30
0.0
  3
Block_8
  1

  0
LINE
  5
E8
330
E4
100
AcDbEntity
  8
寸法
 62
     7
370
    35
100
AcDbLine
 10
-1243.714270962688
 20
735.997139048684
 30
0.0
 11
-1241.142195905688
 21
743.8089141241237
 31
0.0
  0
LINE
  5
E9
330
E4
100
AcDbEntity
  8
寸法
 62
     7
370
    35
100
AcDbLine
 10
-1243.714270962688
 20
735.9971390485075
 30
0.0
 11
-1246.286346019571
 21
743.8089141243002
 31
0.0
  0
ENDBLK
  5
E7
330
E4
100
AcDbEntity
  8
0
100
AcDbBlockEnd
  0
BLOCK
  5
EF
330
ED
100
AcDbEntity
  8
0
100
AcDbBlockBegin
  2
Block_9
 70
     0
 10
0.0
 20
0.0
 30
0.0
  3
Block_9
  1

  0
LINE
  5
F1
330
ED
100
AcDbEntity
  8
寸法
 62
     7
370
    35
100
AcDbLine
 10
-1531.918426132441
 20
720.2962455655629
 30
0.0
 11
-1531.918426132441
 21
964.1249272089234
 31
0.0
  0
INSERT
  5
F3
330
ED
100
AcDbEntity
  8
寸法
100
AcDbBlockReference
  2
Block_10
 10
0.0
 20
0.0
 30
0.0
  0
INSERT
  5
F9
330
ED
100
AcDbEntity
  8
寸法
100
AcDbBlockReference
  2
Block_11
 10
0.0
 20
0.0
 30
0.0
  0
MTEXT
  5
FE
330
ED
100
AcDbEntity
  8
寸法
100
AcDbMText
 10
-1535.012764101924
 20
824.3679414171719
 30
0.0
 40
0.2
 41
0.0
 46
0.0
 71
     7
 72
     1
  1
\C7;\FMS UI Gothic|b0|i0|c128;\H5.696928;\W0.997660;底面 H244
 11
0.0000000000000001
 21
1.0
 31
0.0
 73
     1
 44
1.0
  0
ENDBLK
  5
F0
330
ED
100
AcDbEntity
  8
0
100
AcDbBlockEnd
  0
BLOCK
  5
F4
330
F2
100
AcDbEntity
  8
0
100
AcDbBlockBegin
  2
Block_10
 70
     0
 10
0.0
 20
0.0
 30
0.0
  3
Block_10
  1

  0
LINE
  5
F6
330
F2
100
AcDbEntity
  8
寸法
 62
     7
370
    35
100
AcDbLine
 10
-1531.918426132554
 20
964.1249272089234
 30
0.0
 11
-1534.490501189551
 21
954.9248608191829
 31
0.0
  0
LINE
  5
F7
330
F2
100
AcDbEntity
  8
寸法
 62
     7
370
    35
100
AcDbLine
 10
-1531.918426132554
 20
964.1249272091281
 30
0.0
 11
-1529.346351075667
 21
954.9248608189751
 31
0.0
  0
ENDBLK
  5
F5
330
F2
100
AcDbEntity
  8
0
100
AcDbBlockEnd
  0
BLOCK
  5
FA
330
F8
100
AcDbEntity
  8
0
100
AcDbBlockBegin
  2
Block_11
 70
     0
 10
0.0
 20
0.0
 30
0.0
  3
Block_11
  1

  0
LINE
  5
FC
330
F8
100
AcDbEntity
  8
寸法
 62
     7
370
    35
100
AcDbLine
 10
-1531.918426132664
 20
720.2962455657678
 30
0.0
 11
-1529.346351075667
 21
729.4963119555083
 31
0.0
  0
LINE
  5
FD
330
F8
100
AcDbEntity
  8
寸法
 62
     7
370
    35
100
AcDbLine
 10
-1531.918426132664
 20
720.2962455655629
 30
0.0
 11
-1534.490501189551
 21
729.4963119557162
 31
0.0
  0
ENDBLK
  5
FB
330
F8
100
AcDbEntity
  8
0
100
AcDbBlockEnd
  0
ENDSEC
  0
SECTION
  2
ENTITIES
  0
SPLINE
  5
7A
330
70
100
AcDbEntity
  8
cut(穴あり)
 62
     7
370
    35
100
AcDbSpline
210
0.0
220
0.0
230
1.0
 70
     9
 71
     3
 72
   158
 73
   154
 74
     0
 42
0.0000000001
 43
0.0000000001
 40
0.0
 40
0.0
 40
0.0
 40
0.0
 40
1.0
 40
1.0
 40
1.0
 40
2.0
 40
2.0
 40
2.0
 40
3.0
 40
3.0
 40
3.0
 40
4.0
 40
4.0
 40
4.0
 40
5.0
 40
5.0
 40
5.0
 40
6.0
 40
6.0
 40
6.0
 40
7.0
 40
7.0
 40
7.0
 40
8.0
 40
8.0
 40
8.0
 40
9.0
 40
9.0
 40
9.0
 40
10.0
 40
10.0
 40
10.0
 40
11.0
 40
11.0
 40
11.0
 40
12.0
 40
12.0
 40
12.0
 40
13.0
 40
13.0
 40
13.0
 40
14.0
 40
14.0
 40
14.0
 40
15.0
 40
15.0
 40
15.0
 40
16.0
 40
16.0
 40
16.0
 40
17.0
 40
17.0
 40
17.0
 40
18.0
 40
18.0
 40
18.0
 40
19.0
 40
19.0
 40
19.0
 40
20.0
 40
20.0
 40
20.0
 40
21.0
 40
21.0
 40
21.0
 40
22.0
 40
22.0
 40
22.0
 40
23.0
 40
23.0
 40
23.0
 40
24.0
 40
24.0
 40
24.0
 40
25.0
 40
25.0
 40
25.0
 40
26.0
 40
26.0
 40
26.0
 40
27.0
 40
27.0
 40
27.0
 40
28.0
 40
28.0
 40
28.0
 40
29.0
 40
29.0
 40
29.0
 40
30.0
 40
30.0
 40
30.0
 40
31.0
 40
31.0
 40
31.0
 40
32.0
 40
32.0
 40
32.0
 40
33.0
 40
33.0
 40
33.0
 40
34.0
 40
34.0
 40
34.0
 40
35.0
 40
35.0
 40
35.0
 40
36.0
 40
36.0
 40
36.0
 40
37.0
 40
37.0
 40
37.0
 40
38.0
 40
38.0
 40
38.0
 40
39.0
 40
39.0
 40
39.0
 40
40.0
 40
40.0
 40
40.0
 40
41.0
 40
41.0
 40
41.0
 40
42.0
 40
42.0
 40
42.0
 40
43.0
 40
43.0
 40
43.0
 40
44.0
 40
44.0
 40
44.0
 40
45.0
 40
45.0
 40
45.0
 40
46.0
 40
46.0
 40
46.0
 40
47.0
 40
47.0
 40
47.0
 40
48.0
 40
48.0
 40
48.0
 40
49.0
 40
49.0
 40
49.0
 40
50.0
 40
50.0
 40
50.0
 40
51.0
 40
51.0
 40
51.0
 40
51.0
 10
-1383.589604741103
 20
784.1845293427237
 30
0.0
 10
-1385.283472063812
 20
784.3340680186281
 30
0.0
 10
-1386.892159400649
 20
784.5444987572398
 30
0.0
 10
-1388.567509335126
 20
784.8356739212805
 30
0.0
 10
-1390.710272599566
 20
785.2099835457529
 30
0.0
 10
-1392.732285267245
 20
785.6877536940199
 30
0.0
 10
-1394.815965144113
 20
786.3121341870253
 30
0.0
 10
-1397.244757461214
 20
787.0421283885049
 30
0.0
 10
-1399.508917277813
 20
787.9121657214567
 30
0.0
 10
-1401.801542195858
 20
788.9964018662058
 30
0.0
 10
-1406.32783783546
 20
791.1440313280177
 30
0.0
 10
-1410.331813935806
 20
793.8770686401593
 30
0.0
 10
-1413.980859073783
 20
797.3098263772028
 30
0.0
 10
-1415.141942379698
 20
798.4018785823344
 30
0.0
 10
-1416.198553165024
 20
799.4964715453835
 30
0.0
 10
-1417.248876651091
 20
800.6954293697916
 30
0.0
 10
-1418.751885683917
 20
802.4083308450578
 30
0.0
 10
-1420.077773745108
 20
804.1358739761362
 30
0.0
 10
-1421.343803272244
 20
806.0306764930237
 30
0.0
 10
-1422.707070619451
 20
808.0670078388138
 30
0.0
 10
-1423.881029969746
 20
810.0931546210784
 30
0.0
 10
-1424.969723206777
 20
812.2886063145909
 30
0.0
 10
-1426.054454584001
 20
814.4703422217069
 30
0.0
 10
-1426.966500550028
 20
816.6112968110155
 30
0.0
 10
-1427.78841420542
 20
818.9049767895541
 30
0.0
 10
-1428.653865255011
 20
821.312581769421
 30
0.0
 10
-1429.350980326451
 20
823.6540624478191
 30
0.0
 10
-1429.943321431444
 20
826.1429716811379
 30
0.0
 10
-1430.569510599584
 20
828.76264381997
 30
0.0
 10
-1431.03408172577
 20
831.29181760677
 30
0.0
 10
-1431.379710930326
 20
833.9630154549546
 30
0.0
 10
-1431.724564988399
 20
836.6090210424006
 30
0.0
 10
-1431.933768411743
 20
839.1470659500768
 30
0.0
 10
-1432.026829053537
 20
841.8138282378201
 30
0.0
 10
-1432.06601701468
 20
842.8986888061253
 30
0.0
 10
-1432.084663593997
 20
843.9332725121939
 30
0.0
 10
-1432.084663593997
 20
845.0188436314441
 30
0.0
 10
-1432.084663593997
 20
847.7423853991529
 30
0.0
 10
-1431.967013583175
 20
850.3386739523779
 30
0.0
 10
-1431.72068925598
 20
853.051040691608
 30
0.0
 10
-1431.481168992366
 20
855.6670308846396
 30
0.0
 10
-1431.131922437551
 20
858.1498250734739
 30
0.0
 10
-1430.640565693965
 20
860.7303953785448
 30
0.0
 10
-1430.172118835361
 20
863.1797075456312
 30
0.0
 10
-1429.606692538842
 20
865.4920125716383
 30
0.0
 10
-1428.891921353041
 20
867.8810786314221
 30
0.0
 10
-1428.16883887438
 20
870.2914827513732
 30
0.0
 10
-1427.348131002405
 20
872.5502596062773
 30
0.0
 10
-1426.355211419863
 20
874.8626292278217
 30
0.0
 10
-1425.418317702649
 20
877.0389175777021
 30
0.0
 10
-1424.401670024952
 20
879.0608871816878
 30
0.0
 10
-1423.213628846864
 20
881.1109127820339
 30
0.0
 10
-1422.00448645893
 20
883.1926763245366
 30
0.0
 10
-1420.719896479866
 20
885.1014530099844
 30
0.0
 10
-1419.246687522988
 20
887.0054926891446
 30
0.0
 10
-1417.626803625823
 20
889.0952230149563
 30
0.0
 10
-1415.924581946561
 20
890.9665988825439
 30
0.0
 10
-1413.997137149949
 20
892.776544391261
 30
0.0
 10
-1410.300851140132
 20
896.2386930991627
 30
0.0
 10
-1406.238954371941
 20
898.9843265416698
 30
0.0
 10
-1401.648450765234
 20
901.1235801150837
 30
0.0
 10
-1400.152159668602
 20
901.8208889731464
 30
0.0
 10
-1398.692688029968
 20
902.4147803711073
 30
0.0
 10
-1397.13468666046
 20
902.9603543048928
 30
0.0
 10
-1395.304651938695
 20
903.6026923581177
 30
0.0
 10
-1393.525863012272
 20
904.1181647700962
 30
0.0
 10
-1391.635969756453
 20
904.5538401578991
 30
0.0
 10
-1389.451219390785
 20
905.0597093662149
 30
0.0
 10
-1387.339849558957
 20
905.4199586947389
 30
0.0
 10
-1385.110958907389
 20
905.6671658276535
 30
0.0
 10
-1383.060179692406
 20
905.8965015277379
 30
0.0
 10
-1381.094666590685
 20
906.0217522804709
 30
0.0
 10
-1379.031398904569
 20
906.0545452831219
 30
0.0
 10
-1378.654376267401
 20
906.0611124963919
 30
0.0
 10
-1378.295009744597
 20
906.0642346141731
 30
0.0
 10
-1377.917944043736
 20
906.0642346141731
 30
0.0
 10
-1375.850671434116
 20
906.0642346141731
 30
0.0
 10
-1373.879904561779
 20
905.9701189118852
 30
0.0
 10
-1371.822019837361
 20
905.7730809819769
 30
0.0
 10
-1369.612163338348
 20
905.5591405523429
 30
0.0
 10
-1367.516942391604
 20
905.2348709397957
 30
0.0
 10
-1365.3458432168
 20
904.7707519823916
 30
0.0
 10
-1362.911280364762
 20
904.2481740609717
 30
0.0
 10
-1360.624598236428
 20
903.5864573456407
 30
0.0
 10
-1358.287187077071
 20
902.728090273646
 30
0.0
 10
-1355.748194768135
 20
901.7929191041748
 30
0.0
 10
-1353.399543984762
 20
900.7019219595372
 30
0.0
 10
-1351.047146660044
 20
899.364966529097
 30
0.0
 10
-1347.074262546454
 20
897.1021632188442
 30
0.0
 10
-1343.584940647912
 20
894.4021988233613
 30
0.0
 10
-1340.397452177573
 20
891.1244703831536
 30
0.0
 10
-1338.534559857617
 20
889.2120117519063
 30
0.0
 10
-1336.899173030769
 20
887.2501590641347
 30
0.0
 10
-1335.353358686537
 20
885.0734185454756
 30
0.0
 10
-1334.024714548958
 20
883.206758152334
 30
0.0
 10
-1332.86772229393
 20
881.348624370516
 30
0.0
 10
-1331.778770674735
 20
879.3326836836296
 30
0.0
 10
-1330.629788266711
 20
877.2103110780934
 30
0.0
 10
-1329.65499849916
 20
875.1213128350711
 30
0.0
 10
-1328.766551437207
 20
872.8773498907536
 30
0.0
 10
-1327.832370732688
 20
870.5246726520284
 30
0.0
 10
-1327.069540464869
 20
868.2307988868709
 30
0.0
 10
-1326.408598896024
 20
865.7872572547242
 30
0.0
 10
-1325.710191913775
 20
863.2153642839035
 30
0.0
 10
-1325.177494024369
 20
860.7271656015264
 30
0.0
 10
-1324.761757126685
 20
858.0947466094025
 30
0.0
 10
-1324.319923630702
 20
855.3116046897953
 30
0.0
 10
-1324.03583244425
 20
852.6364880454988
 30
0.0
 10
-1323.883343905335
 20
849.8226201805355
 30
0.0
 10
-1323.793125467314
 20
848.2024563693634
 30
0.0
 10
-1323.750104837442
 20
846.6558668786458
 30
0.0
 10
-1323.750104837442
 20
845.0331838414005
 30
0.0
 10
-1323.750104837442
 20
842.7984365275044
 30
0.0
 10
-1323.831753600442
 20
840.6682909252815
 30
0.0
 10
-1324.002759527592
 20
838.4400892928111
 30
0.0
 10
-1324.215494173806
 20
835.6965229075912
 30
0.0
 10
-1324.552984340279
 20
833.0913632334903
 30
0.0
 10
-1325.046408141156
 20
830.384164137488
 30
0.0
 10
-1325.551459139293
 20
827.6249225678109
 30
0.0
 10
-1326.184323179934
 20
825.0218514828485
 30
0.0
 10
-1327.002361102906
 20
822.3386819278578
 30
0.0
 10
-1327.110709355918
 20
821.9847629622893
 30
0.0
 10
-1327.216732169474
 20
821.6483063244586
 30
0.0
 10
-1327.330850957425
 20
821.2962175658661
 30
0.0
 10
-1327.330850957425
 20
821.2962175658661
 30
0.0
 10
-1336.923116444391
 20
831.9789203694583
 30
0.0
 10
-1336.923116444391
 20
831.9789203694583
 30
0.0
 10
-1340.403007394042
 20
835.8544374718938
 30
0.0
 10
-1345.380179905275
 20
838.074500066285
 30
0.0
 10
-1350.588776705732
 20
838.074500066285
 30
0.0
 10
-1354.934678532989
 20
838.074500066285
 30
0.0
 10
-1359.103071815367
 20
836.5520047121199
 30
0.0
 10
-1362.425952538276
 20
833.7510559552226
 30
0.0
 10
-1362.425952538276
 20
833.7510559552226
 30
0.0
 10
-1379.322940110007
 20
819.5089020281185
 30
0.0
 10
-1379.322940110007
 20
819.5089020281185
 30
0.0
 10
-1383.454944571323
 20
816.0261042791532
 30
0.0
 10
-1385.852257328426
 20
810.8700882485393
 30
0.0
 10
-1385.852257328426
 20
805.4660468748393
 30
0.0
 10
-1385.852257328426
 20
800.8909170067314
 30
0.0
 10
-1384.157916305088
 20
796.5051381992339
 30
0.0
 10
-1381.081962801083
 20
793.1183509550736
 30
0.0
 10
-1381.081962801083
 20
793.1183509550736
 30
0.0
 10
-1372.929359653706
 20
784.1404321205126
 30
0.0
 10
-1372.929359653706
 20
784.1404321205126
 30
0.0
 10
-1373.97580740735
 20
784.0543262652259
 30
0.0
 10
-1374.97531573501
 20
783.9988171642207
 30
0.0
 10
-1376.024864074592
 20
783.9685433876431
 30
0.0
 10
-1376.685202751725
 20
783.9484972382916
 30
0.0
 10
-1377.314837015347
 20
783.938937098318
 30
0.0
 10
-1377.97547713834
 20
783.938937098318
 30
0.0
 10
-1379.878935457633
 20
783.938937098318
 30
0.0
 10
-1381.693424186022
 20
784.0183034855605
 30
0.0
 10
-1383.589604741103
 20
784.1845293427237
 30
0.0
  0
SPLINE
  5
7B
330
70
100
AcDbEntity
  8
cut(穴あり)
 62
     7
370
    35
100
AcDbSpline
210
0.0
220
0.0
230
1.0
 70
     9
 71
     3
 72
    17
 73
    13
 74
     0
 42
0.0000000001
 43
0.0000000001
 40
0.0
 40
0.0
 40
0.0
 40
0.0
 40
1.0
 40
1.0
 40
1.0
 40
2.0
 40
2.0
 40
2.0
 40
3.0
 40
3.0
 40
3.0
 40
4.0
 40
4.0
 40
4.0
 40
4.0
 10
-1456.801759535081
 20
932.4140043694139
 30
0.0
 10
-1458.182467678184
 20
932.4140043694139
 30
0.0
 10
-1459.301779201342
 20
933.5333158925717
 30
0.0
 10
-1459.301779201342
 20
934.9140025038261
 30
0.0
 10
-1459.301779201342
 20
936.2947106469254
 30
0.0
 10
-1458.182467678184
 20
937.4140006382383
 30
0.0
 10
-1456.801759535081
 20
937.4140006382383
 30
0.0
 10
-1455.421051391982
 20
937.4140006382383
 30
0.0
 10
-1454.301739868825
 20
936.2947106469254
 30
0.0
 10
-1454.301739868825
 20
934.9140025038261
 30
0.0
 10
-1454.301739868825
 20
933.5333158925717
 30
0.0
 10
-1455.421051391982
 20
932.4140043694139
 30
0.0
 10
-1456.801759535081
 20
932.4140043694139
 30
0.0
  0
SPLINE
  5
7C
330
70
100
AcDbEntity
  8
cut(穴あり)
 62
     7
370
    35
100
AcDbSpline
210
0.0
220
0.0
230
1.0
 70
     9
 71
     3
 72
    17
 73
    13
 74
     0
 42
0.0000000001
 43
0.0000000001
 40
0.0
 40
0.0
 40
0.0
 40
0.0
 40
1.0
 40
1.0
 40
1.0
 40
2.0
 40
2.0
 40
2.0
 40
3.0
 40
3.0
 40
3.0
 40
4.0
 40
4.0
 40
4.0
 40
4.0
 10
-1456.801759535081
 20
752.5873839309728
 30
0.0
 10
-1458.182467678184
 20
752.5873839309728
 30
0.0
 10
-1459.301779201342
 20
753.7066954541304
 30
0.0
 10
-1459.301779201342
 20
755.0874035972299
 30
0.0
 10
-1459.301779201342
 20
756.4680902084845
 30
0.0
 10
-1458.182467678184
 20
757.587401731642
 30
0.0
 10
-1456.801759535081
 20
757.587401731642
 30
0.0
 10
-1455.421051391982
 20
757.587401731642
 30
0.0
 10
-1454.301739868825
 20
756.4680902084845
 30
0.0
 10
-1454.301739868825
 20
755.0874035972299
 30
0.0
 10
-1454.301739868825
 20
753.7066954541304
 30
0.0
 10
-1455.421051391982
 20
752.5873839309728
 30
0.0
 10
-1456.801759535081
 20
752.5873839309728
 30
0.0
  0
SPLINE
  5
7D
330
70
100
AcDbEntity
  8
cut(穴あり)
 62
     7
370
    35
100
AcDbSpline
210
0.0
220
0.0
230
1.0
 70
     9
 71
     3
 72
    17
 73
    13
 74
     0
 42
0.0000000001
 43
0.0000000001
 40
0.0
 40
0.0
 40
0.0
 40
0.0
 40
1.0
 40
1.0
 40
1.0
 40
2.0
 40
2.0
 40
2.0
 40
3.0
 40
3.0
 40
3.0
 40
4.0
 40
4.0
 40
4.0
 40
4.0
 10
-1299.03231987726
 20
937.4140006382383
 30
0.0
 10
-1297.65165479785
 20
937.4140006382383
 30
0.0
 10
-1296.532343274692
 20
936.2947106469254
 30
0.0
 10
-1296.532343274692
 20
934.9140025038261
 30
0.0
 10
-1296.532343274692
 20
933.5333158925717
 30
0.0
 10
-1297.65165479785
 20
932.4140043694139
 30
0.0
 10
-1299.03231987726
 20
932.4140043694139
 30
0.0
 10
-1300.413028020359
 20
932.4140043694139
 30
0.0
 10
-1301.532339543517
 20
933.5333158925717
 30
0.0
 10
-1301.532339543517
 20
934.9140025038261
 30
0.0
 10
-1301.532339543517
 20
936.2947106469254
 30
0.0
 10
-1300.413028020359
 20
937.4140006382383
 30
0.0
 10
-1299.03231987726
 20
937.4140006382383
 30
0.0
  0
SPLINE
  5
7E
330
70
100
AcDbEntity
  8
cut(穴あり)
 62
     7
370
    35
100
AcDbSpline
210
0.0
220
0.0
230
1.0
 70
     9
 71
     3
 72
    17
 73
    13
 74
     0
 42
0.0000000001
 43
0.0000000001
 40
0.0
 40
0.0
 40
0.0
 40
0.0
 40
1.0
 40
1.0
 40
1.0
 40
2.0
 40
2.0
 40
2.0
 40
3.0
 40
3.0
 40
3.0
 40
4.0
 40
4.0
 40
4.0
 40
4.0
 10
-1286.667355416375
 20
734.3164707478764
 30
0.0
 10
-1285.286690336965
 20
734.3164707478764
 30
0.0
 10
-1284.167378813808
 20
733.1971807565669
 30
0.0
 10
-1284.167378813808
 20
731.8164726134642
 30
0.0
 10
-1284.167378813808
 20
730.4357860022097
 30
0.0
 10
-1285.286690336965
 20
729.316474479052
 30
0.0
 10
-1286.667355416375
 20
729.316474479052
 30
0.0
 10
-1288.048063559475
 20
729.316474479052
 30
0.0
 10
-1289.167375082632
 20
730.4357860022097
 30
0.0
 10
-1289.167375082632
 20
731.8164726134642
 30
0.0
 10
-1289.167375082632
 20
733.1971807565669
 30
0.0
 10
-1288.048063559475
 20
734.3164707478764
 30
0.0
 10
-1286.667355416375
 20
734.3164707478764
 30
0.0
  0
SPLINE
  5
7F
330
70
100
AcDbEntity
  8
cut(穴あり)
 62
     7
370
    35
100
AcDbSpline
210
0.0
220
0.0
230
1.0
 70
     9
 71
     3
 72
   266
 73
   262
 74
     0
 42
0.0000000001
 43
0.0000000001
 40
0.0
 40
0.0
 40
0.0
 40
0.0
 40
1.0
 40
1.0
 40
1.0
 40
2.0
 40
2.0
 40
2.0
 40
3.0
 40
3.0
 40
3.0
 40
4.0
 40
4.0
 40
4.0
 40
5.0
 40
5.0
 40
5.0
 40
6.0
 40
6.0
 40
6.0
 40
7.0
 40
7.0
 40
7.0
 40
8.0
 40
8.0
 40
8.0
 40
9.0
 40
9.0
 40
9.0
 40
10.0
 40
10.0
 40
10.0
 40
11.0
 40
11.0
 40
11.0
 40
12.0
 40
12.0
 40
12.0
 40
13.0
 40
13.0
 40
13.0
 40
14.0
 40
14.0
 40
14.0
 40
15.0
 40
15.0
 40
15.0
 40
16.0
 40
16.0
 40
16.0
 40
17.0
 40
17.0
 40
17.0
 40
18.0
 40
18.0
 40
18.0
 40
19.0
 40
19.0
 40
19.0
 40
20.0
 40
20.0
 40
20.0
 40
21.0
 40
21.0
 40
21.0
 40
22.0
 40
22.0
 40
22.0
 40
23.0
 40
23.0
 40
23.0
 40
24.0
 40
24.0
 40
24.0
 40
25.0
 40
25.0
 40
25.0
 40
26.0
 40
26.0
 40
26.0
 40
27.0
 40
27.0
 40
27.0
 40
28.0
 40
28.0
 40
28.0
 40
29.0
 40
29.0
 40
29.0
 40
30.0
 40
30.0
 40
30.0
 40
31.0
 40
31.0
 40
31.0
 40
32.0
 40
32.0
 40
32.0
 40
33.0
 40
33.0
 40
33.0
 40
34.0
 40
34.0
 40
34.0
 40
35.0
 40
35.0
 40
35.0
 40
36.0
 40
36.0
 40
36.0
 40
37.0
 40
37.0
 40
37.0
 40
38.0
 40
38.0
 40
38.0
 40
39.0
 40
39.0
 40
39.0
 40
40.0
 40
40.0
 40
40.0
 40
41.0
 40
41.0
 40
41.0
 40
42.0
 40
42.0
 40
42.0
 40
43.0
 40
43.0
 40
43.0
 40
44.0
 40
44.0
 40
44.0
 40
45.0
 40
45.0
 40
45.0
 40
46.0
 40
46.0
 40
46.0
 40
47.0
 40
47.0
 40
47.0
 40
48.0
 40
48.0
 40
48.0
 40
49.0
 40
49.0
 40
49.0
 40
50.0
 40
50.0
 40
50.0
 40
51.0
 40
51.0
 40
51.0
 40
52.0
 40
52.0
 40
52.0
 40
53.0
 40
53.0
 40
53.0
 40
54.0
 40
54.0
 40
54.0
 40
55.0
 40
55.0
 40
55.0
 40
56.0
 40
56.0
 40
56.0
 40
57.0
 40
57.0
 40
57.0
 40
58.0
 40
58.0
 40
58.0
 40
59.0
 40
59.0
 40
59.0
 40
60.0
 40
60.0
 40
60.0
 40
61.0
 40
61.0
 40
61.0
 40
62.0
 40
62.0
 40
62.0
 40
63.0
 40
63.0
 40
63.0
 40
64.0
 40
64.0
 40
64.0
 40
65.0
 40
65.0
 40
65.0
 40
66.0
 40
66.0
 40
66.0
 40
67.0
 40
67.0
 40
67.0
 40
68.0
 40
68.0
 40
68.0
 40
69.0
 40
69.0
 40
69.0
 40
70.0
 40
70.0
 40
70.0
 40
71.0
 40
71.0
 40
71.0
 40
72.0
 40
72.0
 40
72.0
 40
73.0
 40
73.0
 40
73.0
 40
74.0
 40
74.0
 40
74.0
 40
75.0
 40
75.0
 40
75.0
 40
76.0
 40
76.0
 40
76.0
 40
77.0
 40
77.0
 40
77.0
 40
78.0
 40
78.0
 40
78.0
 40
79.0
 40
79.0
 40
79.0
 40
80.0
 40
80.0
 40
80.0
 40
81.0
 40
81.0
 40
81.0
 40
82.0
 40
82.0
 40
82.0
 40
83.0
 40
83.0
 40
83.0
 40
84.0
 40
84.0
 40
84.0
 40
85.0
 40
85.0
 40
85.0
 40
86.0
 40
86.0
 40
86.0
 40
87.0
 40
87.0
 40
87.0
 40
87.0
 10
-1365.915748137449
 20
726.3863561733061
 30
0.0
 10
-1361.361848670271
 20
726.7963010042063
 30
0.0
 10
-1357.041182167445
 20
727.420573837978
 30
0.0
 10
-1352.557476520778
 20
728.3164709189172
 30
0.0
 10
-1347.717203491391
 20
729.2868466578788
 30
0.0
 10
-1343.158868463775
 20
730.4962689598239
 30
0.0
 10
-1338.474141495544
 20
732.0530645459154
 30
0.0
 10
-1335.225804026198
 20
733.1348029964358
 30
0.0
 10
-1332.175171974009
 20
734.3040038085889
 30
0.0
 10
-1329.036000967849
 20
735.6704794009687
 30
0.0
 10
-1329.036000967849
 20
735.6704794009687
 30
0.0
 10
-1320.503489915835
 20
726.2985493021282
 30
0.0
 10
-1320.503489915835
 20
726.2985493021282
 30
0.0
 10
-1317.025838278249
 20
722.47851976885
 30
0.0
 10
-1312.088025982937
 20
720.2962455655629
 30
0.0
 10
-1306.922105302805
 20
720.2962455655629
 30
0.0
 10
-1302.537704533502
 20
720.2962455655629
 30
0.0
 10
-1298.332707111591
 20
721.846883043474
 30
0.0
 10
-1294.998026936643
 20
724.6933501244691
 30
0.0
 10
-1293.908601616822
 20
725.6232244596305
 30
0.0
 10
-1292.534912855771
 20
726.129804218892
 30
0.0
 10
-1291.102614407779
 20
726.129804218892
 30
0.0
 10
-1290.366397502581
 20
726.129804218892
 30
0.0
 10
-1289.662004666929
 20
726.0006346700397
 30
0.0
 10
-1288.973674588976
 20
725.7394103048723
 30
0.0
 10
-1288.227983671194
 20
725.4564172426038
 30
0.0
 10
-1287.464981148596
 20
725.3164817703617
 30
0.0
 10
-1286.667355416375
 20
725.3164817703617
 30
0.0
 10
-1283.077565920745
 20
725.3164817703617
 30
0.0
 10
-1280.167364573273
 20
728.2266831178339
 30
0.0
 10
-1280.167364573273
 20
731.8164726134642
 30
0.0
 10
-1280.167364573273
 20
732.2714405359841
 30
0.0
 10
-1280.212452260437
 20
732.7056517582072
 30
0.0
 10
-1280.305814348087
 20
733.1509088178312
 30
0.0
 10
-1280.392027862604
 20
733.5619302410661
 30
0.0
 10
-1280.43362739059
 20
733.9627240370823
 30
0.0
 10
-1280.43362739059
 20
734.3827027085823
 30
0.0
 10
-1280.43362739059
 20
736.1320576004511
 30
0.0
 10
-1279.665241906298
 20
737.801809254763
 30
0.0
 10
-1278.336597768719
 20
738.9397673572337
 30
0.0
 10
-1274.269490293607
 20
742.4230818705252
 30
0.0
 10
-1271.917437478438
 20
747.5342901279825
 30
0.0
 10
-1271.917437478438
 20
752.8891742954806
 30
0.0
 10
-1271.917437478438
 20
757.4627108069241
 30
0.0
 10
-1273.610529654664
 20
761.846982385146
 30
0.0
 10
-1276.684502228767
 20
765.2334466516056
 30
0.0
 10
-1276.684502228767
 20
765.2334466516056
 30
0.0
 10
-1283.469316341111
 20
772.7080334756371
 30
0.0
 10
-1283.469316341111
 20
772.7080334756371
 30
0.0
 10
-1281.44838026577
 20
775.5488807446223
 30
0.0
 10
-1279.647284346082
 20
778.3462767467971
 30
0.0
 10
-1277.897692603898
 20
781.3618118887289
 30
0.0
 10
-1275.598134431186
 20
785.3214539165488
 30
0.0
 10
-1273.627453686234
 20
789.2256945025973
 30
0.0
 10
-1271.807538932458
 20
793.4274406156412
 30
0.0
 10
-1269.95847005814
 20
797.6919735939026
 30
0.0
 10
-1268.428072516203
 20
801.8588165833122
 30
0.0
 10
-1267.077379767518
 20
806.3063917910769
 30
0.0
 10
-1265.76845880159
 20
810.6096390298544
 30
0.0
 10
-1264.737384786547
 20
814.7782045670066
 30
0.0
 10
-1263.889202278078
 20
819.1954198708089
 30
0.0
 10
-1263.021167406877
 20
823.7054159023974
 30
0.0
 10
-1262.414055454991
 20
828.0474850609246
 30
0.0
 10
-1262.011797493392
 20
832.6226149290292
 30
0.0
 10
-1261.662852384432
 20
836.5686918933754
 30
0.0
 10
-1261.487583151618
 20
840.3441720356605
 30
0.0
 10
-1261.469410272935
 20
844.3056012067604
 30
0.0
 10
-1261.468032234741
 20
844.5588372567742
 30
0.0
 10
-1261.467429343029
 20
844.800166195516
 30
0.0
 10
-1261.467429343029
 20
845.0533807136817
 30
0.0
 10
-1261.467429343029
 20
850.1843982701796
 30
0.0
 10
-1261.731969612604
 20
855.0762831363082
 30
0.0
 10
-1262.285295011228
 20
860.1773498939286
 30
0.0
 10
-1262.776910136973
 20
864.6843099351215
 30
0.0
 10
-1263.463259285024
 20
868.9572618654768
 30
0.0
 10
-1264.407904467079
 20
873.3914442645419
 30
0.0
 10
-1265.341439216193
 20
877.7632704353239
 30
0.0
 10
-1266.450587707669
 20
881.8844659095541
 30
0.0
 10
-1267.837410895257
 20
886.1343141683104
 30
0.0
 10
-1269.2787527189
 20
890.5445962174454
 30
0.0
 10
-1270.893124463288
 20
894.6710454622921
 30
0.0
 10
-1272.827201068707
 20
898.888531355335
 30
0.0
 10
-1274.934049212712
 20
903.4772908824546
 30
0.0
 10
-1277.226631067064
 20
907.7227681763131
 30
0.0
 10
-1279.908078074315
 20
912.0012322594449
 30
0.0
 10
-1282.826892160497
 20
916.6534461390337
 30
0.0
 10
-1285.93406684234
 20
920.8873823630169
 30
0.0
 10
-1289.496726211022
 20
925.0670583331109
 30
0.0
 10
-1290.164127333904
 20
925.8493964541186
 30
0.0
 10
-1290.810599501711
 20
926.586087059943
 30
0.0
 10
-1291.499618598761
 20
927.3494986876295
 30
0.0
 10
-1292.49675842327
 20
928.454362341594
 30
0.0
 10
-1293.045432942993
 20
929.8811701686583
 30
0.0
 10
-1293.045432942993
 20
931.3694729501342
 30
0.0
 10
-1293.045432942993
 20
931.9532443801097
 30
0.0
 10
-1292.964645453864
 20
932.5110484028643
 30
0.0
 10
-1292.79915167949
 20
933.0708548873694
 30
0.0
 10
-1292.61979139579
 20
933.6772993520069
 30
0.0
 10
-1292.53237209785
 20
934.2815906319678
 30
0.0
 10
-1292.53237209785
 20
934.9140025038261
 30
0.0
 10
-1292.53237209785
 20
938.5038135313049
 30
0.0
 10
-1295.442530381629
 20
941.4140148787732
 30
0.0
 10
-1299.03231987726
 20
941.4140148787732
 30
0.0
 10
-1299.871071436837
 20
941.4140148787732
 30
0.0
 10
-1300.673735621207
 20
941.2590286456333
 30
0.0
 10
-1301.452241073485
 20
940.9467738035878
 30
0.0
 10
-1302.170801864322
 20
940.6585485025543
 30
0.0
 10
-1302.911712712118
 20
940.5154693806794
 30
0.0
 10
-1303.685954858736
 20
940.5154693806794
 30
0.0
 10
-1304.983894582803
 20
940.5154693806794
 30
0.0
 10
-1306.229382728107
 20
940.9283856064346
 30
0.0
 10
-1307.270275265282
 20
941.7037689409308
 30
0.0
 10
-1309.592571068196
 20
943.4336805751563
 30
0.0
 10
-1311.871028031059
 20
944.9955792089353
 30
0.0
 10
-1314.321998150347
 20
946.5377762029074
 30
0.0
 10
-1317.591479893235
 20
948.5941321662048
 30
0.0
 10
-1320.810361796185
 20
950.3925796687388
 30
0.0
 10
-1324.275395771557
 20
952.0988708670421
 30
0.0
 10
-1328.454038213002
 20
954.1579829067316
 30
0.0
 10
-1332.558697228902
 20
955.8771070857154
 30
0.0
 10
-1336.957567399244
 20
957.4104114269669
 30
0.0
 10
-1341.189005929002
 20
958.8870224156377
 30
0.0
 10
-1345.303225084876
 20
960.0661709410049
 30
0.0
 10
-1349.674448363947
 20
961.0551501955869
 30
0.0
 10
-1353.648107624022
 20
961.9558058146646
 30
0.0
 10
-1357.478537039298
 20
962.6281377304591
 30
0.0
 10
-1361.521442718624
 20
963.1345667667908
 30
0.0
 10
-1365.166525996792
 20
963.5929582529483
 30
0.0
 10
-1368.659594436676
 20
963.8836812482104
 30
0.0
 10
-1372.33034367621
 20
964.0341888572232
 30
0.0
 10
-1374.221055142207
 20
964.113189203069
 30
0.0
 10
-1376.024562628736
 20
964.1508484030914
 30
0.0
 10
-1377.916910515091
 20
964.1508484030914
 30
0.0
 10
-1382.041852530659
 20
964.1508484030914
 30
0.0
 10
-1385.974127581219
 20
963.9717465015515
 30
0.0
 10
-1390.081973310442
 20
963.596747857982
 30
0.0
 10
-1394.179828262761
 20
963.2200697303661
 30
0.0
 10
-1398.069082683445
 20
962.6721918889781
 30
0.0
 10
-1402.111557725837
 20
961.9021269206356
 30
0.0
 10
-1406.308416109661
 20
961.1004532012179
 30
0.0
 10
-1410.269285452749
 20
960.1249528827214
 30
0.0
 10
-1414.358441538966
 20
958.8858812277583
 30
0.0
 10
-1419.05591536049
 20
957.460300715962
 30
0.0
 10
-1423.448928868506
 20
955.8169255739571
 30
0.0
 10
-1427.92862959167
 20
953.8093607754685
 30
0.0
 10
-1433.199797938876
 20
951.4443457885375
 30
0.0
 10
-1438.052860885255
 20
948.7995890482073
 30
0.0
 10
-1442.897440284002
 20
945.6518268351789
 30
0.0
 10
-1444.858044124657
 20
944.3763232954617
 30
0.0
 10
-1446.688164973808
 20
943.1012288608298
 30
0.0
 10
-1448.563890274445
 20
941.7039196638571
 30
0.0
 10
-1449.60478281162
 20
940.9284717338236
 30
0.0
 10
-1450.850357084312
 20
940.5155339762201
 30
0.0
 10
-1452.14829680838
 20
940.5155339762201
 30
0.0
 10
-1452.922495891305
 20
940.5155339762201
 30
0.0
 10
-1453.663449802793
 20
940.6585915662466
 30
0.0
 10
-1454.381967529934
 20
940.9468168672807
 30
0.0
 10
-1455.160386854827
 20
941.2590286456333
 30
0.0
 10
-1455.963051039197
 20
941.4140148787732
 30
0.0
 10
-1456.801759535081
 20
941.4140148787732
 30
0.0
 10
-1460.391549030712
 20
941.4140148787732
 30
0.0
 10
-1463.301750378184
 20
938.5038135313049
 30
0.0
 10
-1463.301750378184
 20
934.9140025038261
 30
0.0
 10
-1463.301750378184
 20
934.2815906319678
 30
0.0
 10
-1463.214288016551
 20
933.677320883855
 30
0.0
 10
-1463.034970796544
 20
933.0708548873694
 30
0.0
 10
-1462.869433958478
 20
932.5110484028643
 30
0.0
 10
-1462.788646469349
 20
931.9532659119543
 30
0.0
 10
-1462.788646469349
 20
931.3694944819788
 30
0.0
 10
-1462.788646469349
 20
929.8811701686583
 30
0.0
 10
-1463.337364052764
 20
928.4543408097491
 30
0.0
 10
-1464.334546940969
 20
927.3494556239372
 30
0.0
 10
-1465.90163474982
 20
925.6131059675228
 30
0.0
 10
-1467.342804318689
 20
923.9106905016386
 30
0.0
 10
-1468.796634613465
 20
922.078394935964
 30
0.0
 10
-1472.206245615216
 20
917.7841910728332
 30
0.0
 10
-1475.160328866429
 20
913.452392605221
 30
0.0
 10
-1477.913003222836
 20
908.7101756060787
 30
0.0
 10
-1480.457421557164
 20
904.3304472475286
 30
0.0
 10
-1482.613276184445
 20
899.9969692958661
 30
0.0
 10
-1484.571554585649
 20
895.3256136044895
 30
0.0
 10
-1486.377688957484
 20
891.0226678115645
 30
0.0
 10
-1487.865065869548
 20
886.8215245902323
 30
0.0
 10
-1489.168690001167
 20
882.3406396154938
 30
0.0
 10
-1490.497118820279
 20
877.7822399923374
 30
0.0
 10
-1491.522723746238
 20
873.366015153492
 30
0.0
 10
-1492.339297503628
 20
868.6887382042462
 30
0.0
 10
-1493.132875248655
 20
864.1556600329099
 30
0.0
 10
-1493.669621125257
 20
859.7955471867777
 30
0.0
 10
-1493.999144508421
 20
855.2053450259235
 30
0.0
 10
-1494.248311039394
 20
851.7562661490174
 30
0.0
 10
-1494.367166833635
 20
848.4601279798122
 30
0.0
 10
-1494.367166833635
 20
845.0020487909517
 30
0.0
 10
-1494.367166833635
 20
844.4986988087086
 30
0.0
 10
-1494.364669139406
 20
844.0189907942356
 30
0.0
 10
-1494.359329241404
 20
843.5156408119924
 30
0.0
 10
-1494.310925649836
 20
838.6537498084337
 30
0.0
 10
-1494.025930125821
 20
834.020979186492
 30
0.0
 10
-1493.478159943666
 20
829.1897925964448
 30
0.0
 10
-1492.988396556741
 20
824.890808663331
 30
0.0
 10
-1492.323234745929
 20
820.815131513199
 30
0.0
 10
-1491.420748919875
 20
816.5835207286667
 30
0.0
 10
-1490.436657394513
 20
811.9785046572257
 30
0.0
 10
-1489.254860451991
 20
807.6400528489582
 30
0.0
 10
-1487.767483539927
 20
803.1721300459857
 30
0.0
 10
-1486.224339144698
 20
798.5444840035758
 30
0.0
 10
-1484.487149746261
 20
794.220738446661
 30
0.0
 10
-1482.399680264359
 20
789.8118129038715
 30
0.0
 10
-1480.136812358565
 20
785.0386331090578
 30
0.0
 10
-1477.668918207706
 20
780.6337986171585
 30
0.0
 10
-1474.779818070083
 20
776.2115017975174
 30
0.0
 10
-1471.644695051121
 20
771.4178882801037
 30
0.0
 10
-1468.305277869879
 20
767.0742257649155
 30
0.0
 10
-1464.478551932253
 20
762.8122981401129
 30
0.0
 10
-1464.429717703747
 20
762.7579732906792
 30
0.0
 10
-1464.383122787311
 20
762.706253794708
 30
0.0
 10
-1464.334202431421
 20
762.6520366045078
 30
0.0
 10
-1463.337148734293
 20
761.5471944823882
 30
0.0
 10
-1462.788560341963
 20
760.120472782713
 30
0.0
 10
-1462.788560341963
 20
758.6322561286257
 30
0.0
 10
-1462.788560341963
 20
758.0484416349576
 30
0.0
 10
-1462.869347831093
 20
757.4905730166584
 30
0.0
 10
-1463.034884669159
 20
756.9307234684608
 30
0.0
 10
-1463.214288016551
 20
756.3242144082826
 30
0.0
 10
-1463.301750378184
 20
755.719858532781
 30
0.0
 10
-1463.301750378184
 20
755.0874035972299
 30
0.0
 10
-1463.301750378184
 20
751.497592569755
 30
0.0
 10
-1460.391549030712
 20
748.5873912222828
 30
0.0
 10
-1456.801759535081
 20
748.5873912222828
 30
0.0
 10
-1455.962964911812
 20
748.5873912222828
 30
0.0
 10
-1455.160257663749
 20
748.742398987271
 30
0.0
 10
-1454.381838338857
 20
749.0546538293163
 30
0.0
 10
-1453.663234484326
 20
749.3429006621981
 30
0.0
 10
-1452.922237509142
 20
749.4859797840695
 30
0.0
 10
-1452.148038426221
 20
749.4859797840695
 30
0.0
 10
-1450.850098702153
 20
749.4859797840695
 30
0.0
 10
-1449.604696684235
 20
749.0731066220104
 30
0.0
 10
-1448.563847210752
 20
748.2978094148994
 30
0.0
 10
-1445.912889298545
 20
746.3231883419879
 30
0.0
 10
-1443.301248538566
 20
744.5543471287825
 30
0.0
 10
-1440.483935578114
 20
742.8253398321207
 30
0.0
 10
-1437.119885964157
 20
740.7608017670441
 30
0.0
 10
-1433.808158737878
 20
738.9627849014478
 30
0.0
 10
-1430.244465840551
 20
737.2659892475731
 30
0.0
 10
-1425.8168721866
 20
735.1562988997951
 30
0.0
 10
-1421.465673525037
 20
733.4157935969508
 30
0.0
 10
-1416.804545460879
 20
731.8899608065337
 30
0.0
 10
-1412.530387747104
 20
730.4889696637639
 30
0.0
 10
-1408.379865897557
 20
729.3833308633139
 30
0.0
 10
-1403.975182128583
 20
728.4724476170139
 30
0.0
 10
-1399.972024238415
 20
727.6428901560137
 30
0.0
 10
-1396.117091581503
 20
727.0385127486638
 30
0.0
 10
-1392.052137291071
 20
726.6031388067172
 30
0.0
 10
-1388.646358958046
 20
726.2367959655535
 30
0.0
 10
-1385.386394291435
 20
726.013682969191
 30
0.0
 10
-1381.96248614342
 20
725.9126555440842
 30
0.0
 10
-1380.587204025708
 20
725.8710775479499
 30
0.0
 10
-1379.275914556633
 20
725.8512682489095
 30
0.0
 10
-1377.900029547213
 20
725.8512682489095
 30
0.0
 10
-1373.836582486054
 20
725.8512682489095
 30
0.0
 10
-1369.96304631352
 20
726.0242120422691
 30
0.0
 10
-1365.915748137449
 20
726.3863561733061
 30
0.0
  0
INSERT
  5
82
330
70
100
AcDbEntity
  8
断面
100
AcDbBlockReference
  2
Block_0
 10
0.0
 20
0.0
 30
0.0
  0
LINE
  5
86
330
70
100
AcDbEntity
  8
断面
 62
    29
370
    18
100
AcDbLine
 10
-1587.917292401018
 20
964.1508484030914
 30
0.0
 11
-1167.917292506019
 21
964.1508484030914
 31
0.0
  0
LINE
  5
87
330
70
100
AcDbEntity
  8
断面
 62
    29
370
    18
100
AcDbLine
 10
-1587.917292401018
 20
720.2962455655629
 30
0.0
 11
-1167.917292506019
 21
720.2962455655629
 31
0.0
  0
LWPOLYLINE
  5
88
330
70
100
AcDbEntity
  8
断面
 62
    29
370
    18
100
AcDbPolyline
 90
        4
 70
     1
 43
0.0
 10
-1187.917292500212
 20
720.2962455655629
 10
-1192.917292498963
 20
720.2962455655629
 10
-1192.917292498963
 20
964.1508484325134
 10
-1187.917292500212
 20
964.1508484325134
  0
SPLINE
  5
8A
330
70
100
AcDbEntity
  8
bottom
  6
AI-Linetype-0
 62
   254
370
    18
100
AcDbSpline
210
0.0
220
0.0
230
1.0
 70
     9
 71
     3
 72
   176
 73
   172
 74
     0
 42
0.0000000001
 43
0.0000000001
 40
0.0
 40
0.0
 40
0.0
 40
0.0
 40
1.0
 40
1.0
 40
1.0
 40
2.0
 40
2.0
 40
2.0
 40
3.0
 40
3.0
 40
3.0
 40
4.0
 40
4.0
 40
4.0
 40
5.0
 40
5.0
 40
5.0
 40
6.0
 40
6.0
 40
6.0
 40
7.0
 40
7.0
 40
7.0
 40
8.0
 40
8.0
 40
8.0
 40
9.0
 40
9.0
 40
9.0
 40
10.0
 40
10.0
 40
10.0
 40
11.0
 40
11.0
 40
11.0
 40
12.0
 40
12.0
 40
12.0
 40
13.0
 40
13.0
 40
13.0
 40
14.0
 40
14.0
 40
14.0
 40
15.0
 40
15.0
 40
15.0
 40
16.0
 40
16.0
 40
16.0
 40
17.0
 40
17.0
 40
17.0
 40
18.0
 40
18.0
 40
18.0
 40
19.0
 40
19.0
 40
19.0
 40
20.0
 40
20.0
 40
20.0
 40
21.0
 40
21.0
 40
21.0
 40
22.0
 40
22.0
 40
22.0
 40
23.0
 40
23.0
 40
23.0
 40
24.0
 40
24.0
 40
24.0
 40
25.0
 40
25.0
 40
25.0
 40
26.0
 40
26.0
 40
26.0
 40
27.0
 40
27.0
 40
27.0
 40
28.0
 40
28.0
 40
28.0
 40
29.0
 40
29.0
 40
29.0
 40
30.0
 40
30.0
 40
30.0
 40
31.0
 40
31.0
 40
31.0
 40
32.0
 40
32.0
 40
32.0
 40
33.0
 40
33.0
 40
33.0
 40
34.0
 40
34.0
 40
34.0
 40
35.0
 40
35.0
 40
35.0
 40
36.0
 40
36.0
 40
36.0
 40
37.0
 40
37.0
 40
37.0
 40
38.0
 40
38.0
 40
38.0
 40
39.0
 40
39.0
 40
39.0
 40
40.0
 40
40.0
 40
40.0
 40
41.0
 40
41.0
 40
41.0
 40
42.0
 40
42.0
 40
42.0
 40
43.0
 40
43.0
 40
43.0
 40
44.0
 40
44.0
 40
44.0
 40
45.0
 40
45.0
 40
45.0
 40
46.0
 40
46.0
 40
46.0
 40
47.0
 40
47.0
 40
47.0
 40
48.0
 40
48.0
 40
48.0
 40
49.0
 40
49.0
 40
49.0
 40
50.0
 40
50.0
 40
50.0
 40
51.0
 40
51.0
 40
51.0
 40
52.0
 40
52.0
 40
52.0
 40
53.0
 40
53.0
 40
53.0
 40
54.0
 40
54.0
 40
54.0
 40
55.0
 40
55.0
 40
55.0
 40
56.0
 40
56.0
 40
56.0
 40
57.0
 40
57.0
 40
57.0
 40
57.0
 10
-1375.788142951059
 20
775.9720461294445
 30
0.0
 10
-1376.52862316192
 20
775.9496314769424
 30
0.0
 10
-1377.23465241793
 20
775.9389301490933
 30
0.0
 10
-1377.97547713834
 20
775.9389301490933
 30
0.0
 10
-1380.116603982423
 20
775.9389301490933
 30
0.0
 10
-1382.157693866352
 20
776.0282657813948
 30
0.0
 10
-1384.290681672351
 20
776.2153129343958
 30
0.0
 10
-1386.213260271588
 20
776.3849623551998
 30
0.0
 10
-1388.03916087877
 20
776.6238151315609
 30
0.0
 10
-1389.940724395547
 20
776.9544151070635
 30
0.0
 10
-1392.401211591112
 20
777.3840831096148
 30
0.0
 10
-1394.722947566011
 20
777.9326715019483
 30
0.0
 10
-1397.115480253128
 20
778.6497465953551
 30
0.0
 10
-1399.935549289968
 20
779.4971754891855
 30
0.0
 10
-1402.564501654762
 20
780.5074066765423
 30
0.0
 10
-1405.22635468144
 20
781.7665675445531
 30
0.0
 10
-1410.51690169075
 20
784.2762334781721
 30
0.0
 10
-1415.196977780077
 20
787.4704183528624
 30
0.0
 10
-1419.462049054508
 20
791.482619618677
 30
0.0
 10
-1420.812914057967
 20
792.7531493017891
 30
0.0
 10
-1422.042210254494
 20
794.0265857842192
 30
0.0
 10
-1423.264271750497
 20
795.4214403506557
 30
0.0
 10
-1424.999996983355
 20
797.3998079649086
 30
0.0
 10
-1426.531341926548
 20
799.3949488878024
 30
0.0
 10
-1427.993612705263
 20
801.5831874126474
 30
0.0
 10
-1429.550537482432
 20
803.9091436295139
 30
0.0
 10
-1430.89145477268
 20
806.2233219261898
 30
0.0
 10
-1432.135048115467
 20
808.7308131432807
 30
0.0
 10
-1433.359865687862
 20
811.1946808387909
 30
0.0
 10
-1434.38982004687
 20
813.6123627229537
 30
0.0
 10
-1435.318144089063
 20
816.2025146998461
 30
0.0
 10
-1436.28466562745
 20
818.891713171936
 30
0.0
 10
-1437.06330027081
 20
821.5070143458705
 30
0.0
 10
-1437.725060049833
 20
824.2869695521521
 30
0.0
 10
-1438.41717973282
 20
827.1832613266017
 30
0.0
 10
-1438.930800405978
 20
829.9794946090528
 30
0.0
 10
-1439.313076813759
 20
832.9326950545496
 30
0.0
 10
-1439.690659278942
 20
835.8303218034972
 30
0.0
 10
-1439.919758128711
 20
838.6096741180704
 30
0.0
 10
-1440.021819082464
 20
841.5300169653761
 30
0.0
 10
-1440.064366011707
 20
842.7109311021791
 30
0.0
 10
-1440.08469207507
 20
843.8371543481554
 30
0.0
 10
-1440.08469207507
 20
845.0188436314441
 30
0.0
 10
-1440.08469207507
 20
847.9887312581963
 30
0.0
 10
-1439.956362268244
 20
850.8198676642821
 30
0.0
 10
-1439.687644820395
 20
853.7775682657542
 30
0.0
 10
-1439.424095015773
 20
856.6569144767854
 30
0.0
 10
-1439.039708487005
 20
859.3896503430743
 30
0.0
 10
-1438.498742368435
 20
862.2299808477334
 30
0.0
 10
-1437.978274567999
 20
864.952036918018
 30
0.0
 10
-1437.349889151489
 20
867.5218412996995
 30
0.0
 10
-1436.555364005205
 20
870.1769117946405
 30
0.0
 10
-1435.742924362395
 20
872.8856827154592
 30
0.0
 10
-1434.820672300993
 20
875.4240506008393
 30
0.0
 10
-1433.704719745936
 20
878.0225354024336
 30
0.0
 10
-1432.639754604056
 20
880.4966091933211
 30
0.0
 10
-1431.484054259836
 20
882.7951769010798
 30
0.0
 10
-1430.133361511151
 20
885.1255471465362
 30
0.0
 10
-1428.743093228079
 20
887.5195224673882
 30
0.0
 10
-1427.265922411389
 20
889.7144573965819
 30
0.0
 10
-1425.571710579132
 20
891.9038801729987
 30
0.0
 10
-1423.689008960136
 20
894.3329954678004
 30
0.0
 10
-1421.710318368182
 20
896.5081856934945
 30
0.0
 10
-1419.469757455657
 20
898.6118040604807
 30
0.0
 10
-1415.134621551793
 20
902.6731194688082
 30
0.0
 10
-1410.368375011643
 20
905.8919583080662
 30
0.0
 10
-1404.981666774599
 20
908.3962628118351
 30
0.0
 10
-1403.257396484231
 20
909.1979365312528
 30
0.0
 10
-1401.576017632655
 20
909.8813142844445
 30
0.0
 10
-1399.781381267003
 20
910.5098288920359
 30
0.0
 10
-1397.669882244094
 20
911.2508904627574
 30
0.0
 10
-1395.617466608756
 20
911.8456861982858
 30
0.0
 10
-1393.436850357671
 20
912.3485194162061
 30
0.0
 10
-1390.945572621209
 20
912.925206868589
 30
0.0
 10
-1388.538053768727
 20
913.3359914415123
 30
0.0
 10
-1385.996434574484
 20
913.6179940388284
 30
0.0
 10
-1383.691881013319
 20
913.8756225855841
 30
0.0
 10
-1381.483187234033
 20
914.0163977998492
 30
0.0
 10
-1379.164551845074
 20
914.053454108164
 30
0.0
 10
-1378.742484584435
 20
914.0607534042201
 30
0.0
 10
-1378.340140495454
 20
914.0642415634015
 30
0.0
 10
-1377.917944043736
 20
914.0642415634015
 30
0.0
 10
-1375.590695916061
 20
914.0642415634015
 30
0.0
 10
-1373.37205442356
 20
913.958218749841
 30
0.0
 10
-1371.055356900811
 20
913.7362684732057
 30
0.0
 10
-1368.535355680737
 20
913.4924633720833
 30
0.0
 10
-1366.145966643249
 20
913.1226754354345
 30
0.0
 10
-1363.670148772774
 20
912.5932934504332
 30
0.0
 10
-1360.86110404149
 20
911.9904878678999
 30
0.0
 10
-1358.222677664112
 20
911.2269685809829
 30
0.0
 10
-1355.525856918258
 20
910.236417501585
 30
0.0
 10
-1352.567768743541
 20
909.1471213728453
 30
0.0
 10
-1349.831501654381
 20
907.8760749254067
 30
0.0
 10
-1347.091014323251
 20
906.3183319380584
 30
0.0
 10
-1342.455379965687
 20
903.6784198632521
 30
0.0
 10
-1338.383836930137
 20
900.5283968063139
 30
0.0
 10
-1334.664511844261
 20
896.7041900947572
 30
0.0
 10
-1332.511068783821
 20
894.4932139397126
 30
0.0
 10
-1330.620529572594
 20
892.2252645180801
 30
0.0
 10
-1328.833300162235
 20
889.7090098393462
 30
0.0
 10
-1327.312635015046
 20
887.5722754920055
 30
0.0
 10
-1325.988340310516
 20
885.4454673260345
 30
0.0
 10
-1324.741775572871
 20
883.1380715610956
 30
0.0
 10
-1323.44043381701
 20
880.7339332085588
 30
0.0
 10
-1322.336280713988
 20
878.3676909063629
 30
0.0
 10
-1321.329753004279
 20
875.8260071165789
 30
0.0
 10
-1320.283003804779
 20
873.1892171595577
 30
0.0
 10
-1319.428017232729
 20
870.6184438447682
 30
0.0
 10
-1318.687106384933
 20
867.8799374435431
 30
0.0
 10
-1317.912476665075
 20
865.0266662989663
 30
0.0
 10
-1317.321556661966
 20
862.2662835414098
 30
0.0
 10
-1316.86025837649
 20
859.3459191622565
 30
0.0
 10
-1316.375102804782
 20
856.2894519795909
 30
0.0
 10
-1316.063063281204
 20
853.3516468045441
 30
0.0
 10
-1315.895373258461
 20
850.2614822816603
 30
0.0
 10
-1315.797015782357
 20
848.4928563869219
 30
0.0
 10
-1315.750076356368
 20
846.8045442806824
 30
0.0
 10
-1315.750076356368
 20
845.0331838414005
 30
0.0
 10
-1315.750076356368
 20
842.5898575277207
 30
0.0
 10
-1315.839390456825
 20
840.2608868523028
 30
0.0
 10
-1316.026459141675
 20
837.8247306436044
 30
0.0
 10
-1316.260811762057
 20
834.8011856546678
 30
0.0
 10
-1316.63270981969
 20
831.930172268342
 30
0.0
 10
-1317.176604269425
 20
828.9467195781154
 30
0.0
 10
-1317.738068706132
 20
825.8789481758862
 30
0.0
 10
-1318.441643331609
 20
822.9848095861164
 30
0.0
 10
-1319.351320794489
 20
820.0017014054386
 30
0.0
 10
-1320.198986538635
 20
817.2311340843526
 30
0.0
 10
-1321.160211242712
 20
814.6363527604034
 30
0.0
 10
-1322.32202663142
 20
811.9821650711779
 30
0.0
 10
-1322.9338755896
 20
810.5885378200092
 30
0.0
 10
-1323.560193948819
 20
809.279164685299
 30
0.0
 10
-1324.261184752678
 20
807.9282135544511
 30
0.0
 10
-1324.431889233973
 20
807.5992499993059
 30
0.0
 10
-1324.778207457629
 20
807.3888192606943
 30
0.0
 10
-1325.148813604453
 20
807.3888192606943
 30
0.0
 10
-1325.432431090278
 20
807.3888192606943
 30
0.0
 10
-1325.703387850193
 20
807.5096775166894
 30
0.0
 10
-1325.892868101882
 20
807.720689615161
 30
0.0
 10
-1325.892868101882
 20
807.720689615161
 30
0.0
 10
-1342.875423232724
 20
826.6338331922451
 30
0.0
 10
-1342.875423232724
 20
826.6338331922451
 30
0.0
 10
-1344.839515232562
 20
828.8213611661454
 30
0.0
 10
-1347.648818346009
 20
830.0745146489051
 30
0.0
 10
-1350.588776705732
 20
830.0745146489051
 30
0.0
 10
-1353.04168469123
 20
830.0745146489051
 30
0.0
 10
-1355.394512652881
 20
829.2151571119575
 30
0.0
 10
-1357.269979571358
 20
827.6342027937765
 30
0.0
 10
-1357.269979571358
 20
827.6342027937765
 30
0.0
 10
-1374.166837952008
 20
813.3921565259054
 30
0.0
 10
-1374.166837952008
 20
813.3921565259054
 30
0.0
 10
-1376.499081468136
 20
811.4264496375627
 30
0.0
 10
-1377.852314974742
 20
808.5162482900903
 30
0.0
 10
-1377.852314974742
 20
805.4660468748393
 30
0.0
 10
-1377.852314974742
 20
802.8837109583292
 30
0.0
 10
-1376.895870340648
 20
800.4082591292478
 30
0.0
 10
-1375.159714470856
 20
798.496704835564
 30
0.0
 10
-1375.159714470856
 20
798.496704835564
 30
0.0
 10
-1358.626528982368
 20
780.2898488966489
 30
0.0
 10
-1358.626528982368
 20
780.2898488966489
 30
0.0
 10
-1358.459097341785
 20
780.1054286289544
 30
0.0
 10
-1358.366854910169
 20
779.8666619799785
 30
0.0
 10
-1358.366854910169
 20
779.6175815763949
 30
0.0
 10
-1358.366854910169
 20
779.1811095102619
 30
0.0
 10
-1358.658826752544
 20
778.7873996918388
 30
0.0
 10
-1359.076458452742
 20
778.6606632416742
 30
0.0
 10
-1362.248357866011
 20
777.6986418592627
 30
0.0
 10
-1365.346403044815
 20
777.020367153758
 30
0.0
 10
-1368.630138870277
 20
776.5689735178048
 30
0.0
 10
-1371.040499926532
 20
776.2355098066771
 30
0.0
 10
-1373.355819411087
 20
776.042433736577
 30
0.0
 10
-1375.788142951059
 20
775.9720461294445
 30
0.0
  0
SPLINE
  5
8C
330
70
100
AcDbEntity
  8
bottom
  6
AI-Linetype-1
 62
   254
370
    18
100
AcDbSpline
210
0.0
220
0.0
230
1.0
 70
     9
 71
     3
 72
   188
 73
   184
 74
     0
 42
0.0000000001
 43
0.0000000001
 40
0.0
 40
0.0
 40
0.0
 40
0.0
 40
1.0
 40
1.0
 40
1.0
 40
2.0
 40
2.0
 40
2.0
 40
3.0
 40
3.0
 40
3.0
 40
4.0
 40
4.0
 40
4.0
 40
5.0
 40
5.0
 40
5.0
 40
6.0
 40
6.0
 40
6.0
 40
7.0
 40
7.0
 40
7.0
 40
8.0
 40
8.0
 40
8.0
 40
9.0
 40
9.0
 40
9.0
 40
10.0
 40
10.0
 40
10.0
 40
11.0
 40
11.0
 40
11.0
 40
12.0
 40
12.0
 40
12.0
 40
13.0
 40
13.0
 40
13.0
 40
14.0
 40
14.0
 40
14.0
 40
15.0
 40
15.0
 40
15.0
 40
16.0
 40
16.0
 40
16.0
 40
17.0
 40
17.0
 40
17.0
 40
18.0
 40
18.0
 40
18.0
 40
19.0
 40
19.0
 40
19.0
 40
20.0
 40
20.0
 40
20.0
 40
21.0
 40
21.0
 40
21.0
 40
22.0
 40
22.0
 40
22.0
 40
23.0
 40
23.0
 40
23.0
 40
24.0
 40
24.0
 40
24.0
 40
25.0
 40
25.0
 40
25.0
 40
26.0
 40
26.0
 40
26.0
 40
27.0
 40
27.0
 40
27.0
 40
28.0
 40
28.0
 40
28.0
 40
29.0
 40
29.0
 40
29.0
 40
30.0
 40
30.0
 40
30.0
 40
31.0
 40
31.0
 40
31.0
 40
32.0
 40
32.0
 40
32.0
 40
33.0
 40
33.0
 40
33.0
 40
34.0
 40
34.0
 40
34.0
 40
35.0
 40
35.0
 40
35.0
 40
36.0
 40
36.0
 40
36.0
 40
37.0
 40
37.0
 40
37.0
 40
38.0
 40
38.0
 40
38.0
 40
39.0
 40
39.0
 40
39.0
 40
40.0
 40
40.0
 40
40.0
 40
41.0
 40
41.0
 40
41.0
 40
42.0
 40
42.0
 40
42.0
 40
43.0
 40
43.0
 40
43.0
 40
44.0
 40
44.0
 40
44.0
 40
45.0
 40
45.0
 40
45.0
 40
46.0
 40
46.0
 40
46.0
 40
47.0
 40
47.0
 40
47.0
 40
48.0
 40
48.0
 40
48.0
 40
49.0
 40
49.0
 40
49.0
 40
50.0
 40
50.0
 40
50.0
 40
51.0
 40
51.0
 40
51.0
 40
52.0
 40
52.0
 40
52.0
 40
53.0
 40
53.0
 40
53.0
 40
54.0
 40
54.0
 40
54.0
 40
55.0
 40
55.0
 40
55.0
 40
56.0
 40
56.0
 40
56.0
 40
57.0
 40
57.0
 40
57.0
 40
58.0
 40
58.0
 40
58.0
 40
59.0
 40
59.0
 40
59.0
 40
60.0
 40
60.0
 40
60.0
 40
61.0
 40
61.0
 40
61.0
 40
61.0
 10
-1354.127492660795
 20
736.160888743294
 30
0.0
 10
-1349.615537231149
 20
737.0655708177206
 30
0.0
 10
-1345.366356459642
 20
738.1929567834206
 30
0.0
 10
-1340.999353422539
 20
739.6440525336559
 30
0.0
 10
-1336.398342274602
 20
741.1763664099539
 30
0.0
 10
-1332.110059669338
 20
742.9359489290454
 30
0.0
 10
-1327.758774880386
 20
745.0769465820468
 30
0.0
 10
-1327.619894468637
 20
745.1453747911216
 30
0.0
 10
-1327.471540044301
 20
745.1799549370557
 30
0.0
 10
-1327.316726065935
 20
745.1799549370557
 30
0.0
 10
-1327.035477083257
 20
745.1799549370557
 30
0.0
 10
-1326.766630444326
 20
745.0611422065072
 30
0.0
 10
-1326.577279383719
 20
744.8531660984317
 30
0.0
 10
-1326.577279383719
 20
744.8531660984317
 30
0.0
 10
-1314.587830330727
 20
731.6841594149861
 30
0.0
 10
-1314.587830330727
 20
731.6841594149861
 30
0.0
 10
-1312.624944114313
 20
729.5280033418464
 30
0.0
 10
-1309.837861866746
 20
728.2962525147914
 30
0.0
 10
-1306.922105302805
 20
728.2962525147914
 30
0.0
 10
-1304.444478757198
 20
728.2962525147914
 30
0.0
 10
-1302.068310273636
 20
729.1736322074955
 30
0.0
 10
-1300.185221081399
 20
730.783762178068
 30
0.0
 10
-1300.185221081399
 20
730.783762178068
 30
0.0
 10
-1283.547433881237
 20
745.0099610067068
 30
0.0
 10
-1283.547433881237
 20
745.0099610067068
 30
0.0
 10
-1281.247832644833
 20
746.9759908727497
 30
0.0
 10
-1279.917465959511
 20
749.8636914403342
 30
0.0
 10
-1279.917465959511
 20
752.8891742954806
 30
0.0
 10
-1279.917465959511
 20
755.4706274062713
 30
0.0
 10
-1280.873135447119
 20
757.9452825570188
 30
0.0
 10
-1282.608214724573
 20
759.8566861277761
 30
0.0
 10
-1282.608214724573
 20
759.8566861277761
 30
0.0
 10
-1293.28323065886
 20
771.6169717354586
 30
0.0
 10
-1293.28323065886
 20
771.6169717354586
 30
0.0
 10
-1293.450619235751
 20
771.8013704713082
 30
0.0
 10
-1293.542818603674
 20
772.0400725247399
 30
0.0
 10
-1293.542818603674
 20
772.2890883327862
 30
0.0
 10
-1293.542818603674
 20
772.5162277844975
 30
0.0
 10
-1293.46668199345
 20
772.7341516057844
 30
0.0
 10
-1293.325217760088
 20
772.9118539372823
 30
0.0
 10
-1290.140614557215
 20
776.9141720854268
 30
0.0
 10
-1287.38324625821
 20
780.9539556469713
 30
0.0
 10
-1284.81656399431
 20
785.3780180780479
 30
0.0
 10
-1282.676040041939
 20
789.0635381644752
 30
0.0
 10
-1280.841785078203
 20
792.6975540733949
 30
0.0
 10
-1279.147917755495
 20
796.6084910637915
 30
0.0
 10
-1277.421494280447
 20
800.5899879160947
 30
0.0
 10
-1275.99264092794
 20
804.4802973972721
 30
0.0
 10
-1274.731649852953
 20
808.6327355811848
 30
0.0
 10
-1273.505583433445
 20
812.6635188307751
 30
0.0
 10
-1272.539750914156
 20
816.5681469900643
 30
0.0
 10
-1271.74535495895
 20
820.7056851360015
 30
0.0
 10
-1270.929470220657
 20
824.9444229618195
 30
0.0
 10
-1270.358876280911
 20
829.0253323507203
 30
0.0
 10
-1269.980863178793
 20
833.3252852169387
 30
0.0
 10
-1269.651684305178
 20
837.0474309747432
 30
0.0
 10
-1269.486405849271
 20
840.6086477096941
 30
0.0
 10
-1269.469309562927
 20
844.3452844003816
 30
0.0
 10
-1269.468060715814
 20
844.585084578003
 30
0.0
 10
-1269.46741476041
 20
844.8136020679084
 30
0.0
 10
-1269.46741476041
 20
845.0533807136817
 30
0.0
 10
-1269.46741476041
 20
849.8908976666845
 30
0.0
 10
-1269.716796609849
 20
854.5029546520217
 30
0.0
 10
-1270.238384066316
 20
859.3122648857344
 30
0.0
 10
-1270.700156052418
 20
863.5451029855346
 30
0.0
 10
-1271.344776481404
 20
867.5581870570688
 30
0.0
 10
-1272.231888568856
 20
871.722704607024
 30
0.0
 10
-1273.105823166075
 20
875.8150043428742
 30
0.0
 10
-1274.144088817944
 20
879.6727146080238
 30
0.0
 10
-1275.442200796786
 20
883.6508309603827
 30
0.0
 10
-1276.787166074228
 20
887.7661697722878
 30
0.0
 10
-1278.293577138846
 20
891.6166453369145
 30
0.0
 10
-1280.098290408794
 20
895.5521286326447
 30
0.0
 10
-1282.058420548819
 20
899.8211187031921
 30
0.0
 10
-1284.191193036352
 20
903.7707699541016
 30
0.0
 10
-1286.685786677221
 20
907.7511686822221
 30
0.0
 10
-1289.394493002499
 20
912.0683685577146
 30
0.0
 10
-1292.277908732572
 20
915.9974138312533
 30
0.0
 10
-1295.584037678684
 20
919.8762037744032
 30
0.0
 10
-1302.287375282802
 20
927.7335837705425
 30
0.0
 10
-1309.840144242504
 20
934.2657216608877
 30
0.0
 10
-1318.581858717859
 20
939.7662687718748
 30
0.0
 10
-1321.613284362715
 20
941.6728707407971
 30
0.0
 10
-1324.59781364528
 20
943.3403184875061
 30
0.0
 10
-1327.810580503746
 20
944.9223493980255
 30
0.0
 10
-1331.692427969136
 20
946.8352601980587
 30
0.0
 10
-1335.505588843293
 20
948.4322988057835
 30
0.0
 10
-1339.592031916814
 20
949.8566304704672
 30
0.0
 10
-1343.534771444909
 20
951.2325585435833
 30
0.0
 10
-1347.36830144612
 20
952.3312640893701
 30
0.0
 10
-1351.441351710946
 20
953.2527194724412
 30
0.0
 10
-1355.156542682239
 20
954.0948300001144
 30
0.0
 10
-1358.737805566542
 20
954.7234092032462
 30
0.0
 10
-1362.517678205573
 20
955.1968514503087
 30
0.0
 10
-1365.938399640262
 20
955.6270792808755
 30
0.0
 10
-1369.216407994478
 20
955.899887779611
 30
0.0
 10
-1372.661202033872
 20
956.0410290352727
 30
0.0
 10
-1374.439947896602
 20
956.1154000340614
 30
0.0
 10
-1376.136657423088
 20
956.1508414538666
 30
0.0
 10
-1377.916910515091
 20
956.1508414538666
 30
0.0
 10
-1381.794408547432
 20
956.1508414538666
 30
0.0
 10
-1385.490780684638
 20
955.9825270075641
 30
0.0
 10
-1389.352215959281
 20
955.630093739423
 30
0.0
 10
-1393.18802833625
 20
955.2774236209669
 30
0.0
 10
-1396.8285468629
 20
954.764578094295
 30
0.0
 10
-1400.61251055282
 20
954.0438210550878
 30
0.0
 10
-1404.527517062258
 20
953.295933888933
 30
0.0
 10
-1408.222338906492
 20
952.3859334483523
 30
0.0
 10
-1412.036877818842
 20
951.2301469767436
 30
0.0
 10
-1416.404871320898
 20
949.9044742340196
 30
0.0
 10
-1420.489764101451
 20
948.3763375359963
 30
0.0
 10
-1424.655401307441
 20
946.5096556110061
 30
0.0
 10
-1429.543561164076
 20
944.3163571021701
 30
0.0
 10
-1434.044061651233
 20
941.863750562528
 30
0.0
 10
-1438.536810673547
 20
938.9447642215683
 30
0.0
 10
-1447.778796077052
 20
932.9318883482359
 30
0.0
 10
-1455.67745262347
 20
925.7422109208311
 30
0.0
 10
-1462.530522690118
 20
917.1048397749869
 30
0.0
 10
-1465.696393186289
 20
913.1178092380624
 30
0.0
 10
-1468.439119829481
 20
909.0958325138075
 30
0.0
 10
-1470.994863915214
 20
904.6927636333432
 30
0.0
 10
-1473.363969953035
 20
900.61501942592
 30
0.0
 10
-1475.371125646434
 20
896.5803173802175
 30
0.0
 10
-1477.194313240921
 20
892.2310350530159
 30
0.0
 10
-1478.881204245273
 20
888.2124388287055
 30
0.0
 10
-1480.270266744926
 20
884.2889057079432
 30
0.0
 10
-1481.487677362028
 20
880.1041266901622
 30
0.0
 10
-1482.732562615623
 20
875.8325097343083
 30
0.0
 10
-1483.693701192312
 20
871.694088782652
 30
0.0
 10
-1484.458813835893
 20
867.3110660515428
 30
0.0
 10
-1485.205193772772
 20
863.0479972388611
 30
0.0
 10
-1485.709986388751
 20
858.9475799967761
 30
0.0
 10
-1486.019829663952
 20
854.6307676945245
 30
0.0
 10
-1486.254957430821
 20
851.3759276074459
 30
0.0
 10
-1486.367138352562
 20
848.2653939575065
 30
0.0
 10
-1486.367138352562
 20
845.0020487909517
 30
0.0
 10
-1486.367138352562
 20
844.5264102955203
 30
0.0
 10
-1486.364769849415
 20
844.073100325202
 30
0.0
 10
-1486.359774460961
 20
843.5974833616151
 30
0.0
 10
-1486.314170009474
 20
839.0144082420468
 30
0.0
 10
-1486.045624816399
 20
834.6473406094034
 30
0.0
 10
-1485.529377257934
 20
830.0932258237587
 30
0.0
 10
-1485.069284755879
 20
826.0557461698201
 30
0.0
 10
-1484.444602817018
 20
822.2279867035481
 30
0.0
 10
-1483.59706626395
 20
818.2537460836083
 30
0.0
 10
-1482.675890794891
 20
813.9435440583197
 30
0.0
 10
-1481.569756761962
 20
809.8828315417037
 30
0.0
 10
-1480.177679803762
 20
805.7009162595441
 30
0.0
 10
-1478.737974400476
 20
801.383802511437
 30
0.0
 10
-1477.117401484214
 20
797.3501770580729
 30
0.0
 10
-1475.170061261177
 20
793.2370344945406
 30
0.0
 10
-1473.065452429238
 20
788.7979858981035
 30
0.0
 10
-1470.770329816964
 20
784.7014659202855
 30
0.0
 10
-1468.083499848018
 20
780.5886248026055
 30
0.0
 10
-1465.175064111981
 20
776.1418247413264
 30
0.0
 10
-1462.077234251644
 20
772.1123549343929
 30
0.0
 10
-1458.527364799951
 20
768.1586341644385
 30
0.0
 10
-1451.956060480303
 20
760.848163076583
 30
0.0
 10
-1444.662879465418
 20
754.7743090131612
 30
0.0
 10
-1436.284062735742
 20
749.6342480810166
 30
0.0
 10
-1433.169438034913
 20
747.7235550612009
 30
0.0
 10
-1430.103475307815
 20
746.0593155596658
 30
0.0
 10
-1426.804322680058
 20
744.4885458050142
 30
0.0
 10
-1422.689629823557
 20
742.5278989006624
 30
0.0
 10
-1418.645948997745
 20
740.9104050384927
 30
0.0
 10
-1414.314172061981
 20
739.4924683323049
 30
0.0
 10
-1410.32944543266
 20
738.1862819109169
 30
0.0
 10
-1406.45995724732
 20
737.1555093417302
 30
0.0
 10
-1402.353446492594
 20
736.3063363683087
 30
0.0
 10
-1398.608153999501
 20
735.5301563554819
 30
0.0
 10
-1395.001483535993
 20
734.9647085271191
 30
0.0
 10
-1391.198356502437
 20
734.5574551770697
 30
0.0
 10
-1388.000188236094
 20
734.2133762654823
 30
0.0
 10
-1384.938876387901
 20
734.0038929281311
 30
0.0
 10
-1381.723654898903
 20
733.9090882067456
 30
0.0
 10
-1380.429246397709
 20
733.8699217774474
 30
0.0
 10
-1379.195040940119
 20
733.8512751981344
 30
0.0
 10
-1377.900029547213
 20
733.8512751981344
 30
0.0
 10
-1374.079074144522
 20
733.8512751981344
 30
0.0
 10
-1370.436660815353
 20
734.0138621731902
 30
0.0
 10
-1366.630863832798
 20
734.3543237345215
 30
0.0
 10
-1362.368419443672
 20
734.7381073715784
 30
0.0
 10
-1358.324307980927
 20
735.3224386295694
 30
0.0
 10
-1354.127492660795
 20
736.160888743294
 30
0.0
  0
SPLINE
  5
8F
330
70
100
AcDbEntity
  8
top
 62
   253
370
    18
100
AcDbSpline
210
0.0
220
0.0
230
1.0
 70
     9
 71
     3
 72
   107
 73
   103
 74
     0
 42
0.0000000001
 43
0.0000000001
 40
0.0
 40
0.0
 40
0.0
 40
0.0
 40
1.0
 40
1.0
 40
1.0
 40
2.0
 40
2.0
 40
2.0
 40
3.0
 40
3.0
 40
3.0
 40
4.0
 40
4.0
 40
4.0
 40
5.0
 40
5.0
 40
5.0
 40
6.0
 40
6.0
 40
6.0
 40
7.0
 40
7.0
 40
7.0
 40
8.0
 40
8.0
 40
8.0
 40
9.0
 40
9.0
 40
9.0
 40
10.0
 40
10.0
 40
10.0
 40
11.0
 40
11.0
 40
11.0
 40
12.0
 40
12.0
 40
12.0
 40
13.0
 40
13.0
 40
13.0
 40
14.0
 40
14.0
 40
14.0
 40
15.0
 40
15.0
 40
15.0
 40
16.0
 40
16.0
 40
16.0
 40
17.0
 40
17.0
 40
17.0
 40
18.0
 40
18.0
 40
18.0
 40
19.0
 40
19.0
 40
19.0
 40
20.0
 40
20.0
 40
20.0
 40
21.0
 40
21.0
 40
21.0
 40
22.0
 40
22.0
 40
22.0
 40
23.0
 40
23.0
 40
23.0
 40
24.0
 40
24.0
 40
24.0
 40
25.0
 40
25.0
 40
25.0
 40
26.0
 40
26.0
 40
26.0
 40
27.0
 40
27.0
 40
27.0
 40
28.0
 40
28.0
 40
28.0
 40
29.0
 40
29.0
 40
29.0
 40
30.0
 40
30.0
 40
30.0
 40
31.0
 40
31.0
 40
31.0
 40
32.0
 40
32.0
 40
32.0
 40
33.0
 40
33.0
 40
33.0
 40
34.0
 40
34.0
 40
34.0
 40
34.0
 10
-1377.981506055439
 20
768.2356105166858
 30
0.0
 10
-1383.114439946298
 20
768.2356105166858
 30
0.0
 10
-1388.01246138876
 20
768.713466792338
 30
0.0
 10
-1393.048631160179
 20
769.7055896965494
 30
0.0
 10
-1400.33922835345
 20
771.1428620011475
 30
0.0
 10
-1407.079083969712
 20
773.6933092525742
 30
0.0
 10
-1413.494756100815
 20
777.4426497328641
 30
0.0
 10
-1421.044209156109
 20
781.9010123958666
 30
0.0
 10
-1427.39623314812
 20
787.6524485855618
 30
0.0
 10
-1432.580154452161
 20
794.7234209416516
 30
0.0
 10
-1436.690670130387
 20
800.3331775795174
 30
0.0
 10
-1439.862741798431
 20
806.2461456837779
 30
0.0
 10
-1442.263155141471
 20
812.7733312493656
 30
0.0
 10
-1444.746164648772
 20
819.5237374705532
 30
0.0
 10
-1446.334353667473
 20
826.2572627238592
 30
0.0
 10
-1447.129481705468
 20
833.4057712602154
 30
0.0
 10
-1447.572434857486
 20
837.3153302124141
 30
0.0
 10
-1447.784265166133
 20
841.0666731544582
 30
0.0
 10
-1447.784265166133
 20
845.0012736444694
 30
0.0
 10
-1447.784265166133
 20
850.3011224115885
 30
0.0
 10
-1447.399404936738
 20
855.3559387623215
 30
0.0
 10
-1446.597042198223
 20
860.5947016801184
 30
0.0
 10
-1445.537675336509
 20
867.5289468091369
 30
0.0
 10
-1443.716425608231
 20
874.0265260853997
 30
0.0
 10
-1441.017236359231
 20
880.5011308811446
 30
0.0
 10
-1438.350947772118
 20
886.8983502195534
 30
0.0
 10
-1434.916618210257
 20
892.6415827756244
 30
0.0
 10
-1430.542724982184
 20
898.0177404077458
 30
0.0
 10
-1422.747421300324
 20
907.5771913602171
 30
0.0
 10
-1412.547354842371
 20
914.5302553233225
 30
0.0
 10
-1400.800139065684
 20
918.2922780613671
 30
0.0
 10
-1394.637078561039
 20
920.262614296767
 30
0.0
 10
-1388.500889801179
 20
921.3641189826384
 30
0.0
 10
-1382.037330842835
 20
921.6603541306735
 30
0.0
 10
-1380.641981043923
 20
921.7349835116255
 30
0.0
 10
-1379.310193256711
 20
921.7705756543569
 30
0.0
 10
-1377.912862527894
 20
921.7705756543569
 30
0.0
 10
-1372.778852044693
 20
921.7705756543569
 30
0.0
 10
-1367.879754009894
 20
921.2879393087179
 30
0.0
 10
-1362.844445512348
 20
920.2861055416073
 30
0.0
 10
-1355.260627629587
 20
918.7753665757846
 30
0.0
 10
-1348.260839558963
 20
916.0548607984715
 30
0.0
 10
-1341.647289755929
 20
912.0476118574144
 30
0.0
 10
-1334.22681246286
 20
907.5062223932208
 30
0.0
 10
-1327.998854972015
 20
901.7281728408971
 30
0.0
 10
-1322.914841437043
 20
894.6683539814449
 30
0.0
 10
-1318.800622281172
 20
888.9536511223571
 30
0.0
 10
-1315.642890823085
 20
882.937007175839
 30
0.0
 10
-1313.277057625975
 20
876.3046816024102
 30
0.0
 10
-1310.837197939628
 20
869.4686001628731
 30
0.0
 10
-1309.30520704103
 20
862.6563114140331
 30
0.0
 10
-1308.58345953687
 20
855.433862515829
 30
0.0
 10
-1308.220475663807
 20
851.9440453848117
 30
0.0
 10
-1308.046928978739
 20
848.5990514552529
 30
0.0
 10
-1308.046928978739
 20
845.0904154901483
 30
0.0
 10
-1308.046928978739
 20
839.7232797018295
 30
0.0
 10
-1308.453708628158
 20
834.6039108744443
 30
0.0
 10
-1309.301202117529
 20
829.3041267028621
 30
0.0
 10
-1310.490190696878
 20
821.8577681299619
 30
0.0
 10
-1312.569951777627
 20
814.8960268326023
 30
0.0
 10
-1315.660288555285
 20
808.0176783778341
 30
0.0
 10
-1317.48502644274
 20
803.9735023195474
 30
0.0
 10
-1319.571979160319
 20
800.2712950518642
 30
0.0
 10
-1322.0872433741
 20
796.6163717197147
 30
0.0
 10
-1322.592897263946
 20
795.9827110007439
 30
0.0
 10
-1323.365201544354
 20
795.6109421341925
 30
0.0
 10
-1324.175918639418
 20
795.6109421341925
 30
0.0
 10
-1324.93172952519
 20
795.6109421341925
 30
0.0
 10
-1325.654036857365
 20
795.932154224496
 30
0.0
 10
-1326.160207511537
 20
796.4934033427393
 30
0.0
 10
-1326.160207511537
 20
796.4934033427393
 30
0.0
 10
-1348.74922490769
 20
821.6382940157066
 30
0.0
 10
-1348.74922490769
 20
821.6382940157066
 30
0.0
 10
-1349.245792358196
 20
822.1113486895243
 30
0.0
 10
-1349.902944322008
 20
822.3742310068969
 30
0.0
 10
-1350.588776705732
 20
822.3742310068969
 30
0.0
 10
-1351.219745943855
 20
822.3742310068969
 30
0.0
 10
-1351.824963093228
 20
822.1532281315182
 30
0.0
 10
-1352.307448715938
 20
821.7466207368696
 30
0.0
 10
-1352.307448715938
 20
821.7466207368696
 30
0.0
 10
-1369.357398527213
 20
807.3651557610832
 30
0.0
 10
-1369.357398527213
 20
807.3651557610832
 30
0.0
 10
-1369.865808493447
 20
806.8637221132052
 30
0.0
 10
-1370.151751418723
 20
806.1801505733907
 30
0.0
 10
-1370.151751418723
 20
805.4660468748393
 30
0.0
 10
-1370.151751418723
 20
804.8017248060459
 30
0.0
 10
-1369.905771601076
 20
804.1648989055975
 30
0.0
 10
-1369.459201098802
 20
803.6730684613855
 30
0.0
 10
-1369.459201098802
 20
803.6730684613855
 30
0.0
 10
-1346.873327352279
 20
778.7890791758853
 30
0.0
 10
-1346.873327352279
 20
778.7890791758853
 30
0.0
 10
-1346.507285956971
 20
778.3174456039546
 30
0.0
 10
-1346.311130832779
 20
777.7446338839908
 30
0.0
 10
-1346.311130832779
 20
777.1476634319379
 30
0.0
 10
-1346.311130832779
 20
776.0403236155931
 30
0.0
 10
-1347.014231757625
 20
775.0271210333813
 30
0.0
 10
-1348.051506944538
 20
774.6395693231351
 30
0.0
 10
-1355.673350068719
 20
771.1316654408205
 30
0.0
 10
-1363.570413258476
 20
769.0920181906264
 30
0.0
 10
-1371.937688918277
 20
768.4702645829239
 30
0.0
 10
-1373.980113776707
 20
768.3114241492094
 30
0.0
 10
-1375.932880025135
 20
768.2356105166858
 30
0.0
 10
-1377.981506055439
 20
768.2356105166858
 30
0.0
  0
SPLINE
  5
90
330
70
100
AcDbEntity
  8
top
 62
   253
370
    18
100
AcDbSpline
210
0.0
220
0.0
230
1.0
 70
     9
 71
     3
 72
   110
 73
   106
 74
     0
 42
0.0000000001
 43
0.0000000001
 40
0.0
 40
0.0
 40
0.0
 40
0.0
 40
1.0
 40
1.0
 40
1.0
 40
2.0
 40
2.0
 40
2.0
 40
3.0
 40
3.0
 40
3.0
 40
4.0
 40
4.0
 40
4.0
 40
5.0
 40
5.0
 40
5.0
 40
6.0
 40
6.0
 40
6.0
 40
7.0
 40
7.0
 40
7.0
 40
8.0
 40
8.0
 40
8.0
 40
9.0
 40
9.0
 40
9.0
 40
10.0
 40
10.0
 40
10.0
 40
11.0
 40
11.0
 40
11.0
 40
12.0
 40
12.0
 40
12.0
 40
13.0
 40
13.0
 40
13.0
 40
14.0
 40
14.0
 40
14.0
 40
15.0
 40
15.0
 40
15.0
 40
16.0
 40
16.0
 40
16.0
 40
17.0
 40
17.0
 40
17.0
 40
18.0
 40
18.0
 40
18.0
 40
19.0
 40
19.0
 40
19.0
 40
20.0
 40
20.0
 40
20.0
 40
21.0
 40
21.0
 40
21.0
 40
22.0
 40
22.0
 40
22.0
 40
23.0
 40
23.0
 40
23.0
 40
24.0
 40
24.0
 40
24.0
 40
25.0
 40
25.0
 40
25.0
 40
26.0
 40
26.0
 40
26.0
 40
27.0
 40
27.0
 40
27.0
 40
28.0
 40
28.0
 40
28.0
 40
29.0
 40
29.0
 40
29.0
 40
30.0
 40
30.0
 40
30.0
 40
31.0
 40
31.0
 40
31.0
 40
32.0
 40
32.0
 40
32.0
 40
33.0
 40
33.0
 40
33.0
 40
34.0
 40
34.0
 40
34.0
 40
35.0
 40
35.0
 40
35.0
 40
35.0
 10
-1332.157817305501
 20
751.5006285601507
 30
0.0
 10
-1330.413005633304
 20
752.3392724604941
 30
0.0
 10
-1328.771116188726
 20
753.182459580509
 30
0.0
 10
-1327.072899432965
 20
754.1119032787368
 30
0.0
 10
-1326.726236699763
 20
754.2677507857482
 30
0.0
 10
-1326.362262361747
 20
754.3458037303373
 30
0.0
 10
-1325.982182202335
 20
754.3458037303373
 30
0.0
 10
-1325.233218443842
 20
754.3458037303373
 30
0.0
 10
-1324.517327602007
 20
754.0291133278536
 30
0.0
 10
-1324.013568514678
 20
753.4749266553586
 30
0.0
 10
-1324.013568514678
 20
753.4749266553586
 30
0.0
 10
-1308.748565738003
 20
736.720006208702
 30
0.0
 10
-1308.748565738003
 20
736.720006208702
 30
0.0
 10
-1308.252945688757
 20
736.2548967863452
 30
0.0
 10
-1307.60165038727
 20
735.9971390485075
 30
0.0
 10
-1306.922019175416
 20
735.9971390485075
 30
0.0
 10
-1306.284891829112
 20
735.9971390485075
 30
0.0
 10
-1305.67386108111
 20
736.2224482932429
 30
0.0
 10
-1305.189222273724
 20
736.6360750699432
 30
0.0
 10
-1305.189222273724
 20
736.6360750699432
 30
0.0
 10
-1288.551478137259
 20
750.8622523667339
 30
0.0
 10
-1288.551478137259
 20
750.8622523667339
 30
0.0
 10
-1287.959955242441
 20
751.3680785113542
 30
0.0
 10
-1287.617771133367
 20
752.1109272253627
 30
0.0
 10
-1287.617771133367
 20
752.8892388910216
 30
0.0
 10
-1287.617771133367
 20
753.5531949184145
 30
0.0
 10
-1287.863492568854
 20
754.1896763093144
 30
0.0
 10
-1288.309632434194
 20
754.6813990942931
 30
0.0
 10
-1288.309632434194
 20
754.6813990942931
 30
0.0
 10
-1302.653847315047
 20
770.4955500913171
 30
0.0
 10
-1302.653847315047
 20
770.4955500913171
 30
0.0
 10
-1303.021137557468
 20
770.9679157460375
 30
0.0
 10
-1303.218110891839
 20
771.5420193768099
 30
0.0
 10
-1303.218110891839
 20
772.1403678670567
 30
0.0
 10
-1303.218110891839
 20
772.861060310723
 30
0.0
 10
-1302.928119979366
 20
773.550854554259
 30
0.0
 10
-1302.41316433171
 20
774.0550227466773
 30
0.0
 10
-1295.62925455693
 20
781.770809318369
 30
0.0
 10
-1290.311232911124
 20
790.1725574648701
 30
0.0
 10
-1286.240421958364
 20
799.6056380085733
 30
0.0
 10
-1282.498617624449
 20
808.2767495583249
 30
0.0
 10
-1279.994248525139
 20
817.0196267534064
 30
0.0
 10
-1278.57771138899
 20
826.3567829196903
 30
0.0
 10
-1277.625357805789
 20
832.6232178207408
 30
0.0
 10
-1277.168581208137
 20
838.6684991234831
 30
0.0
 10
-1277.168581208137
 20
845.006871924631
 30
0.0
 10
-1277.168581208137
 20
851.5162075892362
 30
0.0
 10
-1277.650420875442
 20
857.7247864179794
 30
0.0
 10
-1278.6546231457
 20
864.1561983290772
 30
0.0
 10
-1280.1277029115
 20
873.6050617164719
 30
0.0
 10
-1282.718845353342
 20
882.4452628590117
 30
0.0
 10
-1286.579677736276
 20
891.1942550985781
 30
0.0
 10
-1290.925278117674
 20
901.0396920400179
 30
0.0
 10
-1296.641423610497
 20
909.7645901430354
 30
0.0
 10
-1303.932279185931
 20
917.6804721668792
 30
0.0
 10
-1313.347294510181
 20
927.8475303037152
 30
0.0
 10
-1324.535500480693
 20
935.5778508719858
 30
0.0
 10
-1337.375629736379
 20
940.7877395832512
 30
0.0
 10
-1345.871493585168
 20
944.2323183041782
 30
0.0
 10
-1354.421962197395
 20
946.4479884018203
 30
0.0
 10
-1363.521449838893
 20
947.5629074282359
 30
0.0
 10
-1368.362713333233
 20
948.1627416159108
 30
0.0
 10
-1373.014281257417
 20
948.4498257290654
 30
0.0
 10
-1377.89262259192
 20
948.4498257290654
 30
0.0
 10
-1383.775812152081
 20
948.4498257290654
 30
0.0
 10
-1389.386839168907
 20
948.0319356467045
 30
0.0
 10
-1395.205174806557
 20
947.1604772118665
 30
0.0
 10
-1404.516923393639
 20
945.7671083428571
 30
0.0
 10
-1413.228794729353
 20
943.207617715783
 30
0.0
 10
-1421.814403315529
 20
939.342845004889
 30
0.0
 10
-1438.266629060114
 20
931.9162957310286
 30
0.0
 10
-1451.955802098144
 20
920.1492491234573
 30
0.0
 10
-1461.768639823555
 20
904.998795771667
 30
0.0
 10
-1467.137476627768
 20
896.7036517985896
 30
0.0
 10
-1471.120179263492
 20
888.0348872201373
 30
0.0
 10
-1473.91647714148
 20
878.5578601771488
 30
0.0
 10
-1476.570320321157
 20
869.5650413046122
 30
0.0
 10
-1478.069109112015
 20
860.6729914750228
 30
0.0
 10
-1478.509693760882
 20
851.3071118251296
 30
0.0
 10
-1478.62041051704
 20
849.1642624333042
 30
0.0
 10
-1478.673206605353
 20
847.1191676258712
 30
0.0
 10
-1478.673206605353
 20
844.973454498424
 30
0.0
 10
-1478.673206605353
 20
837.3925649468246
 30
0.0
 10
-1478.011662144796
 20
830.1596946347759
 30
0.0
 10
-1476.636336963392
 20
822.7046156639323
 30
0.0
 10
-1474.894281367583
 20
813.2600155821981
 30
0.0
 10
-1472.024000064047
 20
804.4610909899438
 30
0.0
 10
-1467.861807953542
 20
795.8059560705025
 30
0.0
 10
-1463.096336559874
 20
785.9023400790548
 30
0.0
 10
-1456.919065036354
 20
777.2106656156251
 30
0.0
 10
-1449.133063112304
 20
769.4538178121182
 30
0.0
 10
-1439.931428389669
 20
760.3381597536879
 30
0.0
 10
-1429.312438320709
 20
753.4361693311495
 30
0.0
 10
-1417.245948319929
 20
748.7282095002408
 30
0.0
 10
-1408.716322535384
 20
745.4028310831033
 30
0.0
 10
-1400.152073541216
 20
743.2971887225187
 30
0.0
 10
-1391.052887345574
 20
742.2882925096632
 30
0.0
 10
-1386.627533003689
 20
741.7874402216486
 30
0.0
 10
-1382.381323627037
 20
741.5479199580382
 30
0.0
 10
-1377.92767643848
 20
741.5479199580382
 30
0.0
 10
-1371.531512160566
 20
741.5479199580382
 30
0.0
 10
-1365.430420310962
 20
742.0428079244943
 30
0.0
 10
-1359.117885725954
 20
743.073623557374
 30
0.0
 10
-1349.65274426239
 20
744.6206436850254
 30
0.0
 10
-1340.819088801275
 20
747.3818015890641
 30
0.0
 10
-1332.157817305501
 20
751.5006285601507
 30
0.0
  0
SPLINE
  5
92
330
70
100
AcDbEntity
  8
切り欠き
 62
     7
370
    35
100
AcDbSpline
210
0.0
220
0.0
230
1.0
 70
     8
 71
     3
 72
    23
 73
    19
 74
     0
 42
0.0000000001
 43
0.0000000001
 40
0.0
 40
0.0
 40
0.0
 40
0.0
 40
1.0
 40
1.0
 40
1.0
 40
2.0
 40
2.0
 40
2.0
 40
3.0
 40
3.0
 40
3.0
 40
4.0
 40
4.0
 40
4.0
 40
5.0
 40
5.0
 40
5.0
 40
6.0
 40
6.0
 40
6.0
 40
6.0
 10
-1374.050045808409
 20
725.7563181275596
 30
0.0
 10
-1374.050045808409
 20
725.7563181275596
 30
0.0
 10
-1374.050045808409
 20
731.8512561287386
 30
0.0
 10
-1374.050045808409
 20
731.8512561287386
 30
0.0
 10
-1374.050045808409
 20
732.8729685786902
 30
0.0
 10
-1374.878333357993
 20
733.7012561284844
 30
0.0
 10
-1375.900045807947
 20
733.7012561282765
 30
0.0
 10
-1375.900045807947
 20
733.7012561282765
 30
0.0
 10
-1379.900045807327
 20
733.7012561282765
 30
0.0
 10
-1379.900045807327
 20
733.7012561282765
 30
0.0
 10
-1380.921758256671
 20
733.7012561280649
 30
0.0
 10
-1381.750045806483
 20
732.8729685777411
 30
0.0
 10
-1381.750045806483
 20
731.8512561279767
 30
0.0
 10
-1381.750045806483
 20
731.8511252474422
 30
0.0
 10
-1381.750045793455
 20
731.8510005188021
 30
0.0
 10
-1381.750045766115
 20
731.8508696381549
 30
0.0
 10
-1381.750045766115
 20
731.8508696381549
 30
0.0
 10
-1381.782071179908
 20
725.7573503364953
 30
0.0
 10
-1381.782071179908
 20
725.7573503364953
 30
0.0
  0
SPLINE
  5
93
330
70
100
AcDbEntity
  8
切り欠き
 62
     7
370
    35
100
AcDbSpline
210
0.0
220
0.0
230
1.0
 70
     8
 71
     3
 72
    26
 73
    22
 74
     0
 42
0.0000000001
 43
0.0000000001
 40
0.0
 40
0.0
 40
0.0
 40
0.0
 40
1.0
 40
1.0
 40
1.0
 40
2.0
 40
2.0
 40
2.0
 40
3.0
 40
3.0
 40
3.0
 40
4.0
 40
4.0
 40
4.0
 40
5.0
 40
5.0
 40
5.0
 40
6.0
 40
6.0
 40
6.0
 40
7.0
 40
7.0
 40
7.0
 40
7.0
 10
-1432.138276333737
 20
849.1595518088827
 30
0.0
 10
-1432.138276333737
 20
849.1595518088827
 30
0.0
 10
-1437.859274729282
 20
849.4593766300747
 30
0.0
 10
-1437.859274729282
 20
849.4593766300747
 30
0.0
 10
-1437.897343354512
 20
849.4613717221769
 30
0.0
 10
-1437.933676166634
 20
849.4623231303366
 30
0.0
 10
-1437.97179703519
 20
849.4623231303297
 30
0.0
 10
-1439.111940798918
 20
849.462323130097
 30
0.0
 10
-1440.059180020267
 20
848.5634266731089
 30
0.0
 10
-1440.118850533936
 20
847.4248454367595
 30
0.0
 10
-1440.118850533936
 20
847.4248454367595
 30
0.0
 10
-1440.328194358898
 20
843.4303272978734
 30
0.0
 10
-1440.328194358898
 20
843.4303272978734
 30
0.0
 10
-1440.330189450976
 20
843.3922586729403
 30
0.0
 10
-1440.331140859133
 20
843.3559258608219
 30
0.0
 10
-1440.331140859133
 20
843.3178049919657
 30
0.0
 10
-1440.331140859133
 20
842.1776612282586
 30
0.0
 10
-1439.432244402395
 20
841.2304220071215
 30
0.0
 10
-1438.293663165562
 20
841.1707514936635
 30
0.0
 10
-1438.293663165562
 20
841.1707514936635
 30
0.0
 10
-1432.137696460983
 20
840.8481309147679
 30
0.0
 10
-1432.137696460983
 20
840.8481309147679
 30
0.0
  0
LINE
  5
95
330
70
100
AcDbEntity
  8
中心線
  6
AI-Linetype-2
 62
     7
370
    25
100
AcDbLine
 10
-1587.917292401018
 20
845.0010587018164
 30
0.0
 11
-1167.917292506019
 21
845.0010587018164
 31
0.0
  0
LINE
  5
98
330
70
100
AcDbEntity
  8
H200ガイド
  6
AI-Linetype-3
 62
     7
370
    25
100
AcDbLine
 10
-1377.917292453519
 20
993.50105866469
 30
0.0
 11
-1377.917292453519
 21
696.5010587389392
 31
0.0
  0
LINE
  5
9A
330
70
100
AcDbEntity
  8
H200ガイド
  6
AI-Linetype-4
 62
     7
370
    25
100
AcDbLine
 10
-1587.917292401018
 20
945.0010586768186
 30
0.0
 11
-1167.917292506019
 21
945.0010586768186
 31
0.0
  0
LINE
  5
9C
330
70
100
AcDbEntity
  8
H200ガイド
  6
AI-Linetype-5
 62
     7
370
    25
100
AcDbLine
 10
-1587.917292401018
 20
745.0010587268179
 30
0.0
 11
-1167.917292506019
 21
745.0010587268179
 31
0.0
  0
LINE
  5
A0
330
70
100
AcDbEntity
  8
電源穴
 62
   251
370
   100
100
AcDbLine
 10
-1298.247680263001
 20
856.5773438090905
 30
0.0
 11
-1288.247680265502
 21
856.5773438090905
 31
0.0
  0
LINE
  5
A1
330
70
100
AcDbEntity
  8
電源穴
 62
   251
370
   100
100
AcDbLine
 10
-1293.24768026425
 20
851.5773438103428
 30
0.0
 11
-1293.24768026425
 21
861.577343807842
 31
0.0
  0
CIRCLE
  5
A2
330
70
100
AcDbEntity
  8
電源穴
 62
   251
370
   100
100
AcDbCircle
 10
-1293.247680263841
 20
856.5773438086814
 30
0.0
 40
3.999999999410339
  0
LINE
  5
A4
330
70
100
AcDbEntity
  8
アンカー
 62
   251
370
    53
100
AcDbLine
 10
-1440.88417858299
 20
916.8686042124271
 30
0.0
 11
-1430.884178585488
 21
916.8686042124271
 31
0.0
  0
LINE
  5
A5
330
70
100
AcDbEntity
  8
アンカー
 62
   251
370
    53
100
AcDbLine
 10
-1435.884178584239
 20
911.8686042136758
 30
0.0
 11
-1435.884178584239
 21
921.8686042111745
 31
0.0
  0
LINE
  5
A6
330
70
100
AcDbEntity
  8
アンカー
 62
   251
370
    53
100
AcDbLine
 10
-1328.168368288471
 20
916.8686042124271
 30
0.0
 11
-1318.168368290969
 21
916.8686042124271
 31
0.0
  0
LINE
  5
A7
330
70
100
AcDbEntity
  8
アンカー
 62
   251
370
    53
100
AcDbLine
 10
-1323.16836828972
 20
911.8686042136758
 30
0.0
 11
-1323.16836828972
 21
921.8686042111745
 31
0.0
  0
LINE
  5
A8
330
70
100
AcDbEntity
  8
アンカー
 62
   251
370
    53
100
AcDbLine
 10
-1324.021561342378
 20
768.2737501670217
 30
0.0
 11
-1314.021561344879
 21
768.2737501670217
 31
0.0
  0
LINE
  5
A9
330
70
100
AcDbEntity
  8
アンカー
 62
   251
370
    53
100
AcDbLine
 10
-1319.02156134363
 20
763.2737501682705
 30
0.0
 11
-1319.02156134363
 21
773.2737501657731
 31
0.0
  0
LINE
  5
AA
330
70
100
AcDbEntity
  8
アンカー
 62
   251
370
    53
100
AcDbLine
 10
-1435.019704364743
 20
768.2737501670183
 30
0.0
 11
-1425.019704367245
 21
768.2737501670183
 31
0.0
  0
LINE
  5
AB
330
70
100
AcDbEntity
  8
アンカー
 62
   251
370
    53
100
AcDbLine
 10
-1430.019704365996
 20
763.2737501682705
 30
0.0
 11
-1430.019704365996
 21
773.2737501657692
 31
0.0
  0
MTEXT
  5
AD
330
70
100
AcDbEntity
  8
コメント
100
AcDbMText
 10
-1255.697039820082
 20
712.6802712248247
 30
0.0
 40
0.2
 41
0.0
 46
0.0
 71
     7
 72
     1
  1
\C7;\FKozuka Gothic Pr6N R|b0|i0|c128;\H3.102184;\W1.000000;※成型文字の断面は
 73
     1
 44
1.0
  0
MTEXT
  5
AE
330
70
100
AcDbEntity
  8
コメント
100
AcDbMText
 10
-1255.697039820082
 20
705.0125222033042
 30
0.0
 40
0.2
 41
0.0
 46
0.0
 71
     7
 72
     1
  1
\C7;\FKozuka Gothic Pr6N R|b0|i0|c128;\H3.102184;\W1.000000;　実際のものと異なる場合があります
 73
     1
 44
1.0
  0
MTEXT
  5
AF
330
70
100
AcDbEntity
  8
コメント
100
AcDbMText
 10
-1567.385594294026
 20
737.3009906197112
 30
0.0
 40
0.2
 41
0.0
 46
0.0
 71
     7
 72
     1
  1
\C7;\FKozuka Gothic Pr6N R|b0|i0|c128;\H2.497667;\W1.000000;材質：アクリル
 73
     1
 44
1.0
  0
MTEXT
  5
B0
330
70
100
AcDbEntity
  8
コメント
100
AcDbMText
 10
-1567.385594294026
 20
731.1273795101435
 30
0.0
 40
0.2
 41
0.0
 46
0.0
 71
     7
 72
     1
  1
\C7;\FKozuka Gothic Pr6N R|b0|i0|c128;\H2.497667;\W1.000000;色：乳白色
 73
     1
 44
1.0
  0
INSERT
  5
B2
330
70
100
AcDbEntity
  8
コメント
100
AcDbBlockReference
  2
Block_1
 10
0.0
 20
0.0
 30
0.0
  0
LWPOLYLINE
  5
C4
330
70
100
AcDbEntity
  8
上
100
AcDbPolyline
 90
        4
 70
     1
 43
0.0
 10
-1362.969291618712
 20
988.3625246697658
 10
-1393.064146254713
 20
988.3625246697658
 10
-1393.064146254713
 20
975.2090854495865
 10
-1362.969291618712
 20
975.2090854495865
  0
MTEXT
  5
C5
330
70
100
AcDbEntity
  8
上
100
AcDbMText
 10
-1390.094198091333
 20
978.8262136767345
 30
0.0
 40
0.2
 41
0.0
 46
0.0
 71
     7
 72
     1
  1
\C7;\FA-OTF Shin Go Pro B|b0|i0|c128;\H5.696928;\W1.000000;↑上↑
 73
     1
 44
1.0
  0
INSERT
  5
C8
330
70
100
AcDbEntity
  8
寸法
100
AcDbBlockReference
  2
Block_3
 10
0.0
 20
0.0
 30
0.0
  0
INSERT
  5
DA
330
70
100
AcDbEntity
  8
寸法
100
AcDbBlockReference
  2
Block_6
 10
0.0
 20
0.0
 30
0.0
  0
LINE
  5
EB
330
70
100
AcDbEntity
  8
寸法
 62
    29
370
    18
100
AcDbLine
 10
-1384.677958761512
 20
735.9971390485075
 30
0.0
 11
-1167.917292506019
 21
735.9971390485075
 31
0.0
  0
LINE
  5
EC
330
70
100
AcDbEntity
  8
寸法
 62
    29
370
    18
100
AcDbLine
 10
-1384.677958761512
 20
948.4303210254424
 30
0.0
 11
-1167.917292506019
 21
948.4303210254424
 31
0.0
  0
INSERT
  5
EE
330
70
100
AcDbEntity
  8
寸法
100
AcDbBlockReference
  2
Block_9
 10
0.0
 20
0.0
 30
0.0
  0
ENDSEC
  0
SECTION
  2
OBJECTS
  0
DICTIONARY
  5
C
330
0
100
AcDbDictionary
281
     1
  3
ACAD_COLOR
350
63
  3
ACAD_DETAILVIEWSTYLE
350
6A
  3
ACAD_GROUP
350
D
  3
ACAD_LAYOUT
350
62
  3
ACAD_MATERIAL
350
10
  3
ACAD_MLEADERSTYLE
350
66
  3
ACAD_MLINESTYLE
350
5F
  3
ACAD_PLOTSETTINGS
350
61
  3
ACAD_PLOTSTYLENAME
350
E
  3
ACAD_SCALELIST
350
42
  3
ACAD_SECTIONVIEWSTYLE
350
68
  3
ACAD_TABLESTYLE
350
64
  3
ACAD_VISUALSTYLE
350
29
  3
ACDB_RECOMPOSE_DATA
350
10B
  3
AcDbVariableDictionary
350
100
  0
DICTIONARY
  5
63
102
{ACAD_REACTORS
330
C
102
}
330
C
100
AcDbDictionary
281
     1
  0
DICTIONARY
  5
6A
102
{ACAD_REACTORS
330
C
102
}
330
C
100
AcDbDictionary
281
     1
  3
Imperial24
350
6B
  0
DICTIONARY
  5
D
102
{ACAD_REACTORS
330
C
102
}
330
C
100
AcDbDictionary
281
     1
  0
DICTIONARY
  5
62
102
{ACAD_REACTORS
330
C
102
}
330
C
100
AcDbDictionary
281
     1
  3
Layout1
350
6F
  3
Layout2
350
77
  3
Model
350
73
  0
DICTIONARY
  5
10
102
{ACAD_REACTORS
330
C
102
}
330
C
100
AcDbDictionary
281
     1
  3
ByBlock
350
19
  3
ByLayer
350
11
  3
Global
350
21
  0
DICTIONARY
  5
66
102
{ACAD_REACTORS
330
C
102
}
330
C
100
AcDbDictionary
281
     1
  3
Standard
350
67
  0
DICTIONARY
  5
5F
102
{ACAD_REACTORS
330
C
102
}
330
C
100
AcDbDictionary
281
     1
  3
Standard
350
60
  0
DICTIONARY
  5
61
102
{ACAD_REACTORS
330
C
102
}
330
C
100
AcDbDictionary
281
     1
  0
ACDBDICTIONARYWDFLT
  5
E
102
{ACAD_REACTORS
330
C
102
}
330
C
100
AcDbDictionary
281
     1
  3
Normal
350
F
100
AcDbDictionaryWithDefault
340
F
  0
DICTIONARY
  5
42
102
{ACAD_REACTORS
330
C
102
}
330
C
100
AcDbDictionary
281
     1
  3
A0
350
43
  3
A1
350
44
  3
A2
350
45
  3
A3
350
46
  3
A4
350
47
  3
A5
350
48
  3
A6
350
49
  3
A7
350
4A
  3
A8
350
4B
  3
A9
350
4C
  3
B0
350
4D
  3
B1
350
4E
  3
B2
350
4F
  3
B3
350
50
  3
B4
350
51
  3
B5
350
52
  3
B6
350
53
  0
DICTIONARY
  5
68
102
{ACAD_REACTORS
330
C
102
}
330
C
100
AcDbDictionary
281
     1
  3
Imperial24
350
69
  0
DICTIONARY
  5
64
102
{ACAD_REACTORS
330
C
102
}
330
C
100
AcDbDictionary
281
     1
  3
Standard
350
65
  0
DICTIONARY
  5
29
102
{ACAD_REACTORS
330
C
102
}
330
C
100
AcDbDictionary
281
     1
  3
2dWireframe
350
2F
  3
Basic
350
2E
  3
Brighten
350
35
  3
ColorChange
350
39
  3
Conceptual
350
32
  3
Dim
350
34
  3
EdgeColorOff
350
41
  3
Facepattern
350
38
  3
Flat
350
2A
  3
FlatWithEdges
350
2B
  3
Gouraud
350
2C
  3
GouraudWithEdges
350
2D
  3
Hidden
350
31
  3
JitterOff
350
3F
  3
Linepattern
350
37
  3
OverhangOff
350
40
  3
Realistic
350
33
  3
Shaded
350
3E
  3
Shaded with edges
350
3D
  3
Shades of Gray
350
3A
  3
Sketchy
350
3B
  3
Thicken
350
36
  3
Wireframe
350
30
  3
X-Ray
350
3C
  0
XRECORD
  5
10B
102
{ACAD_REACTORS
330
C
102
}
330
C
100
AcDbXrecord
280
     1
 90
        1
330
65
  0
DICTIONARY
  5
100
102
{ACAD_REACTORS
330
C
102
}
330
C
100
AcDbDictionary
281
     1
  3
CANNOSCALE
350
105
  3
CMLEADERSTYLE
350
102
  3
CTABLESTYLE
350
101
  3
CVIEWDETAILSTYLE
350
103
  3
CVIEWSECTIONSTYLE
350
104
  0
ACDBDETAILVIEWSTYLE
  5
6B
102
{ACAD_XDICTIONARY
360
140
102
}
102
{ACAD_REACTORS
330
6A
102
}
330
6A
100
AcDbModelDocViewStyle
 70
     0
  3
Imperial24
290
     0
100
AcDbDetailViewStyle
 70
     0
 71
     0
 90
        3
 71
     1
340
55
 62
   256
 40
0.24
340
0
 62
   256
 40
0.24
300

 40
0.36
280
     3
 71
     2
340
5D
 90
       25
 62
   256
 71
     3
340
55
 62
   256
 40
0.24
 90
        1
 40
0.75
 90
        1
300
%<\AcVar ViewType \f "%tc1">% %<\AcVar ViewDetailId>%\PSCALE %<\AcVar ViewScale \f "%sn">%
 71
     4
340
5D
 90
       25
 62
   256
340
5D
 90
       25
 62
   256
280
     0
  0
LAYOUT
  5
6F
102
{ACAD_REACTORS
330
62
102
}
330
62
100
AcDbPlotSettings
  1

  2

  4

  6

 40
0.0
 41
0.0
 42
0.0
 43
0.0
 44
0.0
 45
0.0
 46
0.0
 47
0.0
 48
0.0
 49
0.0
140
0.0
141
0.0
142
1.0
143
1.0
 70
   688
 72
     0
 73
     0
 74
     5
  7

 75
    16
147
1.0
 76
     0
 77
     2
 78
   300
148
0.0
149
0.0
100
AcDbLayout
  1
Layout1
 70
     1
 71
     1
 10
0.0
 20
0.0
 11
12.0
 21
9.0
 12
0.0
 22
0.0
 32
0.0
 14
0.0
 24
0.0
 34
0.0
 15
0.0
 25
0.0
 35
0.0
146
0.0
 13
0.0
 23
0.0
 33
0.0
 16
1.0
 26
0.0
 36
0.0
 17
0.0
 27
1.0
 37
0.0
 76
     0
330
6C
  0
LAYOUT
  5
77
102
{ACAD_REACTORS
330
62
102
}
330
62
100
AcDbPlotSettings
  1

  2

  4

  6

 40
0.0
 41
0.0
 42
0.0
 43
0.0
 44
0.0
 45
0.0
 46
0.0
 47
0.0
 48
0.0
 49
0.0
140
0.0
141
0.0
142
1.0
143
1.0
 70
   688
 72
     0
 73
     0
 74
     5
  7

 75
    16
147
1.0
 76
     0
 77
     2
 78
   300
148
0.0
149
0.0
100
AcDbLayout
  1
Layout2
 70
     1
 71
     2
 10
0.0
 20
0.0
 11
12.0
 21
9.0
 12
0.0
 22
0.0
 32
0.0
 14
0.0
 24
0.0
 34
0.0
 15
0.0
 25
0.0
 35
0.0
146
0.0
 13
0.0
 23
0.0
 33
0.0
 16
1.0
 26
0.0
 36
0.0
 17
0.0
 27
1.0
 37
0.0
 76
     0
330
74
  0
LAYOUT
  5
73
102
{ACAD_REACTORS
330
62
102
}
330
62
100
AcDbPlotSettings
  1

  2

  4

  6

 40
0.0
 41
0.0
 42
0.0
 43
0.0
 44
0.0
 45
0.0
 46
0.0
 47
0.0
 48
0.0
 49
0.0
140
0.0
141
0.0
142
1.0
143
1.0
 70
  1712
 72
     0
 73
     0
 74
     0
  7

 75
     0
147
1.0
 76
     0
 77
     2
 78
   300
148
0.0
149
0.0
100
AcDbLayout
  1
Model
 70
     1
 71
     0
 10
0.0
 20
0.0
 11
12.0
 21
9.0
 12
0.0
 22
0.0
 32
0.0
 14
0.0
 24
0.0
 34
0.0
 15
0.0
 25
0.0
 35
0.0
146
0.0
 13
0.0
 23
0.0
 33
0.0
 16
1.0
 26
0.0
 36
0.0
 17
0.0
 27
1.0
 37
0.0
 76
     0
330
70
  0
MATERIAL
  5
19
102
{ACAD_XDICTIONARY
360
1A
102
}
102
{ACAD_REACTORS
330
10
102
}
330
10
100
AcDbMaterial
  1
ByBlock
 72
     0
 43
0.0208333333333333
 43
0.0
 43
0.0
 43
0.0
 43
0.0
 43
0.0208333333333333
 43
0.0
 43
0.0
 43
0.0
 43
0.0
 43
1.0
 43
0.0
 43
0.0
 43
0.0
 43
0.0
 43
1.0
 77
     0
 47
0.0208333333333333
 47
0.0
 47
0.0
 47
0.0
 47
0.0
 47
0.0208333333333333
 47
0.0
 47
0.0
 47
0.0
 47
0.0
 47
1.0
 47
0.0
 47
0.0
 47
0.0
 47
0.0
 47
1.0
171
     0
 49
0.0208333333333333
 49
0.0
 49
0.0
 49
0.0
 49
0.0
 49
0.0208333333333333
 49
0.0
 49
0.0
 49
0.0
 49
0.0
 49
1.0
 49
0.0
 49
0.0
 49
0.0
 49
0.0
 49
1.0
175
     0
142
0.0208333333333333
142
0.0
142
0.0
142
0.0
142
0.0
142
0.0208333333333333
142
0.0
142
0.0
142
0.0
142
0.0
142
1.0
142
0.0
142
0.0
142
0.0
142
0.0
142
1.0
179
     0
144
0.0208333333333333
144
0.0
144
0.0
144
0.0
144
0.0
144
0.0208333333333333
144
0.0
144
0.0
144
0.0
144
0.0
144
1.0
144
0.0
144
0.0
144
0.0
144
0.0
144
1.0
147
0.0208333333333333
147
0.0
147
0.0
147
0.0
147
0.0
147
0.0208333333333333
147
0.0
147
0.0
147
0.0
147
0.0
147
1.0
147
0.0
147
0.0
147
0.0
147
0.0
147
1.0
  0
MATERIAL
  5
11
102
{ACAD_XDICTIONARY
360
12
102
}
102
{ACAD_REACTORS
330
10
102
}
330
10
100
AcDbMaterial
  1
ByLayer
 72
     0
 43
0.0208333333333333
 43
0.0
 43
0.0
 43
0.0
 43
0.0
 43
0.0208333333333333
 43
0.0
 43
0.0
 43
0.0
 43
0.0
 43
1.0
 43
0.0
 43
0.0
 43
0.0
 43
0.0
 43
1.0
 77
     0
 47
0.0208333333333333
 47
0.0
 47
0.0
 47
0.0
 47
0.0
 47
0.0208333333333333
 47
0.0
 47
0.0
 47
0.0
 47
0.0
 47
1.0
 47
0.0
 47
0.0
 47
0.0
 47
0.0
 47
1.0
171
     0
 49
0.0208333333333333
 49
0.0
 49
0.0
 49
0.0
 49
0.0
 49
0.0208333333333333
 49
0.0
 49
0.0
 49
0.0
 49
0.0
 49
1.0
 49
0.0
 49
0.0
 49
0.0
 49
0.0
 49
1.0
175
     0
142
0.0208333333333333
142
0.0
142
0.0
142
0.0
142
0.0
142
0.0208333333333333
142
0.0
142
0.0
142
0.0
142
0.0
142
1.0
142
0.0
142
0.0
142
0.0
142
0.0
142
1.0
179
     0
144
0.0208333333333333
144
0.0
144
0.0
144
0.0
144
0.0
144
0.0208333333333333
144
0.0
144
0.0
144
0.0
144
0.0
144
1.0
144
0.0
144
0.0
144
0.0
144
0.0
144
1.0
147
0.0208333333333333
147
0.0
147
0.0
147
0.0
147
0.0
147
0.0208333333333333
147
0.0
147
0.0
147
0.0
147
0.0
147
1.0
147
0.0
147
0.0
147
0.0
147
0.0
147
1.0
  0
MATERIAL
  5
21
102
{ACAD_XDICTIONARY
360
22
102
}
102
{ACAD_REACTORS
330
10
102
}
330
10
100
AcDbMaterial
  1
Global
 72
     0
 43
0.0208333333333333
 43
0.0
 43
0.0
 43
0.0
 43
0.0
 43
0.0208333333333333
 43
0.0
 43
0.0
 43
0.0
 43
0.0
 43
1.0
 43
0.0
 43
0.0
 43
0.0
 43
0.0
 43
1.0
 77
     0
 47
0.0208333333333333
 47
0.0
 47
0.0
 47
0.0
 47
0.0
 47
0.0208333333333333
 47
0.0
 47
0.0
 47
0.0
 47
0.0
 47
1.0
 47
0.0
 47
0.0
 47
0.0
 47
0.0
 47
1.0
171
     0
 49
0.0208333333333333
 49
0.0
 49
0.0
 49
0.0
 49
0.0
 49
0.0208333333333333
 49
0.0
 49
0.0
 49
0.0
 49
0.0
 49
1.0
 49
0.0
 49
0.0
 49
0.0
 49
0.0
 49
1.0
175
     0
142
0.0208333333333333
142
0.0
142
0.0
142
0.0
142
0.0
142
0.0208333333333333
142
0.0
142
0.0
142
0.0
142
0.0
142
1.0
142
0.0
142
0.0
142
0.0
142
0.0
142
1.0
179
     0
144
0.0208333333333333
144
0.0
144
0.0
144
0.0
144
0.0
144
0.0208333333333333
144
0.0
144
0.0
144
0.0
144
0.0
144
1.0
144
0.0
144
0.0
144
0.0
144
0.0
144
1.0
147
0.0208333333333333
147
0.0
147
0.0
147
0.0
147
0.0
147
0.0208333333333333
147
0.0
147
0.0
147
0.0
147
0.0
147
1.0
147
0.0
147
0.0
147
0.0
147
0.0
147
1.0
  0
MLEADERSTYLE
  5
67
102
{ACAD_XDICTIONARY
360
13C
102
}
102
{ACAD_REACTORS
330
66
102
}
330
66
100
AcDbMLeaderStyle
179
     2
170
     2
171
     1
172
     0
 90
        2
 40
0.0
 41
0.0
173
     1
 91
-1056964608
340
5B
 92
       -2
290
     1
 42
0.09
291
     1
 43
0.36
  3
Standard
 44
0.18
300

342
55
174
     1
178
     6
175
     1
176
     0
 93
-1056964608
 45
0.18
292
     0
297
     0
 46
0.18
 94
-1056964608
 47
1.0
 49
1.0
140
1.0
293
     1
141
0.0
294
     1
177
     0
142
1.0
295
     0
296
     0
143
0.125
271
     0
272
     9
273
     9
  0
MLINESTYLE
  5
60
102
{ACAD_REACTORS
330
5F
102
}
330
5F
100
AcDbMlineStyle
  2
STANDARD
 70
     0
  3

 62
   256
 51
90.0
 52
90.0
 71
     2
 49
0.5
 62
   256
  6
BYLAYER
 49
-0.5
 62
   256
  6
BYLAYER
  0
ACDBPLACEHOLDER
  5
F
102
{ACAD_REACTORS
330
E
102
}
330
E
  0
SCALE
  5
43
102
{ACAD_REACTORS
330
42
102
}
330
42
100
AcDbScale
 70
     0
300
1:1
140
1.0
141
1.0
290
     1
  0
SCALE
  5
44
102
{ACAD_REACTORS
330
42
102
}
330
42
100
AcDbScale
 70
     0
300
1/128" = 1'-0"
140
0.0078125
141
12.0
290
     0
  0
SCALE
  5
45
102
{ACAD_REACTORS
330
42
102
}
330
42
100
AcDbScale
 70
     0
300
1/64" = 1'-0"
140
0.015625
141
12.0
290
     0
  0
SCALE
  5
46
102
{ACAD_REACTORS
330
42
102
}
330
42
100
AcDbScale
 70
     0
300
1/32" = 1'-0"
140
0.03125
141
12.0
290
     0
  0
SCALE
  5
47
102
{ACAD_REACTORS
330
42
102
}
330
42
100
AcDbScale
 70
     0
300
1/16" = 1'-0"
140
0.0625
141
12.0
290
     0
  0
SCALE
  5
48
102
{ACAD_REACTORS
330
42
102
}
330
42
100
AcDbScale
 70
     0
300
3/32" = 1'-0"
140
0.09375
141
12.0
290
     0
  0
SCALE
  5
49
102
{ACAD_REACTORS
330
42
102
}
330
42
100
AcDbScale
 70
     0
300
1/8" = 1'-0"
140
0.125
141
12.0
290
     0
  0
SCALE
  5
4A
102
{ACAD_REACTORS
330
42
102
}
330
42
100
AcDbScale
 70
     0
300
3/16" = 1'-0"
140
0.1875
141
12.0
290
     0
  0
SCALE
  5
4B
102
{ACAD_REACTORS
330
42
102
}
330
42
100
AcDbScale
 70
     0
300
1/4" = 1'-0"
140
0.25
141
12.0
290
     0
  0
SCALE
  5
4C
102
{ACAD_REACTORS
330
42
102
}
330
42
100
AcDbScale
 70
     0
300
3/8" = 1'-0"
140
0.375
141
12.0
290
     0
  0
SCALE
  5
4D
102
{ACAD_REACTORS
330
42
102
}
330
42
100
AcDbScale
 70
     0
300
1/2" = 1'-0"
140
0.5
141
12.0
290
     0
  0
SCALE
  5
4E
102
{ACAD_REACTORS
330
42
102
}
330
42
100
AcDbScale
 70
     0
300
3/4" = 1'-0"
140
0.75
141
12.0
290
     0
  0
SCALE
  5
4F
102
{ACAD_REACTORS
330
42
102
}
330
42
100
AcDbScale
 70
     0
300
1" = 1'-0"
140
1.0
141
12.0
290
     0
  0
SCALE
  5
50
102
{ACAD_REACTORS
330
42
102
}
330
42
100
AcDbScale
 70
     0
300
1-1/2" = 1'-0"
140
1.5
141
12.0
290
     0
  0
SCALE
  5
51
102
{ACAD_REACTORS
330
42
102
}
330
42
100
AcDbScale
 70
     0
300
3" = 1'-0"
140
3.0
141
12.0
290
     0
  0
SCALE
  5
52
102
{ACAD_REACTORS
330
42
102
}
330
42
100
AcDbScale
 70
     0
300
6" = 1'-0"
140
6.0
141
12.0
290
     0
  0
SCALE
  5
53
102
{ACAD_REACTORS
330
42
102
}
330
42
100
AcDbScale
 70
     0
300
1'-0" = 1'-0"
140
12.0
141
12.0
290
     0
  0
ACDBSECTIONVIEWSTYLE
  5
69
102
{ACAD_XDICTIONARY
360
13E
102
}
102
{ACAD_REACTORS
330
68
102
}
330
68
100
AcDbModelDocViewStyle
 70
     0
  3
Imperial24
290
     0
100
AcDbSectionViewStyle
 70
     0
 71
     0
 90
       78
 71
     1
340
55
 62
   256
 40
0.24
340
0
340
0
 62
   256
 40
0.24
300
I, O, Q, S, X, Z
 40
0.48
 90
        3
 40
0.18
 90
        1
 71
     2
340
5D
 90
       25
 62
   256
340
5D
 90
       50
 62
   256
 40
0.24
 40
0.0
 40
0.24
 71
     3
340
55
 62
   256
 40
0.24
 90
        1
 40
0.75
 90
        1
300
%<\AcVar ViewType \f "%tc1">% %<\AcVar ViewSectionStartId>%-%<\AcVar ViewSectionEndId>%\PSCALE %<\AcVar ViewScale \f "%sn">%
 71
     4
 62
   256
 62
   257
300
ANSI31
 40
1.0
 90
        0
290
     0
290
     0
 90
        6
 40
0.0
 40
1.570796326794896
 40
0.2617993877991494
 40
1.308996938995747
 40
-0.2617993877991494
 40
1.832595714594046
  0
TABLESTYLE
  5
65
102
{ACAD_XDICTIONARY
360
106
102
}
102
{ACAD_REACTORS
330
64
102
}
330
64
100
AcDbTableStyle
280
     0
  3
Standard
 70
     0
 71
     0
 40
0.06
 41
0.06
280
     0
281
     0
  7
Standard
140
0.18
170
     2
 62
     0
 63
     7
283
     0
 90
      512
 91
        0
  1

274
    -2
284
     1
 64
     0
275
    -2
285
     1
 65
     0
276
    -2
286
     1
 66
     0
277
    -2
287
     1
 67
     0
278
    -2
288
     1
 68
     0
279
    -2
289
     1
 69
     0
  7
Standard
140
0.25
170
     5
 62
     0
 63
     7
283
     0
 90
      512
 91
        0
  1

274
    -2
284
     1
 64
     0
275
    -2
285
     1
 65
     0
276
    -2
286
     1
 66
     0
277
    -2
287
     1
 67
     0
278
    -2
288
     1
 68
     0
279
    -2
289
     1
 69
     0
  7
Standard
140
0.18
170
     5
 62
     0
 63
     7
283
     0
 90
      512
 91
        0
  1

274
    -2
284
     1
 64
     0
275
    -2
285
     1
 65
     0
276
    -2
286
     1
 66
     0
277
    -2
287
     1
 67
     0
278
    -2
288
     1
 68
     0
279
    -2
289
     1
 69
     0
  0
VISUALSTYLE
  5
2F
102
{ACAD_XDICTIONARY
360
116
102
}
102
{ACAD_REACTORS
330
29
102
}
330
29
100
AcDbVisualStyle
  2
2dWireframe
 70
     4
177
     2
291
     0
 71
     0
176
     1
 72
     2
176
     1
 73
     0
176
     1
 90
        0
176
     1
 40
0.6
176
     1
 41
30.0
176
     1
 63
     7
421
 16777215
176
     1
 74
     1
176
     1
 91
        4
176
     1
 64
     7
176
     1
 65
   257
176
     1
 75
     1
176
     1
175
     1
176
     1
 42
1.0
176
     1
 92
        0
176
     1
 66
   257
176
     1
 43
1.0
176
     1
 76
     1
176
     1
 77
     6
176
     1
 78
     2
176
     1
 67
     7
176
     1
 79
     5
176
     1
170
     0
176
     1
171
     0
176
     1
290
     0
176
     1
 93
        1
176
     1
 44
0.0
176
     1
173
     0
176
     1
1001
ACAD
1000
AcDbSavedByObjectVersion
1070
     0
  0
VISUALSTYLE
  5
2E
102
{ACAD_XDICTIONARY
360
114
102
}
102
{ACAD_REACTORS
330
29
102
}
330
29
100
AcDbVisualStyle
  2
Basic
 70
     7
177
     2
291
     1
 71
     1
176
     1
 72
     0
176
     1
 73
     1
176
     1
 90
        0
176
     1
 40
0.6
176
     1
 41
30.0
176
     1
 63
     7
421
 16777215
176
     1
 74
     0
176
     1
 91
        4
176
     1
 64
     7
176
     1
 65
   257
176
     1
 75
     1
176
     1
175
     1
176
     1
 42
1.0
176
     1
 92
        8
176
     1
 66
     7
176
     1
 43
1.0
176
     1
 76
     1
176
     1
 77
     6
176
     1
 78
     2
176
     1
 67
     7
176
     1
 79
     5
176
     1
170
     0
176
     1
171
     0
176
     1
290
     0
176
     1
 93
        1
176
     1
 44
0.0
176
     1
173
     0
176
     1
1001
ACAD
1000
AcDbSavedByObjectVersion
1070
     0
  0
VISUALSTYLE
  5
35
102
{ACAD_XDICTIONARY
360
122
102
}
102
{ACAD_REACTORS
330
29
102
}
330
29
100
AcDbVisualStyle
  2
Brighten
 70
    12
177
     2
291
     1
 71
     2
176
     1
 72
     2
176
     1
 73
     0
176
     1
 90
        0
176
     1
 40
0.6
176
     1
 41
30.0
176
     1
 63
     7
421
 16777215
176
     1
 74
     1
176
     1
 91
        4
176
     1
 64
     7
176
     1
 65
   257
176
     1
 75
     1
176
     1
175
     1
176
     1
 42
1.0
176
     1
 92
        8
176
     1
 66
     7
176
     1
 43
1.0
176
     1
 76
     1
176
     1
 77
     6
176
     1
 78
     2
176
     1
 67
     7
176
     1
 79
     5
176
     1
170
     0
176
     1
171
     0
176
     1
290
     0
176
     1
 93
        1
176
     1
 44
50.0
176
     1
173
     0
176
     1
1001
ACAD
1000
AcDbSavedByObjectVersion
1070
     0
  0
VISUALSTYLE
  5
39
102
{ACAD_XDICTIONARY
360
12A
102
}
102
{ACAD_REACTORS
330
29
102
}
330
29
100
AcDbVisualStyle
  2
ColorChange
 70
    16
177
     2
291
     1
 71
     2
176
     1
 72
     2
176
     1
 73
     3
176
     1
 90
        0
176
     1
 40
0.6
176
     1
 41
30.0
176
     1
 63
     8
421
  8421504
176
     1
 74
     1
176
     1
 91
        4
176
     1
 64
     7
176
     1
 65
   257
176
     1
 75
     1
176
     1
175
     1
176
     1
 42
1.0
176
     1
 92
        8
176
     1
 66
     8
424
  8421504
176
     1
 43
1.0
176
     1
 76
     1
176
     1
 77
     6
176
     1
 78
     2
176
     1
 67
     7
176
     1
 79
     5
176
     1
170
     0
176
     1
171
     0
176
     1
290
     0
176
     1
 93
        1
176
     1
 44
0.0
176
     1
173
     0
176
     1
1001
ACAD
1000
AcDbSavedByObjectVersion
1070
     0
  0
VISUALSTYLE
  5
32
102
{ACAD_XDICTIONARY
360
11C
102
}
102
{ACAD_REACTORS
330
29
102
}
330
29
100
AcDbVisualStyle
  2
Conceptual
 70
     9
177
     2
291
     0
 71
     3
176
     1
 72
     2
176
     1
 73
     0
176
     1
 90
        0
176
     1
 40
0.6
176
     1
 41
30.0
176
     1
 63
     7
421
 16777215
176
     1
 74
     2
176
     1
 91
        2
176
     1
 64
     7
176
     1
 65
   257
176
     1
 75
     1
176
     1
175
     1
176
     1
 42
179.0
176
     1
 92
        8
176
     1
 66
     7
176
     1
 43
1.0
176
     1
 76
     1
176
     1
 77
     6
176
     1
 78
     2
176
     1
 67
     7
176
     1
 79
     3
176
     1
170
     0
176
     1
171
     0
176
     1
290
     0
176
     1
 93
        1
176
     1
 44
0.0
176
     1
173
     0
176
     1
1001
ACAD
1000
AcDbSavedByObjectVersion
1070
     0
  0
VISUALSTYLE
  5
34
102
{ACAD_XDICTIONARY
360
120
102
}
102
{ACAD_REACTORS
330
29
102
}
330
29
100
AcDbVisualStyle
  2
Dim
 70
    11
177
     2
291
     1
 71
     2
176
     1
 72
     2
176
     1
 73
     0
176
     1
 90
        0
176
     1
 40
0.6
176
     1
 41
30.0
176
     1
 63
     7
421
 16777215
176
     1
 74
     1
176
     1
 91
        4
176
     1
 64
     7
176
     1
 65
   257
176
     1
 75
     1
176
     1
175
     1
176
     1
 42
1.0
176
     1
 92
        8
176
     1
 66
     7
176
     1
 43
1.0
176
     1
 76
     1
176
     1
 77
     6
176
     1
 78
     2
176
     1
 67
     7
176
     1
 79
     5
176
     1
170
     0
176
     1
171
     0
176
     1
290
     0
176
     1
 93
        1
176
     1
 44
-50.0
176
     1
173
     0
176
     1
1001
ACAD
1000
AcDbSavedByObjectVersion
1070
     0
  0
VISUALSTYLE
  5
41
102
{ACAD_XDICTIONARY
360
13A
102
}
102
{ACAD_REACTORS
330
29
102
}
330
29
100
AcDbVisualStyle
  2
EdgeColorOff
 70
    22
177
     2
291
     1
 71
     2
176
     0
 72
     2
176
     0
 73
     0
176
     0
 90
        0
176
     0
 40
0.6
176
     0
 41
30.0
176
     0
 63
     7
421
 16777215
176
     0
 74
     1
176
     0
 91
        4
176
     0
 64
     7
176
     0
 65
   257
176
     0
 75
     1
176
     0
175
     1
176
     0
 42
1.0
176
     0
 92
        8
176
     2
 66
     7
176
     0
 43
1.0
176
     0
 76
     1
176
     0
 77
     6
176
     0
 78
     2
176
     0
 67
     7
176
     0
 79
     5
176
     0
170
     0
176
     0
171
     0
176
     0
290
     0
176
     0
 93
        1
176
     0
 44
0.0
176
     0
173
     0
176
     0
1001
ACAD
1000
AcDbSavedByObjectVersion
1070
     0
  0
VISUALSTYLE
  5
38
102
{ACAD_XDICTIONARY
360
128
102
}
102
{ACAD_REACTORS
330
29
102
}
330
29
100
AcDbVisualStyle
  2
Facepattern
 70
    15
177
     2
291
     1
 71
     2
176
     1
 72
     2
176
     1
 73
     0
176
     1
 90
        0
176
     1
 40
0.6
176
     1
 41
30.0
176
     1
 63
     7
421
 16777215
176
     1
 74
     1
176
     1
 91
        4
176
     1
 64
     7
176
     1
 65
   257
176
     1
 75
     1
176
     1
175
     1
176
     1
 42
1.0
176
     1
 92
        8
176
     1
 66
     7
176
     1
 43
1.0
176
     1
 76
     1
176
     1
 77
     6
176
     1
 78
     2
176
     1
 67
     7
176
     1
 79
     5
176
     1
170
     0
176
     1
171
     0
176
     1
290
     0
176
     1
 93
        1
176
     1
 44
0.0
176
     1
173
     0
176
     1
1001
ACAD
1000
AcDbSavedByObjectVersion
1070
     0
  0
VISUALSTYLE
  5
2A
102
{ACAD_XDICTIONARY
360
10C
102
}
102
{ACAD_REACTORS
330
29
102
}
330
29
100
AcDbVisualStyle
  2
Flat
 70
     0
177
     2
291
     1
 71
     2
176
     1
 72
     1
176
     1
 73
     1
176
     1
 90
        2
176
     1
 40
0.6
176
     1
 41
30.0
176
     1
 63
     7
421
 16777215
176
     1
 74
     0
176
     1
 91
        0
176
     1
 64
     7
176
     1
 65
   257
176
     1
 75
     1
176
     1
175
     1
176
     1
 42
1.0
176
     1
 92
        8
176
     1
 66
     7
176
     1
 43
1.0
176
     1
 76
     1
176
     1
 77
     6
176
     1
 78
     2
176
     1
 67
     7
176
     1
 79
     5
176
     1
170
     0
176
     1
171
     0
176
     1
290
     0
176
     1
 93
       13
176
     1
 44
0.0
176
     1
173
     0
176
     1
1001
ACAD
1000
AcDbSavedByObjectVersion
1070
     0
  0
VISUALSTYLE
  5
2B
102
{ACAD_XDICTIONARY
360
10E
102
}
102
{ACAD_REACTORS
330
29
102
}
330
29
100
AcDbVisualStyle
  2
FlatWithEdges
 70
     1
177
     2
291
     1
 71
     2
176
     1
 72
     1
176
     1
 73
     1
176
     1
 90
        2
176
     1
 40
0.6
176
     1
 41
30.0
176
     1
 63
     7
421
 16777215
176
     1
 74
     1
176
     1
 91
        0
176
     1
 64
     7
176
     1
 65
   257
176
     1
 75
     1
176
     1
175
     1
176
     1
 42
1.0
176
     1
 92
        0
176
     1
 66
   257
176
     1
 43
1.0
176
     1
 76
     1
176
     1
 77
     6
176
     1
 78
     2
176
     1
 67
     7
176
     1
 79
     5
176
     1
170
     0
176
     1
171
     0
176
     1
290
     0
176
     1
 93
       13
176
     1
 44
0.0
176
     1
173
     0
176
     1
1001
ACAD
1000
AcDbSavedByObjectVersion
1070
     0
  0
VISUALSTYLE
  5
2C
102
{ACAD_XDICTIONARY
360
110
102
}
102
{ACAD_REACTORS
330
29
102
}
330
29
100
AcDbVisualStyle
  2
Gouraud
 70
     2
177
     2
291
     1
 71
     2
176
     1
 72
     2
176
     1
 73
     1
176
     1
 90
        2
176
     1
 40
0.6
176
     1
 41
30.0
176
     1
 63
     7
421
 16777215
176
     1
 74
     0
176
     1
 91
        0
176
     1
 64
     7
176
     1
 65
   257
176
     1
 75
     1
176
     1
175
     1
176
     1
 42
1.0
176
     1
 92
        0
176
     1
 66
     7
176
     1
 43
1.0
176
     1
 76
     1
176
     1
 77
     6
176
     1
 78
     2
176
     1
 67
     7
176
     1
 79
     5
176
     1
170
     0
176
     1
171
     0
176
     1
290
     0
176
     1
 93
       13
176
     1
 44
0.0
176
     1
173
     0
176
     1
1001
ACAD
1000
AcDbSavedByObjectVersion
1070
     0
  0
VISUALSTYLE
  5
2D
102
{ACAD_XDICTIONARY
360
112
102
}
102
{ACAD_REACTORS
330
29
102
}
330
29
100
AcDbVisualStyle
  2
GouraudWithEdges
 70
     3
177
     2
291
     1
 71
     2
176
     1
 72
     2
176
     1
 73
     1
176
     1
 90
        2
176
     1
 40
0.6
176
     1
 41
30.0
176
     1
 63
     7
421
 16777215
176
     1
 74
     1
176
     1
 91
        0
176
     1
 64
     7
176
     1
 65
   257
176
     1
 75
     1
176
     1
175
     1
176
     1
 42
1.0
176
     1
 92
        0
176
     1
 66
   257
176
     1
 43
1.0
176
     1
 76
     1
176
     1
 77
     6
176
     1
 78
     2
176
     1
 67
     7
176
     1
 79
     5
176
     1
170
     0
176
     1
171
     0
176
     1
290
     0
176
     1
 93
       13
176
     1
 44
0.0
176
     1
173
     0
176
     1
1001
ACAD
1000
AcDbSavedByObjectVersion
1070
     0
  0
VISUALSTYLE
  5
31
102
{ACAD_XDICTIONARY
360
11A
102
}
102
{ACAD_REACTORS
330
29
102
}
330
29
100
AcDbVisualStyle
  2
Hidden
 70
     6
177
     2
291
     0
 71
     1
176
     1
 72
     2
176
     1
 73
     2
176
     1
 90
        0
176
     1
 40
0.6
176
     1
 41
30.0
176
     1
 63
     7
421
 16777215
176
     1
 74
     2
176
     1
 91
        2
176
     1
 64
     7
176
     1
 65
   257
176
     1
 75
     2
176
     1
175
     1
176
     1
 42
40.0
176
     1
 92
        0
176
     1
 66
   257
176
     1
 43
1.0
176
     1
 76
     1
176
     1
 77
     6
176
     1
 78
     2
176
     1
 67
     7
176
     1
 79
     3
176
     1
170
     0
176
     1
171
     0
176
     1
290
     0
176
     1
 93
        1
176
     1
 44
0.0
176
     1
173
     0
176
     1
1001
ACAD
1000
AcDbSavedByObjectVersion
1070
     0
  0
VISUALSTYLE
  5
3F
102
{ACAD_XDICTIONARY
360
136
102
}
102
{ACAD_REACTORS
330
29
102
}
330
29
100
AcDbVisualStyle
  2
JitterOff
 70
    20
177
     2
291
     1
 71
     2
176
     0
 72
     2
176
     0
 73
     0
176
     0
 90
        0
176
     0
 40
0.6
176
     0
 41
30.0
176
     0
 63
     7
421
 16777215
176
     0
 74
     1
176
     0
 91
        4
176
     0
 64
     7
176
     0
 65
   257
176
     0
 75
     1
176
     0
175
     1
176
     0
 42
1.0
176
     0
 92
       10
176
     2
 66
     7
176
     0
 43
1.0
176
     0
 76
     1
176
     0
 77
     6
176
     0
 78
     2
176
     0
 67
     7
176
     0
 79
     5
176
     0
170
     0
176
     0
171
     0
176
     0
290
     0
176
     0
 93
        1
176
     0
 44
0.0
176
     0
173
     0
176
     0
1001
ACAD
1000
AcDbSavedByObjectVersion
1070
     0
  0
VISUALSTYLE
  5
37
102
{ACAD_XDICTIONARY
360
126
102
}
102
{ACAD_REACTORS
330
29
102
}
330
29
100
AcDbVisualStyle
  2
Linepattern
 70
    14
177
     2
291
     1
 71
     2
176
     1
 72
     2
176
     1
 73
     0
176
     1
 90
        0
176
     1
 40
0.6
176
     1
 41
30.0
176
     1
 63
     7
421
 16777215
176
     1
 74
     1
176
     1
 91
        4
176
     1
 64
     7
176
     1
 65
   257
176
     1
 75
     7
176
     1
175
     7
176
     1
 42
1.0
176
     1
 92
        8
176
     1
 66
     7
176
     1
 43
1.0
176
     1
 76
     1
176
     1
 77
     6
176
     1
 78
     2
176
     1
 67
     7
176
     1
 79
     5
176
     1
170
     0
176
     1
171
     0
176
     1
290
     0
176
     1
 93
        1
176
     1
 44
0.0
176
     1
173
     0
176
     1
1001
ACAD
1000
AcDbSavedByObjectVersion
1070
     0
  0
VISUALSTYLE
  5
40
102
{ACAD_XDICTIONARY
360
138
102
}
102
{ACAD_REACTORS
330
29
102
}
330
29
100
AcDbVisualStyle
  2
OverhangOff
 70
    21
177
     2
291
     1
 71
     2
176
     0
 72
     2
176
     0
 73
     0
176
     0
 90
        0
176
     0
 40
0.6
176
     0
 41
30.0
176
     0
 63
     7
421
 16777215
176
     0
 74
     1
176
     0
 91
        4
176
     0
 64
     7
176
     0
 65
   257
176
     0
 75
     1
176
     0
175
     1
176
     0
 42
1.0
176
     0
 92
        9
176
     2
 66
     7
176
     0
 43
1.0
176
     0
 76
     1
176
     0
 77
     6
176
     0
 78
     2
176
     0
 67
     7
176
     0
 79
     5
176
     0
170
     0
176
     0
171
     0
176
     0
290
     0
176
     0
 93
        1
176
     0
 44
0.0
176
     0
173
     0
176
     0
1001
ACAD
1000
AcDbSavedByObjectVersion
1070
     0
  0
VISUALSTYLE
  5
33
102
{ACAD_XDICTIONARY
360
11E
102
}
102
{ACAD_REACTORS
330
29
102
}
330
29
100
AcDbVisualStyle
  2
Realistic
 70
     8
177
     2
291
     0
 71
     2
176
     1
 72
     3
176
     1
 73
     0
176
     1
 90
        2
176
     1
 40
0.6
176
     1
 41
30.0
176
     1
 63
     7
421
 16777215
176
     1
 74
     0
176
     1
 91
        0
176
     1
 64
     7
176
     1
 65
   257
176
     1
 75
     1
176
     1
175
     1
176
     1
 42
1.0
176
     1
 92
        8
176
     1
 66
   257
176
     1
 43
1.0
176
     1
 76
     1
176
     1
 77
     6
176
     1
 78
     2
176
     1
 67
     7
176
     1
 79
     3
176
     1
170
     0
176
     1
171
     0
176
     1
290
     0
176
     1
 93
       13
176
     1
 44
0.0
176
     1
173
     0
176
     1
1001
ACAD
1000
AcDbSavedByObjectVersion
1070
     0
  0
VISUALSTYLE
  5
3E
102
{ACAD_XDICTIONARY
360
134
102
}
102
{ACAD_REACTORS
330
29
102
}
330
29
100
AcDbVisualStyle
  2
Shaded
 70
    27
177
     2
291
     0
 71
     2
176
     1
 72
     2
176
     1
 73
     1
176
     1
 90
        2
176
     1
 40
0.6
176
     1
 41
30.0
176
     1
 63
     7
421
 16777215
176
     1
 74
     0
176
     1
 91
        4
176
     1
 64
     7
176
     1
 65
   257
176
     1
 75
     1
176
     1
175
     1
176
     1
 42
1.0
176
     1
 92
        8
176
     1
 66
   257
176
     1
 43
1.0
176
     1
 76
     1
176
     1
 77
     6
176
     1
 78
     2
176
     1
 67
     8
425
  7895160
176
     1
 79
     3
176
     1
170
     0
176
     1
171
     0
176
     1
290
     0
176
     1
 93
        5
176
     1
 44
0.0
176
     1
173
     0
176
     1
1001
ACAD
1000
AcDbSavedByObjectVersion
1070
     0
  0
VISUALSTYLE
  5
3D
102
{ACAD_XDICTIONARY
360
132
102
}
102
{ACAD_REACTORS
330
29
102
}
330
29
100
AcDbVisualStyle
  2
Shaded with edges
 70
    26
177
     2
291
     0
 71
     2
176
     1
 72
     2
176
     1
 73
     1
176
     1
 90
        2
176
     1
 40
0.6
176
     1
 41
30.0
176
     1
 63
     7
421
 16777215
176
     1
 74
     1
176
     1
 91
        2
176
     1
 64
     7
176
     1
 65
   257
176
     1
 75
     2
176
     1
175
     1
176
     1
 42
1.0
176
     1
 92
        8
176
     1
 66
   257
176
     1
 43
1.0
176
     1
 76
     1
176
     1
 77
     6
176
     1
 78
     2
176
     1
 67
     7
176
     1
 79
     3
176
     1
170
     0
176
     1
171
     0
176
     1
290
     0
176
     1
 93
        5
176
     1
 44
0.0
176
     1
173
     0
176
     1
1001
ACAD
1000
AcDbSavedByObjectVersion
1070
     0
  0
VISUALSTYLE
  5
3A
102
{ACAD_XDICTIONARY
360
12C
102
}
102
{ACAD_REACTORS
330
29
102
}
330
29
100
AcDbVisualStyle
  2
Shades of Gray
 70
    23
177
     2
291
     0
 71
     2
176
     1
 72
     2
176
     1
 73
     3
176
     1
 90
        0
176
     1
 40
0.6
176
     1
 41
30.0
176
     1
 63
     7
421
 16777215
176
     1
 74
     2
176
     1
 91
        2
176
     1
 64
     7
176
     1
 65
     7
176
     1
 75
     1
176
     1
175
     1
176
     1
 42
40.0
176
     1
 92
        8
176
     1
 66
     7
176
     1
 43
1.0
176
     1
 76
     1
176
     1
 77
     6
176
     1
 78
     2
176
     1
 67
     7
176
     1
 79
     3
176
     1
170
     0
176
     1
171
     0
176
     1
290
     0
176
     1
 93
        1
176
     1
 44
0.0
176
     1
173
     0
176
     1
1001
ACAD
1000
AcDbSavedByObjectVersion
1070
     0
  0
VISUALSTYLE
  5
3B
102
{ACAD_XDICTIONARY
360
12E
102
}
102
{ACAD_REACTORS
330
29
102
}
330
29
100
AcDbVisualStyle
  2
Sketchy
 70
    24
177
     2
291
     0
 71
     1
176
     1
 72
     2
176
     1
 73
     2
176
     1
 90
        0
176
     1
 40
0.6
176
     1
 41
30.0
176
     1
 63
     7
421
 16777215
176
     1
 74
     2
176
     1
 91
        2
176
     1
 64
     7
176
     1
 65
     7
176
     1
 75
     1
176
     1
175
     1
176
     1
 42
40.0
176
     1
 92
       11
176
     1
 66
     7
176
     1
 43
1.0
176
     1
 76
     1
176
     1
 77
     6
176
     1
 78
     2
176
     1
 67
     7
176
     1
 79
     6
176
     1
170
     0
176
     1
171
     0
176
     1
290
     0
176
     1
 93
        1
176
     1
 44
0.0
176
     1
173
     0
176
     1
1001
ACAD
1000
AcDbSavedByObjectVersion
1070
     0
  0
VISUALSTYLE
  5
36
102
{ACAD_XDICTIONARY
360
124
102
}
102
{ACAD_REACTORS
330
29
102
}
330
29
100
AcDbVisualStyle
  2
Thicken
 70
    13
177
     2
291
     1
 71
     2
176
     1
 72
     2
176
     1
 73
     0
176
     1
 90
        0
176
     1
 40
0.6
176
     1
 41
30.0
176
     1
 63
     7
421
 16777215
176
     1
 74
     1
176
     1
 91
        4
176
     1
 64
     7
176
     1
 65
   257
176
     1
 75
     1
176
     1
175
     1
176
     1
 42
1.0
176
     1
 92
       12
176
     1
 66
     7
176
     1
 43
1.0
176
     1
 76
     1
176
     1
 77
     6
176
     1
 78
     2
176
     1
 67
     7
176
     1
 79
     5
176
     1
170
     0
176
     1
171
     0
176
     1
290
     0
176
     1
 93
        1
176
     1
 44
0.0
176
     1
173
     0
176
     1
1001
ACAD
1000
AcDbSavedByObjectVersion
1070
     0
  0
VISUALSTYLE
  5
30
102
{ACAD_XDICTIONARY
360
118
102
}
102
{ACAD_REACTORS
330
29
102
}
330
29
100
AcDbVisualStyle
  2
Wireframe
 70
     5
177
     2
291
     0
 71
     0
176
     1
 72
     2
176
     1
 73
     0
176
     1
 90
        0
176
     1
 40
0.6
176
     1
 41
30.0
176
     1
 63
     7
421
 16777215
176
     1
 74
     1
176
     1
 91
        4
176
     1
 64
     7
176
     1
 65
   257
176
     1
 75
     1
176
     1
175
     1
176
     1
 42
1.0
176
     1
 92
        0
176
     1
 66
   257
176
     1
 43
1.0
176
     1
 76
     1
176
     1
 77
     6
176
     1
 78
     2
176
     1
 67
     7
176
     1
 79
     3
176
     1
170
     0
176
     1
171
     0
176
     1
290
     0
176
     1
 93
        1
176
     1
 44
0.0
176
     1
173
     0
176
     1
1001
ACAD
1000
AcDbSavedByObjectVersion
1070
     0
  0
VISUALSTYLE
  5
3C
102
{ACAD_XDICTIONARY
360
130
102
}
102
{ACAD_REACTORS
330
29
102
}
330
29
100
AcDbVisualStyle
  2
X-Ray
 70
    25
177
     2
291
     0
 71
     2
176
     1
 72
     2
176
     1
 73
     1
176
     1
 90
        1
176
     1
 40
0.5
176
     1
 41
30.0
176
     1
 63
     7
421
 16777215
176
     1
 74
     1
176
     1
 91
        0
176
     1
 64
     7
176
     1
 65
   257
176
     1
 75
     1
176
     1
175
     1
176
     1
 42
1.0
176
     1
 92
        8
176
     1
 66
     7
176
     1
 43
1.0
176
     1
 76
     1
176
     1
 77
     6
176
     1
 78
     2
176
     1
 67
     7
176
     1
 79
     3
176
     1
170
     0
176
     1
171
     0
176
     1
290
     0
176
     1
 93
       13
176
     1
 44
0.0
176
     1
173
     0
176
     1
1001
ACAD
1000
AcDbSavedByObjectVersion
1070
     0
  0
DICTIONARYVAR
  5
105
102
{ACAD_REACTORS
330
100
102
}
330
100
100
DictionaryVariables
280
     0
  1
1:1
  0
DICTIONARYVAR
  5
102
102
{ACAD_REACTORS
330
100
102
}
330
100
100
DictionaryVariables
280
     0
  1
STANDARD
  0
DICTIONARYVAR
  5
101
102
{ACAD_REACTORS
330
100
102
}
330
100
100
DictionaryVariables
280
     0
  1
STANDARD
  0
DICTIONARYVAR
  5
103
102
{ACAD_REACTORS
330
100
102
}
330
100
100
DictionaryVariables
280
     0
  1
Imperial24
  0
DICTIONARYVAR
  5
104
102
{ACAD_REACTORS
330
100
102
}
330
100
100
DictionaryVariables
280
     0
  1
Imperial24
  0
DICTIONARY
  5
140
330
6B
100
AcDbDictionary
280
     1
281
     1
  3
ACAD_XREC_ROUNDTRIP
360
141
  0
DICTIONARY
  5
1A
330
19
100
AcDbDictionary
280
     1
281
     1
  3
BUMPTILE
360
1C
  3
DIFFUSETILE
360
1B
  3
OPACITYTILE
360
1F
  3
REFLECTIONTILE
360
1E
  3
REFRACTIONTILE
360
20
  3
SPECULARTILE
360
1D
  0
DICTIONARY
  5
12
330
11
100
AcDbDictionary
280
     1
281
     1
  3
BUMPTILE
360
14
  3
DIFFUSETILE
360
13
  3
OPACITYTILE
360
17
  3
REFLECTIONTILE
360
16
  3
REFRACTIONTILE
360
18
  3
SPECULARTILE
360
15
  0
DICTIONARY
  5
22
330
21
100
AcDbDictionary
280
     1
281
     1
  3
BUMPTILE
360
24
  3
DIFFUSETILE
360
23
  3
OPACITYTILE
360
27
  3
REFLECTIONTILE
360
26
  3
REFRACTIONTILE
360
28
  3
SPECULARTILE
360
25
  0
DICTIONARY
  5
13C
330
67
100
AcDbDictionary
280
     1
281
     1
  3
ACAD_XREC_ROUNDTRIP
360
13D
  0
DICTIONARY
  5
13E
330
69
100
AcDbDictionary
280
     1
281
     1
  3
ACAD_XREC_ROUNDTRIP
360
13F
  0
DICTIONARY
  5
106
330
65
100
AcDbDictionary
280
     1
281
     1
  3
ACAD_ROUNDTRIP_2008_TABLESTYLE_CELLSTYLEMAP
360
107
  0
DICTIONARY
  5
116
330
2F
100
AcDbDictionary
280
     1
281
     1
  3
ACAD_XREC_ROUNDTRIP
360
117
  0
DICTIONARY
  5
114
330
2E
100
AcDbDictionary
280
     1
281
     1
  3
ACAD_XREC_ROUNDTRIP
360
115
  0
DICTIONARY
  5
122
330
35
100
AcDbDictionary
280
     1
281
     1
  3
ACAD_XREC_ROUNDTRIP
360
123
  0
DICTIONARY
  5
12A
330
39
100
AcDbDictionary
280
     1
281
     1
  3
ACAD_XREC_ROUNDTRIP
360
12B
  0
DICTIONARY
  5
11C
330
32
100
AcDbDictionary
280
     1
281
     1
  3
ACAD_XREC_ROUNDTRIP
360
11D
  0
DICTIONARY
  5
120
330
34
100
AcDbDictionary
280
     1
281
     1
  3
ACAD_XREC_ROUNDTRIP
360
121
  0
DICTIONARY
  5
13A
330
41
100
AcDbDictionary
280
     1
281
     1
  3
ACAD_XREC_ROUNDTRIP
360
13B
  0
DICTIONARY
  5
128
330
38
100
AcDbDictionary
280
     1
281
     1
  3
ACAD_XREC_ROUNDTRIP
360
129
  0
DICTIONARY
  5
10C
330
2A
100
AcDbDictionary
280
     1
281
     1
  3
ACAD_XREC_ROUNDTRIP
360
10D
  0
DICTIONARY
  5
10E
330
2B
100
AcDbDictionary
280
     1
281
     1
  3
ACAD_XREC_ROUNDTRIP
360
10F
  0
DICTIONARY
  5
110
330
2C
100
AcDbDictionary
280
     1
281
     1
  3
ACAD_XREC_ROUNDTRIP
360
111
  0
DICTIONARY
  5
112
330
2D
100
AcDbDictionary
280
     1
281
     1
  3
ACAD_XREC_ROUNDTRIP
360
113
  0
DICTIONARY
  5
11A
330
31
100
AcDbDictionary
280
     1
281
     1
  3
ACAD_XREC_ROUNDTRIP
360
11B
  0
DICTIONARY
  5
136
330
3F
100
AcDbDictionary
280
     1
281
     1
  3
ACAD_XREC_ROUNDTRIP
360
137
  0
DICTIONARY
  5
126
330
37
100
AcDbDictionary
280
     1
281
     1
  3
ACAD_XREC_ROUNDTRIP
360
127
  0
DICTIONARY
  5
138
330
40
100
AcDbDictionary
280
     1
281
     1
  3
ACAD_XREC_ROUNDTRIP
360
139
  0
DICTIONARY
  5
11E
330
33
100
AcDbDictionary
280
     1
281
     1
  3
ACAD_XREC_ROUNDTRIP
360
11F
  0
DICTIONARY
  5
134
330
3E
100
AcDbDictionary
280
     1
281
     1
  3
ACAD_XREC_ROUNDTRIP
360
135
  0
DICTIONARY
  5
132
330
3D
100
AcDbDictionary
280
     1
281
     1
  3
ACAD_XREC_ROUNDTRIP
360
133
  0
DICTIONARY
  5
12C
330
3A
100
AcDbDictionary
280
     1
281
     1
  3
ACAD_XREC_ROUNDTRIP
360
12D
  0
DICTIONARY
  5
12E
330
3B
100
AcDbDictionary
280
     1
281
     1
  3
ACAD_XREC_ROUNDTRIP
360
12F
  0
DICTIONARY
  5
124
330
36
100
AcDbDictionary
280
     1
281
     1
  3
ACAD_XREC_ROUNDTRIP
360
125
  0
DICTIONARY
  5
118
330
30
100
AcDbDictionary
280
     1
281
     1
  3
ACAD_XREC_ROUNDTRIP
360
119
  0
DICTIONARY
  5
130
330
3C
100
AcDbDictionary
280
     1
281
     1
  3
ACAD_XREC_ROUNDTRIP
360
131
  0
XRECORD
  5
141
102
{ACAD_REACTORS
330
140
102
}
330
140
100
AcDbXrecord
280
     1
102
DISPLAYNAME
  1
Imperial24
102
FLAGS
 90
        0
  0
XRECORD
  5
1C
102
{ACAD_REACTORS
330
1A
102
}
330
1A
100
AcDbXrecord
280
     1
270
     1
271
     1
  0
XRECORD
  5
1B
102
{ACAD_REACTORS
330
1A
102
}
330
1A
100
AcDbXrecord
280
     1
270
     1
271
     1
  0
XRECORD
  5
1F
102
{ACAD_REACTORS
330
1A
102
}
330
1A
100
AcDbXrecord
280
     1
270
     1
271
     1
  0
XRECORD
  5
1E
102
{ACAD_REACTORS
330
1A
102
}
330
1A
100
AcDbXrecord
280
     1
270
     1
271
     1
  0
XRECORD
  5
20
102
{ACAD_REACTORS
330
1A
102
}
330
1A
100
AcDbXrecord
280
     1
270
     1
271
     1
  0
XRECORD
  5
1D
102
{ACAD_REACTORS
330
1A
102
}
330
1A
100
AcDbXrecord
280
     1
270
     1
271
     1
  0
XRECORD
  5
14
102
{ACAD_REACTORS
330
12
102
}
330
12
100
AcDbXrecord
280
     1
270
     1
271
     1
  0
XRECORD
  5
13
102
{ACAD_REACTORS
330
12
102
}
330
12
100
AcDbXrecord
280
     1
270
     1
271
     1
  0
XRECORD
  5
17
102
{ACAD_REACTORS
330
12
102
}
330
12
100
AcDbXrecord
280
     1
270
     1
271
     1
  0
XRECORD
  5
16
102
{ACAD_REACTORS
330
12
102
}
330
12
100
AcDbXrecord
280
     1
270
     1
271
     1
  0
XRECORD
  5
18
102
{ACAD_REACTORS
330
12
102
}
330
12
100
AcDbXrecord
280
     1
270
     1
271
     1
  0
XRECORD
  5
15
102
{ACAD_REACTORS
330
12
102
}
330
12
100
AcDbXrecord
280
     1
270
     1
271
     1
  0
XRECORD
  5
24
102
{ACAD_REACTORS
330
22
102
}
330
22
100
AcDbXrecord
280
     1
270
     1
271
     1
  0
XRECORD
  5
23
102
{ACAD_REACTORS
330
22
102
}
330
22
100
AcDbXrecord
280
     1
270
     1
271
     1
  0
XRECORD
  5
27
102
{ACAD_REACTORS
330
22
102
}
330
22
100
AcDbXrecord
280
     1
270
     1
271
     1
  0
XRECORD
  5
26
102
{ACAD_REACTORS
330
22
102
}
330
22
100
AcDbXrecord
280
     1
270
     1
271
     1
  0
XRECORD
  5
28
102
{ACAD_REACTORS
330
22
102
}
330
22
100
AcDbXrecord
280
     1
270
     1
271
     1
  0
XRECORD
  5
25
102
{ACAD_REACTORS
330
22
102
}
330
22
100
AcDbXrecord
280
     1
270
     1
271
     1
  0
XRECORD
  5
13D
102
{ACAD_REACTORS
330
13C
102
}
330
13C
100
AcDbXrecord
280
     1
102
ACAD_ROUNDTRIP_2012_MLEADER_STYLE
298
     1
  0
XRECORD
  5
13F
102
{ACAD_REACTORS
330
13E
102
}
330
13E
100
AcDbXrecord
280
     1
102
DISPLAYNAME
  1
Imperial24
102
FLAGS
 90
        0
  0
CELLSTYLEMAP
  5
107
102
{ACAD_REACTORS
330
106
102
}
330
106
100
AcDbCellStyleMap
 90
        3
300
CELLSTYLE
  1
TABLEFORMAT_BEGIN
 90
        5
170
     1
 91
        0
 92
    32768
 62
   257
 93
        1
300
CONTENTFORMAT
  1
CONTENTFORMAT_BEGIN
 90
        0
 91
        0
 92
      512
 93
        0
300

 40
0.0
140
1.0
 94
        5
 62
     0
340
55
144
0.25
309
CONTENTFORMAT_END
171
     0
 94
        0
309
TABLEFORMAT_END
  1
CELLSTYLE_BEGIN
 90
        1
 91
        1
300
_TITLE
309
CELLSTYLE_END
300
CELLSTYLE
  1
TABLEFORMAT_BEGIN
 90
        5
170
     1
 91
        0
 92
        0
 62
   257
 93
        1
300
CONTENTFORMAT
  1
CONTENTFORMAT_BEGIN
 90
        0
 91
        0
 92
      512
 93
        0
300

 40
0.0
140
1.0
 94
        5
 62
     0
340
55
144
0.18
309
CONTENTFORMAT_END
171
     0
 94
        0
309
TABLEFORMAT_END
  1
CELLSTYLE_BEGIN
 90
        2
 91
        1
300
_HEADER
309
CELLSTYLE_END
300
CELLSTYLE
  1
TABLEFORMAT_BEGIN
 90
        5
170
     1
 91
        0
 92
        0
 62
   257
 93
        1
300
CONTENTFORMAT
  1
CONTENTFORMAT_BEGIN
 90
        0
 91
        0
 92
      512
 93
        0
300

 40
0.0
140
1.0
 94
        2
 62
     0
340
55
144
0.18
309
CONTENTFORMAT_END
171
     0
 94
        0
309
TABLEFORMAT_END
  1
CELLSTYLE_BEGIN
 90
        3
 91
        2
300
_DATA
309
CELLSTYLE_END
  0
XRECORD
  5
117
102
{ACAD_REACTORS
330
116
102
}
330
116
100
AcDbXrecord
280
     1
102
RTVSPost2010Prop28
280
     1
102
RTVSPost2010PropOp28
 70
     1
102
RTVSPost2010Prop29
280
     1
102
RTVSPost2010PropOp29
 70
     1
102
RTVSPost2010Prop30
280
     0
102
RTVSPost2010PropOp30
 70
     1
102
RTVSPost2010Prop31
280
     0
102
RTVSPost2010PropOp31
 70
     1
102
RTVSPost2010Prop32
280
     0
102
RTVSPost2010PropOp32
 70
     1
102
RTVSPost2010Prop33
280
     0
102
RTVSPost2010PropOp33
 70
     1
102
RTVSPost2010Prop34
280
     0
102
RTVSPost2010PropOp34
 70
     1
102
RTVSPost2010Prop35
280
     0
102
RTVSPost2010PropOp35
 70
     1
102
RTVSPost2010Prop36
280
     0
102
RTVSPost2010PropOp36
 70
     1
102
RTVSPost2010Prop37
 90
       50
102
RTVSPost2010PropOp37
 70
     1
102
RTVSPost2010Prop38
140
0.0
102
RTVSPost2010PropOp38
 70
     1
102
RTVSPost2010Prop39
140
1.0
102
RTVSPost2010PropOp39
 70
     1
102
RTVSPost2010Prop40
 90
        0
102
RTVSPost2010PropOp40
 70
     1
102
RTVSPost2010Prop41ColorIndex
 90
       18
102
RTVSPost2010Prop41ColorRGB
 90
        0
102
RTVSPost2010PropOp41
 70
     1
102
RTVSPost2010Prop42
 90
       50
102
RTVSPost2010PropOp42
 70
     1
102
RTVSPost2010Prop43
 90
        3
102
RTVSPost2010PropOp43
 70
     1
102
RTVSPost2010Prop44ColorIndex
 90
        5
102
RTVSPost2010Prop44ColorRGB
 90
      255
102
RTVSPost2010PropOp44
 70
     1
102
RTVSPost2010Prop45
280
     0
102
RTVSPost2010PropOp45
 70
     1
102
RTVSPost2010Prop46
 90
       50
102
RTVSPost2010PropOp46
 70
     1
102
RTVSPost2010Prop47
 90
       50
102
RTVSPost2010PropOp47
 70
     1
102
RTVSPost2010Prop48
 90
       50
102
RTVSPost2010PropOp48
 70
     1
102
RTVSPost2010Prop49
280
     0
102
RTVSPost2010PropOp49
 70
     1
102
RTVSPost2010Prop50
 90
       50
102
RTVSPost2010PropOp50
 70
     1
102
RTVSPost2010Prop51ColorIndex
 90
      256
102
RTVSPost2010Prop51ColorRGB
 90
-16777216
102
RTVSPost2010PropOp51
 70
     0
102
RTVSPost2010Prop52
140
1.0
102
RTVSPost2010PropOp52
 70
     0
102
RTVSPost2010Prop53
 90
        2
102
RTVSPost2010PropOp53
 70
     1
102
RTVSPost2010Prop54
  1
strokes_ogs.tif
102
RTVSPost2010PropOp54
 70
     1
102
RTVSPost2010Prop55
280
     0
102
RTVSPost2010PropOp55
 70
     1
102
RTVSPost2010Prop56
140
1.0
102
RTVSPost2010PropOp56
 70
     1
102
RTVSPost2010Prop57
140
1.0
102
RTVSPost2010PropOp57
 70
     1
  0
XRECORD
  5
115
102
{ACAD_REACTORS
330
114
102
}
330
114
100
AcDbXrecord
280
     1
102
RTVSPost2010Prop28
280
     0
102
RTVSPost2010PropOp28
 70
     1
102
RTVSPost2010Prop29
280
     1
102
RTVSPost2010PropOp29
 70
     1
102
RTVSPost2010Prop30
280
     1
102
RTVSPost2010PropOp30
 70
     1
102
RTVSPost2010Prop31
280
     0
102
RTVSPost2010PropOp31
 70
     1
102
RTVSPost2010Prop32
280
     0
102
RTVSPost2010PropOp32
 70
     1
102
RTVSPost2010Prop33
280
     0
102
RTVSPost2010PropOp33
 70
     1
102
RTVSPost2010Prop34
280
     0
102
RTVSPost2010PropOp34
 70
     1
102
RTVSPost2010Prop35
280
     0
102
RTVSPost2010PropOp35
 70
     1
102
RTVSPost2010Prop36
280
     0
102
RTVSPost2010PropOp36
 70
     1
102
RTVSPost2010Prop37
 90
       50
102
RTVSPost2010PropOp37
 70
     1
102
RTVSPost2010Prop38
140
0.0
102
RTVSPost2010PropOp38
 70
     1
102
RTVSPost2010Prop39
140
1.0
102
RTVSPost2010PropOp39
 70
     1
102
RTVSPost2010Prop40
 90
        0
102
RTVSPost2010PropOp40
 70
     1
102
RTVSPost2010Prop41ColorIndex
 90
       18
102
RTVSPost2010Prop41ColorRGB
 90
        0
102
RTVSPost2010PropOp41
 70
     1
102
RTVSPost2010Prop42
 90
       50
102
RTVSPost2010PropOp42
 70
     1
102
RTVSPost2010Prop43
 90
        3
102
RTVSPost2010PropOp43
 70
     1
102
RTVSPost2010Prop44ColorIndex
 90
        5
102
RTVSPost2010Prop44ColorRGB
 90
      255
102
RTVSPost2010PropOp44
 70
     1
102
RTVSPost2010Prop45
280
     0
102
RTVSPost2010PropOp45
 70
     1
102
RTVSPost2010Prop46
 90
       50
102
RTVSPost2010PropOp46
 70
     1
102
RTVSPost2010Prop47
 90
       50
102
RTVSPost2010PropOp47
 70
     1
102
RTVSPost2010Prop48
 90
       50
102
RTVSPost2010PropOp48
 70
     1
102
RTVSPost2010Prop49
280
     0
102
RTVSPost2010PropOp49
 70
     1
102
RTVSPost2010Prop50
 90
       50
102
RTVSPost2010PropOp50
 70
     1
102
RTVSPost2010Prop51ColorIndex
 90
      256
102
RTVSPost2010Prop51ColorRGB
 90
-16777216
102
RTVSPost2010PropOp51
 70
     0
102
RTVSPost2010Prop52
140
1.0
102
RTVSPost2010PropOp52
 70
     0
102
RTVSPost2010Prop53
 90
        2
102
RTVSPost2010PropOp53
 70
     1
102
RTVSPost2010Prop54
  1
strokes_ogs.tif
102
RTVSPost2010PropOp54
 70
     1
102
RTVSPost2010Prop55
280
     0
102
RTVSPost2010PropOp55
 70
     1
102
RTVSPost2010Prop56
140
1.0
102
RTVSPost2010PropOp56
 70
     1
102
RTVSPost2010Prop57
140
1.0
102
RTVSPost2010PropOp57
 70
     1
  0
XRECORD
  5
123
102
{ACAD_REACTORS
330
122
102
}
330
122
100
AcDbXrecord
280
     1
102
RTVSPost2010Prop28
280
     0
102
RTVSPost2010PropOp28
 70
     1
102
RTVSPost2010Prop29
280
     1
102
RTVSPost2010PropOp29
 70
     1
102
RTVSPost2010Prop30
280
     1
102
RTVSPost2010PropOp30
 70
     1
102
RTVSPost2010Prop31
280
     0
102
RTVSPost2010PropOp31
 70
     1
102
RTVSPost2010Prop32
280
     0
102
RTVSPost2010PropOp32
 70
     1
102
RTVSPost2010Prop33
280
     0
102
RTVSPost2010PropOp33
 70
     1
102
RTVSPost2010Prop34
280
     0
102
RTVSPost2010PropOp34
 70
     1
102
RTVSPost2010Prop35
280
     0
102
RTVSPost2010PropOp35
 70
     1
102
RTVSPost2010Prop36
280
     0
102
RTVSPost2010PropOp36
 70
     1
102
RTVSPost2010Prop37
 90
       50
102
RTVSPost2010PropOp37
 70
     1
102
RTVSPost2010Prop38
140
0.0
102
RTVSPost2010PropOp38
 70
     1
102
RTVSPost2010Prop39
140
1.0
102
RTVSPost2010PropOp39
 70
     1
102
RTVSPost2010Prop40
 90
        0
102
RTVSPost2010PropOp40
 70
     1
102
RTVSPost2010Prop41ColorIndex
 90
       18
102
RTVSPost2010Prop41ColorRGB
 90
        0
102
RTVSPost2010PropOp41
 70
     1
102
RTVSPost2010Prop42
 90
       50
102
RTVSPost2010PropOp42
 70
     1
102
RTVSPost2010Prop43
 90
        3
102
RTVSPost2010PropOp43
 70
     1
102
RTVSPost2010Prop44ColorIndex
 90
        5
102
RTVSPost2010Prop44ColorRGB
 90
      255
102
RTVSPost2010PropOp44
 70
     1
102
RTVSPost2010Prop45
280
     0
102
RTVSPost2010PropOp45
 70
     1
102
RTVSPost2010Prop46
 90
       50
102
RTVSPost2010PropOp46
 70
     1
102
RTVSPost2010Prop47
 90
       50
102
RTVSPost2010PropOp47
 70
     1
102
RTVSPost2010Prop48
 90
       50
102
RTVSPost2010PropOp48
 70
     1
102
RTVSPost2010Prop49
280
     0
102
RTVSPost2010PropOp49
 70
     1
102
RTVSPost2010Prop50
 90
       50
102
RTVSPost2010PropOp50
 70
     1
102
RTVSPost2010Prop51ColorIndex
 90
      256
102
RTVSPost2010Prop51ColorRGB
 90
-16777216
102
RTVSPost2010PropOp51
 70
     0
102
RTVSPost2010Prop52
140
1.0
102
RTVSPost2010PropOp52
 70
     0
102
RTVSPost2010Prop53
 90
        2
102
RTVSPost2010PropOp53
 70
     1
102
RTVSPost2010Prop54
  1
strokes_ogs.tif
102
RTVSPost2010PropOp54
 70
     1
102
RTVSPost2010Prop55
280
     0
102
RTVSPost2010PropOp55
 70
     1
102
RTVSPost2010Prop56
140
1.0
102
RTVSPost2010PropOp56
 70
     1
102
RTVSPost2010Prop57
140
1.0
102
RTVSPost2010PropOp57
 70
     1
  0
XRECORD
  5
12B
102
{ACAD_REACTORS
330
12A
102
}
330
12A
100
AcDbXrecord
280
     1
102
RTVSPost2010Prop28
280
     0
102
RTVSPost2010PropOp28
 70
     1
102
RTVSPost2010Prop29
280
     1
102
RTVSPost2010PropOp29
 70
     1
102
RTVSPost2010Prop30
280
     1
102
RTVSPost2010PropOp30
 70
     1
102
RTVSPost2010Prop31
280
     0
102
RTVSPost2010PropOp31
 70
     1
102
RTVSPost2010Prop32
280
     0
102
RTVSPost2010PropOp32
 70
     1
102
RTVSPost2010Prop33
280
     0
102
RTVSPost2010PropOp33
 70
     1
102
RTVSPost2010Prop34
280
     0
102
RTVSPost2010PropOp34
 70
     1
102
RTVSPost2010Prop35
280
     0
102
RTVSPost2010PropOp35
 70
     1
102
RTVSPost2010Prop36
280
     0
102
RTVSPost2010PropOp36
 70
     1
102
RTVSPost2010Prop37
 90
       50
102
RTVSPost2010PropOp37
 70
     1
102
RTVSPost2010Prop38
140
0.0
102
RTVSPost2010PropOp38
 70
     1
102
RTVSPost2010Prop39
140
1.0
102
RTVSPost2010PropOp39
 70
     1
102
RTVSPost2010Prop40
 90
        0
102
RTVSPost2010PropOp40
 70
     1
102
RTVSPost2010Prop41ColorIndex
 90
       18
102
RTVSPost2010Prop41ColorRGB
 90
        0
102
RTVSPost2010PropOp41
 70
     1
102
RTVSPost2010Prop42
 90
       50
102
RTVSPost2010PropOp42
 70
     1
102
RTVSPost2010Prop43
 90
        3
102
RTVSPost2010PropOp43
 70
     1
102
RTVSPost2010Prop44ColorIndex
 90
        5
102
RTVSPost2010Prop44ColorRGB
 90
      255
102
RTVSPost2010PropOp44
 70
     1
102
RTVSPost2010Prop45
280
     0
102
RTVSPost2010PropOp45
 70
     1
102
RTVSPost2010Prop46
 90
       50
102
RTVSPost2010PropOp46
 70
     1
102
RTVSPost2010Prop47
 90
       50
102
RTVSPost2010PropOp47
 70
     1
102
RTVSPost2010Prop48
 90
       50
102
RTVSPost2010PropOp48
 70
     1
102
RTVSPost2010Prop49
280
     0
102
RTVSPost2010PropOp49
 70
     1
102
RTVSPost2010Prop50
 90
       50
102
RTVSPost2010PropOp50
 70
     1
102
RTVSPost2010Prop51ColorIndex
 90
      256
102
RTVSPost2010Prop51ColorRGB
 90
-16777216
102
RTVSPost2010PropOp51
 70
     0
102
RTVSPost2010Prop52
140
1.0
102
RTVSPost2010PropOp52
 70
     0
102
RTVSPost2010Prop53
 90
        2
102
RTVSPost2010PropOp53
 70
     1
102
RTVSPost2010Prop54
  1
strokes_ogs.tif
102
RTVSPost2010PropOp54
 70
     1
102
RTVSPost2010Prop55
280
     0
102
RTVSPost2010PropOp55
 70
     1
102
RTVSPost2010Prop56
140
1.0
102
RTVSPost2010PropOp56
 70
     1
102
RTVSPost2010Prop57
140
1.0
102
RTVSPost2010PropOp57
 70
     1
  0
XRECORD
  5
11D
102
{ACAD_REACTORS
330
11C
102
}
330
11C
100
AcDbXrecord
280
     1
102
RTVSPost2010Prop28
280
     0
102
RTVSPost2010PropOp28
 70
     1
102
RTVSPost2010Prop29
280
     1
102
RTVSPost2010PropOp29
 70
     1
102
RTVSPost2010Prop30
280
     1
102
RTVSPost2010PropOp30
 70
     1
102
RTVSPost2010Prop31
280
     0
102
RTVSPost2010PropOp31
 70
     1
102
RTVSPost2010Prop32
280
     0
102
RTVSPost2010PropOp32
 70
     1
102
RTVSPost2010Prop33
280
     0
102
RTVSPost2010PropOp33
 70
     1
102
RTVSPost2010Prop34
280
     0
102
RTVSPost2010PropOp34
 70
     1
102
RTVSPost2010Prop35
280
     0
102
RTVSPost2010PropOp35
 70
     1
102
RTVSPost2010Prop36
280
     0
102
RTVSPost2010PropOp36
 70
     1
102
RTVSPost2010Prop37
 90
       50
102
RTVSPost2010PropOp37
 70
     1
102
RTVSPost2010Prop38
140
0.0
102
RTVSPost2010PropOp38
 70
     1
102
RTVSPost2010Prop39
140
1.0
102
RTVSPost2010PropOp39
 70
     1
102
RTVSPost2010Prop40
 90
        0
102
RTVSPost2010PropOp40
 70
     1
102
RTVSPost2010Prop41ColorIndex
 90
       18
102
RTVSPost2010Prop41ColorRGB
 90
        0
102
RTVSPost2010PropOp41
 70
     1
102
RTVSPost2010Prop42
 90
       50
102
RTVSPost2010PropOp42
 70
     1
102
RTVSPost2010Prop43
 90
        3
102
RTVSPost2010PropOp43
 70
     1
102
RTVSPost2010Prop44ColorIndex
 90
        5
102
RTVSPost2010Prop44ColorRGB
 90
      255
102
RTVSPost2010PropOp44
 70
     1
102
RTVSPost2010Prop45
280
     0
102
RTVSPost2010PropOp45
 70
     1
102
RTVSPost2010Prop46
 90
       50
102
RTVSPost2010PropOp46
 70
     1
102
RTVSPost2010Prop47
 90
       50
102
RTVSPost2010PropOp47
 70
     1
102
RTVSPost2010Prop48
 90
       50
102
RTVSPost2010PropOp48
 70
     1
102
RTVSPost2010Prop49
280
     0
102
RTVSPost2010PropOp49
 70
     1
102
RTVSPost2010Prop50
 90
       50
102
RTVSPost2010PropOp50
 70
     1
102
RTVSPost2010Prop51ColorIndex
 90
      256
102
RTVSPost2010Prop51ColorRGB
 90
-16777216
102
RTVSPost2010PropOp51
 70
     0
102
RTVSPost2010Prop52
140
1.0
102
RTVSPost2010PropOp52
 70
     0
102
RTVSPost2010Prop53
 90
        2
102
RTVSPost2010PropOp53
 70
     1
102
RTVSPost2010Prop54
  1
strokes_ogs.tif
102
RTVSPost2010PropOp54
 70
     1
102
RTVSPost2010Prop55
280
     0
102
RTVSPost2010PropOp55
 70
     1
102
RTVSPost2010Prop56
140
1.0
102
RTVSPost2010PropOp56
 70
     1
102
RTVSPost2010Prop57
140
1.0
102
RTVSPost2010PropOp57
 70
     1
  0
XRECORD
  5
121
102
{ACAD_REACTORS
330
120
102
}
330
120
100
AcDbXrecord
280
     1
102
RTVSPost2010Prop28
280
     0
102
RTVSPost2010PropOp28
 70
     1
102
RTVSPost2010Prop29
280
     1
102
RTVSPost2010PropOp29
 70
     1
102
RTVSPost2010Prop30
280
     1
102
RTVSPost2010PropOp30
 70
     1
102
RTVSPost2010Prop31
280
     0
102
RTVSPost2010PropOp31
 70
     1
102
RTVSPost2010Prop32
280
     0
102
RTVSPost2010PropOp32
 70
     1
102
RTVSPost2010Prop33
280
     0
102
RTVSPost2010PropOp33
 70
     1
102
RTVSPost2010Prop34
280
     0
102
RTVSPost2010PropOp34
 70
     1
102
RTVSPost2010Prop35
280
     0
102
RTVSPost2010PropOp35
 70
     1
102
RTVSPost2010Prop36
280
     0
102
RTVSPost2010PropOp36
 70
     1
102
RTVSPost2010Prop37
 90
       50
102
RTVSPost2010PropOp37
 70
     1
102
RTVSPost2010Prop38
140
0.0
102
RTVSPost2010PropOp38
 70
     1
102
RTVSPost2010Prop39
140
1.0
102
RTVSPost2010PropOp39
 70
     1
102
RTVSPost2010Prop40
 90
        0
102
RTVSPost2010PropOp40
 70
     1
102
RTVSPost2010Prop41ColorIndex
 90
       18
102
RTVSPost2010Prop41ColorRGB
 90
        0
102
RTVSPost2010PropOp41
 70
     1
102
RTVSPost2010Prop42
 90
       50
102
RTVSPost2010PropOp42
 70
     1
102
RTVSPost2010Prop43
 90
        3
102
RTVSPost2010PropOp43
 70
     1
102
RTVSPost2010Prop44ColorIndex
 90
        5
102
RTVSPost2010Prop44ColorRGB
 90
      255
102
RTVSPost2010PropOp44
 70
     1
102
RTVSPost2010Prop45
280
     0
102
RTVSPost2010PropOp45
 70
     1
102
RTVSPost2010Prop46
 90
       50
102
RTVSPost2010PropOp46
 70
     1
102
RTVSPost2010Prop47
 90
       50
102
RTVSPost2010PropOp47
 70
     1
102
RTVSPost2010Prop48
 90
       50
102
RTVSPost2010PropOp48
 70
     1
102
RTVSPost2010Prop49
280
     0
102
RTVSPost2010PropOp49
 70
     1
102
RTVSPost2010Prop50
 90
       50
102
RTVSPost2010PropOp50
 70
     1
102
RTVSPost2010Prop51ColorIndex
 90
      256
102
RTVSPost2010Prop51ColorRGB
 90
-16777216
102
RTVSPost2010PropOp51
 70
     0
102
RTVSPost2010Prop52
140
1.0
102
RTVSPost2010PropOp52
 70
     0
102
RTVSPost2010Prop53
 90
        2
102
RTVSPost2010PropOp53
 70
     1
102
RTVSPost2010Prop54
  1
strokes_ogs.tif
102
RTVSPost2010PropOp54
 70
     1
102
RTVSPost2010Prop55
280
     0
102
RTVSPost2010PropOp55
 70
     1
102
RTVSPost2010Prop56
140
1.0
102
RTVSPost2010PropOp56
 70
     1
102
RTVSPost2010Prop57
140
1.0
102
RTVSPost2010PropOp57
 70
     1
  0
XRECORD
  5
13B
102
{ACAD_REACTORS
330
13A
102
}
330
13A
100
AcDbXrecord
280
     1
102
RTVSPost2010Prop28
280
     0
102
RTVSPost2010PropOp28
 70
     0
102
RTVSPost2010Prop29
280
     1
102
RTVSPost2010PropOp29
 70
     0
102
RTVSPost2010Prop30
280
     1
102
RTVSPost2010PropOp30
 70
     0
102
RTVSPost2010Prop31
280
     0
102
RTVSPost2010PropOp31
 70
     0
102
RTVSPost2010Prop32
280
     0
102
RTVSPost2010PropOp32
 70
     0
102
RTVSPost2010Prop33
280
     0
102
RTVSPost2010PropOp33
 70
     0
102
RTVSPost2010Prop34
280
     0
102
RTVSPost2010PropOp34
 70
     0
102
RTVSPost2010Prop35
280
     0
102
RTVSPost2010PropOp35
 70
     0
102
RTVSPost2010Prop36
280
     0
102
RTVSPost2010PropOp36
 70
     0
102
RTVSPost2010Prop37
 90
       50
102
RTVSPost2010PropOp37
 70
     0
102
RTVSPost2010Prop38
140
0.0
102
RTVSPost2010PropOp38
 70
     0
102
RTVSPost2010Prop39
140
1.0
102
RTVSPost2010PropOp39
 70
     0
102
RTVSPost2010Prop40
 90
        0
102
RTVSPost2010PropOp40
 70
     0
102
RTVSPost2010Prop41ColorIndex
 90
       18
102
RTVSPost2010Prop41ColorRGB
 90
        0
102
RTVSPost2010PropOp41
 70
     0
102
RTVSPost2010Prop42
 90
       50
102
RTVSPost2010PropOp42
 70
     0
102
RTVSPost2010Prop43
 90
        3
102
RTVSPost2010PropOp43
 70
     0
102
RTVSPost2010Prop44ColorIndex
 90
        5
102
RTVSPost2010Prop44ColorRGB
 90
      255
102
RTVSPost2010PropOp44
 70
     0
102
RTVSPost2010Prop45
280
     0
102
RTVSPost2010PropOp45
 70
     0
102
RTVSPost2010Prop46
 90
       50
102
RTVSPost2010PropOp46
 70
     0
102
RTVSPost2010Prop47
 90
       50
102
RTVSPost2010PropOp47
 70
     0
102
RTVSPost2010Prop48
 90
       50
102
RTVSPost2010PropOp48
 70
     0
102
RTVSPost2010Prop49
280
     0
102
RTVSPost2010PropOp49
 70
     0
102
RTVSPost2010Prop50
 90
       50
102
RTVSPost2010PropOp50
 70
     0
102
RTVSPost2010Prop51ColorIndex
 90
      256
102
RTVSPost2010Prop51ColorRGB
 90
-16777216
102
RTVSPost2010PropOp51
 70
     0
102
RTVSPost2010Prop52
140
1.0
102
RTVSPost2010PropOp52
 70
     0
102
RTVSPost2010Prop53
 90
        2
102
RTVSPost2010PropOp53
 70
     0
102
RTVSPost2010Prop54
  1
strokes_ogs.tif
102
RTVSPost2010PropOp54
 70
     0
102
RTVSPost2010Prop55
280
     0
102
RTVSPost2010PropOp55
 70
     0
102
RTVSPost2010Prop56
140
1.0
102
RTVSPost2010PropOp56
 70
     0
102
RTVSPost2010Prop57
140
1.0
102
RTVSPost2010PropOp57
 70
     0
  0
XRECORD
  5
129
102
{ACAD_REACTORS
330
128
102
}
330
128
100
AcDbXrecord
280
     1
102
RTVSPost2010Prop28
280
     0
102
RTVSPost2010PropOp28
 70
     1
102
RTVSPost2010Prop29
280
     1
102
RTVSPost2010PropOp29
 70
     1
102
RTVSPost2010Prop30
280
     1
102
RTVSPost2010PropOp30
 70
     1
102
RTVSPost2010Prop31
280
     0
102
RTVSPost2010PropOp31
 70
     1
102
RTVSPost2010Prop32
280
     0
102
RTVSPost2010PropOp32
 70
     1
102
RTVSPost2010Prop33
280
     0
102
RTVSPost2010PropOp33
 70
     1
102
RTVSPost2010Prop34
280
     0
102
RTVSPost2010PropOp34
 70
     1
102
RTVSPost2010Prop35
280
     0
102
RTVSPost2010PropOp35
 70
     1
102
RTVSPost2010Prop36
280
     0
102
RTVSPost2010PropOp36
 70
     1
102
RTVSPost2010Prop37
 90
       50
102
RTVSPost2010PropOp37
 70
     1
102
RTVSPost2010Prop38
140
0.0
102
RTVSPost2010PropOp38
 70
     1
102
RTVSPost2010Prop39
140
1.0
102
RTVSPost2010PropOp39
 70
     1
102
RTVSPost2010Prop40
 90
        0
102
RTVSPost2010PropOp40
 70
     1
102
RTVSPost2010Prop41ColorIndex
 90
       18
102
RTVSPost2010Prop41ColorRGB
 90
        0
102
RTVSPost2010PropOp41
 70
     1
102
RTVSPost2010Prop42
 90
       50
102
RTVSPost2010PropOp42
 70
     1
102
RTVSPost2010Prop43
 90
        3
102
RTVSPost2010PropOp43
 70
     1
102
RTVSPost2010Prop44ColorIndex
 90
        5
102
RTVSPost2010Prop44ColorRGB
 90
      255
102
RTVSPost2010PropOp44
 70
     1
102
RTVSPost2010Prop45
280
     0
102
RTVSPost2010PropOp45
 70
     1
102
RTVSPost2010Prop46
 90
       50
102
RTVSPost2010PropOp46
 70
     1
102
RTVSPost2010Prop47
 90
       50
102
RTVSPost2010PropOp47
 70
     1
102
RTVSPost2010Prop48
 90
       50
102
RTVSPost2010PropOp48
 70
     1
102
RTVSPost2010Prop49
280
     0
102
RTVSPost2010PropOp49
 70
     1
102
RTVSPost2010Prop50
 90
       50
102
RTVSPost2010PropOp50
 70
     1
102
RTVSPost2010Prop51ColorIndex
 90
      256
102
RTVSPost2010Prop51ColorRGB
 90
-16777216
102
RTVSPost2010PropOp51
 70
     0
102
RTVSPost2010Prop52
140
1.0
102
RTVSPost2010PropOp52
 70
     0
102
RTVSPost2010Prop53
 90
        2
102
RTVSPost2010PropOp53
 70
     1
102
RTVSPost2010Prop54
  1
strokes_ogs.tif
102
RTVSPost2010PropOp54
 70
     1
102
RTVSPost2010Prop55
280
     0
102
RTVSPost2010PropOp55
 70
     1
102
RTVSPost2010Prop56
140
1.0
102
RTVSPost2010PropOp56
 70
     1
102
RTVSPost2010Prop57
140
1.0
102
RTVSPost2010PropOp57
 70
     1
  0
XRECORD
  5
10D
102
{ACAD_REACTORS
330
10C
102
}
330
10C
100
AcDbXrecord
280
     1
102
RTVSPost2010Prop28
280
     0
102
RTVSPost2010PropOp28
 70
     1
102
RTVSPost2010Prop29
280
     1
102
RTVSPost2010PropOp29
 70
     1
102
RTVSPost2010Prop30
280
     1
102
RTVSPost2010PropOp30
 70
     1
102
RTVSPost2010Prop31
280
     0
102
RTVSPost2010PropOp31
 70
     1
102
RTVSPost2010Prop32
280
     0
102
RTVSPost2010PropOp32
 70
     1
102
RTVSPost2010Prop33
280
     0
102
RTVSPost2010PropOp33
 70
     1
102
RTVSPost2010Prop34
280
     0
102
RTVSPost2010PropOp34
 70
     1
102
RTVSPost2010Prop35
280
     0
102
RTVSPost2010PropOp35
 70
     1
102
RTVSPost2010Prop36
280
     0
102
RTVSPost2010PropOp36
 70
     1
102
RTVSPost2010Prop37
 90
       50
102
RTVSPost2010PropOp37
 70
     1
102
RTVSPost2010Prop38
140
0.0
102
RTVSPost2010PropOp38
 70
     1
102
RTVSPost2010Prop39
140
1.0
102
RTVSPost2010PropOp39
 70
     1
102
RTVSPost2010Prop40
 90
        0
102
RTVSPost2010PropOp40
 70
     1
102
RTVSPost2010Prop41ColorIndex
 90
       18
102
RTVSPost2010Prop41ColorRGB
 90
        0
102
RTVSPost2010PropOp41
 70
     1
102
RTVSPost2010Prop42
 90
       50
102
RTVSPost2010PropOp42
 70
     1
102
RTVSPost2010Prop43
 90
        3
102
RTVSPost2010PropOp43
 70
     1
102
RTVSPost2010Prop44ColorIndex
 90
        5
102
RTVSPost2010Prop44ColorRGB
 90
      255
102
RTVSPost2010PropOp44
 70
     1
102
RTVSPost2010Prop45
280
     0
102
RTVSPost2010PropOp45
 70
     1
102
RTVSPost2010Prop46
 90
       50
102
RTVSPost2010PropOp46
 70
     1
102
RTVSPost2010Prop47
 90
       50
102
RTVSPost2010PropOp47
 70
     1
102
RTVSPost2010Prop48
 90
       50
102
RTVSPost2010PropOp48
 70
     1
102
RTVSPost2010Prop49
280
     0
102
RTVSPost2010PropOp49
 70
     1
102
RTVSPost2010Prop50
 90
       50
102
RTVSPost2010PropOp50
 70
     1
102
RTVSPost2010Prop51ColorIndex
 90
      256
102
RTVSPost2010Prop51ColorRGB
 90
-16777216
102
RTVSPost2010PropOp51
 70
     0
102
RTVSPost2010Prop52
140
1.0
102
RTVSPost2010PropOp52
 70
     0
102
RTVSPost2010Prop53
 90
        2
102
RTVSPost2010PropOp53
 70
     1
102
RTVSPost2010Prop54
  1
strokes_ogs.tif
102
RTVSPost2010PropOp54
 70
     1
102
RTVSPost2010Prop55
280
     0
102
RTVSPost2010PropOp55
 70
     1
102
RTVSPost2010Prop56
140
1.0
102
RTVSPost2010PropOp56
 70
     1
102
RTVSPost2010Prop57
140
1.0
102
RTVSPost2010PropOp57
 70
     1
  0
XRECORD
  5
10F
102
{ACAD_REACTORS
330
10E
102
}
330
10E
100
AcDbXrecord
280
     1
102
RTVSPost2010Prop28
280
     0
102
RTVSPost2010PropOp28
 70
     1
102
RTVSPost2010Prop29
280
     1
102
RTVSPost2010PropOp29
 70
     1
102
RTVSPost2010Prop30
280
     1
102
RTVSPost2010PropOp30
 70
     1
102
RTVSPost2010Prop31
280
     0
102
RTVSPost2010PropOp31
 70
     1
102
RTVSPost2010Prop32
280
     0
102
RTVSPost2010PropOp32
 70
     1
102
RTVSPost2010Prop33
280
     0
102
RTVSPost2010PropOp33
 70
     1
102
RTVSPost2010Prop34
280
     0
102
RTVSPost2010PropOp34
 70
     1
102
RTVSPost2010Prop35
280
     0
102
RTVSPost2010PropOp35
 70
     1
102
RTVSPost2010Prop36
280
     0
102
RTVSPost2010PropOp36
 70
     1
102
RTVSPost2010Prop37
 90
       50
102
RTVSPost2010PropOp37
 70
     1
102
RTVSPost2010Prop38
140
0.0
102
RTVSPost2010PropOp38
 70
     1
102
RTVSPost2010Prop39
140
1.0
102
RTVSPost2010PropOp39
 70
     1
102
RTVSPost2010Prop40
 90
        0
102
RTVSPost2010PropOp40
 70
     1
102
RTVSPost2010Prop41ColorIndex
 90
       18
102
RTVSPost2010Prop41ColorRGB
 90
        0
102
RTVSPost2010PropOp41
 70
     1
102
RTVSPost2010Prop42
 90
       50
102
RTVSPost2010PropOp42
 70
     1
102
RTVSPost2010Prop43
 90
        3
102
RTVSPost2010PropOp43
 70
     1
102
RTVSPost2010Prop44ColorIndex
 90
        5
102
RTVSPost2010Prop44ColorRGB
 90
      255
102
RTVSPost2010PropOp44
 70
     1
102
RTVSPost2010Prop45
280
     0
102
RTVSPost2010PropOp45
 70
     1
102
RTVSPost2010Prop46
 90
       50
102
RTVSPost2010PropOp46
 70
     1
102
RTVSPost2010Prop47
 90
       50
102
RTVSPost2010PropOp47
 70
     1
102
RTVSPost2010Prop48
 90
       50
102
RTVSPost2010PropOp48
 70
     1
102
RTVSPost2010Prop49
280
     0
102
RTVSPost2010PropOp49
 70
     1
102
RTVSPost2010Prop50
 90
       50
102
RTVSPost2010PropOp50
 70
     1
102
RTVSPost2010Prop51ColorIndex
 90
      256
102
RTVSPost2010Prop51ColorRGB
 90
-16777216
102
RTVSPost2010PropOp51
 70
     0
102
RTVSPost2010Prop52
140
1.0
102
RTVSPost2010PropOp52
 70
     0
102
RTVSPost2010Prop53
 90
        2
102
RTVSPost2010PropOp53
 70
     1
102
RTVSPost2010Prop54
  1
strokes_ogs.tif
102
RTVSPost2010PropOp54
 70
     1
102
RTVSPost2010Prop55
280
     0
102
RTVSPost2010PropOp55
 70
     1
102
RTVSPost2010Prop56
140
1.0
102
RTVSPost2010PropOp56
 70
     1
102
RTVSPost2010Prop57
140
1.0
102
RTVSPost2010PropOp57
 70
     1
  0
XRECORD
  5
111
102
{ACAD_REACTORS
330
110
102
}
330
110
100
AcDbXrecord
280
     1
102
RTVSPost2010Prop28
280
     0
102
RTVSPost2010PropOp28
 70
     1
102
RTVSPost2010Prop29
280
     1
102
RTVSPost2010PropOp29
 70
     1
102
RTVSPost2010Prop30
280
     1
102
RTVSPost2010PropOp30
 70
     1
102
RTVSPost2010Prop31
280
     0
102
RTVSPost2010PropOp31
 70
     1
102
RTVSPost2010Prop32
280
     0
102
RTVSPost2010PropOp32
 70
     1
102
RTVSPost2010Prop33
280
     0
102
RTVSPost2010PropOp33
 70
     1
102
RTVSPost2010Prop34
280
     0
102
RTVSPost2010PropOp34
 70
     1
102
RTVSPost2010Prop35
280
     0
102
RTVSPost2010PropOp35
 70
     1
102
RTVSPost2010Prop36
280
     0
102
RTVSPost2010PropOp36
 70
     1
102
RTVSPost2010Prop37
 90
       50
102
RTVSPost2010PropOp37
 70
     1
102
RTVSPost2010Prop38
140
0.0
102
RTVSPost2010PropOp38
 70
     1
102
RTVSPost2010Prop39
140
1.0
102
RTVSPost2010PropOp39
 70
     1
102
RTVSPost2010Prop40
 90
        0
102
RTVSPost2010PropOp40
 70
     1
102
RTVSPost2010Prop41ColorIndex
 90
       18
102
RTVSPost2010Prop41ColorRGB
 90
        0
102
RTVSPost2010PropOp41
 70
     1
102
RTVSPost2010Prop42
 90
       50
102
RTVSPost2010PropOp42
 70
     1
102
RTVSPost2010Prop43
 90
        3
102
RTVSPost2010PropOp43
 70
     1
102
RTVSPost2010Prop44ColorIndex
 90
        5
102
RTVSPost2010Prop44ColorRGB
 90
      255
102
RTVSPost2010PropOp44
 70
     1
102
RTVSPost2010Prop45
280
     0
102
RTVSPost2010PropOp45
 70
     1
102
RTVSPost2010Prop46
 90
       50
102
RTVSPost2010PropOp46
 70
     1
102
RTVSPost2010Prop47
 90
       50
102
RTVSPost2010PropOp47
 70
     1
102
RTVSPost2010Prop48
 90
       50
102
RTVSPost2010PropOp48
 70
     1
102
RTVSPost2010Prop49
280
     0
102
RTVSPost2010PropOp49
 70
     1
102
RTVSPost2010Prop50
 90
       50
102
RTVSPost2010PropOp50
 70
     1
102
RTVSPost2010Prop51ColorIndex
 90
      256
102
RTVSPost2010Prop51ColorRGB
 90
-16777216
102
RTVSPost2010PropOp51
 70
     0
102
RTVSPost2010Prop52
140
1.0
102
RTVSPost2010PropOp52
 70
     0
102
RTVSPost2010Prop53
 90
        2
102
RTVSPost2010PropOp53
 70
     1
102
RTVSPost2010Prop54
  1
strokes_ogs.tif
102
RTVSPost2010PropOp54
 70
     1
102
RTVSPost2010Prop55
280
     0
102
RTVSPost2010PropOp55
 70
     1
102
RTVSPost2010Prop56
140
1.0
102
RTVSPost2010PropOp56
 70
     1
102
RTVSPost2010Prop57
140
1.0
102
RTVSPost2010PropOp57
 70
     1
  0
XRECORD
  5
113
102
{ACAD_REACTORS
330
112
102
}
330
112
100
AcDbXrecord
280
     1
102
RTVSPost2010Prop28
280
     0
102
RTVSPost2010PropOp28
 70
     1
102
RTVSPost2010Prop29
280
     1
102
RTVSPost2010PropOp29
 70
     1
102
RTVSPost2010Prop30
280
     1
102
RTVSPost2010PropOp30
 70
     1
102
RTVSPost2010Prop31
280
     0
102
RTVSPost2010PropOp31
 70
     1
102
RTVSPost2010Prop32
280
     0
102
RTVSPost2010PropOp32
 70
     1
102
RTVSPost2010Prop33
280
     0
102
RTVSPost2010PropOp33
 70
     1
102
RTVSPost2010Prop34
280
     0
102
RTVSPost2010PropOp34
 70
     1
102
RTVSPost2010Prop35
280
     0
102
RTVSPost2010PropOp35
 70
     1
102
RTVSPost2010Prop36
280
     0
102
RTVSPost2010PropOp36
 70
     1
102
RTVSPost2010Prop37
 90
       50
102
RTVSPost2010PropOp37
 70
     1
102
RTVSPost2010Prop38
140
0.0
102
RTVSPost2010PropOp38
 70
     1
102
RTVSPost2010Prop39
140
1.0
102
RTVSPost2010PropOp39
 70
     1
102
RTVSPost2010Prop40
 90
        0
102
RTVSPost2010PropOp40
 70
     1
102
RTVSPost2010Prop41ColorIndex
 90
       18
102
RTVSPost2010Prop41ColorRGB
 90
        0
102
RTVSPost2010PropOp41
 70
     1
102
RTVSPost2010Prop42
 90
       50
102
RTVSPost2010PropOp42
 70
     1
102
RTVSPost2010Prop43
 90
        3
102
RTVSPost2010PropOp43
 70
     1
102
RTVSPost2010Prop44ColorIndex
 90
        5
102
RTVSPost2010Prop44ColorRGB
 90
      255
102
RTVSPost2010PropOp44
 70
     1
102
RTVSPost2010Prop45
280
     0
102
RTVSPost2010PropOp45
 70
     1
102
RTVSPost2010Prop46
 90
       50
102
RTVSPost2010PropOp46
 70
     1
102
RTVSPost2010Prop47
 90
       50
102
RTVSPost2010PropOp47
 70
     1
102
RTVSPost2010Prop48
 90
       50
102
RTVSPost2010PropOp48
 70
     1
102
RTVSPost2010Prop49
280
     0
102
RTVSPost2010PropOp49
 70
     1
102
RTVSPost2010Prop50
 90
       50
102
RTVSPost2010PropOp50
 70
     1
102
RTVSPost2010Prop51ColorIndex
 90
      256
102
RTVSPost2010Prop51ColorRGB
 90
-16777216
102
RTVSPost2010PropOp51
 70
     0
102
RTVSPost2010Prop52
140
1.0
102
RTVSPost2010PropOp52
 70
     0
102
RTVSPost2010Prop53
 90
        2
102
RTVSPost2010PropOp53
 70
     1
102
RTVSPost2010Prop54
  1
strokes_ogs.tif
102
RTVSPost2010PropOp54
 70
     1
102
RTVSPost2010Prop55
280
     0
102
RTVSPost2010PropOp55
 70
     1
102
RTVSPost2010Prop56
140
1.0
102
RTVSPost2010PropOp56
 70
     1
102
RTVSPost2010Prop57
140
1.0
102
RTVSPost2010PropOp57
 70
     1
  0
XRECORD
  5
11B
102
{ACAD_REACTORS
330
11A
102
}
330
11A
100
AcDbXrecord
280
     1
102
RTVSPost2010Prop28
280
     0
102
RTVSPost2010PropOp28
 70
     1
102
RTVSPost2010Prop29
280
     1
102
RTVSPost2010PropOp29
 70
     1
102
RTVSPost2010Prop30
280
     1
102
RTVSPost2010PropOp30
 70
     1
102
RTVSPost2010Prop31
280
     0
102
RTVSPost2010PropOp31
 70
     1
102
RTVSPost2010Prop32
280
     0
102
RTVSPost2010PropOp32
 70
     1
102
RTVSPost2010Prop33
280
     0
102
RTVSPost2010PropOp33
 70
     1
102
RTVSPost2010Prop34
280
     0
102
RTVSPost2010PropOp34
 70
     1
102
RTVSPost2010Prop35
280
     0
102
RTVSPost2010PropOp35
 70
     1
102
RTVSPost2010Prop36
280
     0
102
RTVSPost2010PropOp36
 70
     1
102
RTVSPost2010Prop37
 90
       50
102
RTVSPost2010PropOp37
 70
     1
102
RTVSPost2010Prop38
140
0.0
102
RTVSPost2010PropOp38
 70
     1
102
RTVSPost2010Prop39
140
1.0
102
RTVSPost2010PropOp39
 70
     1
102
RTVSPost2010Prop40
 90
        0
102
RTVSPost2010PropOp40
 70
     1
102
RTVSPost2010Prop41ColorIndex
 90
       18
102
RTVSPost2010Prop41ColorRGB
 90
        0
102
RTVSPost2010PropOp41
 70
     1
102
RTVSPost2010Prop42
 90
       50
102
RTVSPost2010PropOp42
 70
     1
102
RTVSPost2010Prop43
 90
        3
102
RTVSPost2010PropOp43
 70
     1
102
RTVSPost2010Prop44ColorIndex
 90
        5
102
RTVSPost2010Prop44ColorRGB
 90
      255
102
RTVSPost2010PropOp44
 70
     1
102
RTVSPost2010Prop45
280
     0
102
RTVSPost2010PropOp45
 70
     1
102
RTVSPost2010Prop46
 90
       50
102
RTVSPost2010PropOp46
 70
     1
102
RTVSPost2010Prop47
 90
       50
102
RTVSPost2010PropOp47
 70
     1
102
RTVSPost2010Prop48
 90
       50
102
RTVSPost2010PropOp48
 70
     1
102
RTVSPost2010Prop49
280
     0
102
RTVSPost2010PropOp49
 70
     1
102
RTVSPost2010Prop50
 90
       50
102
RTVSPost2010PropOp50
 70
     1
102
RTVSPost2010Prop51ColorIndex
 90
      256
102
RTVSPost2010Prop51ColorRGB
 90
-16777216
102
RTVSPost2010PropOp51
 70
     0
102
RTVSPost2010Prop52
140
1.0
102
RTVSPost2010PropOp52
 70
     0
102
RTVSPost2010Prop53
 90
        2
102
RTVSPost2010PropOp53
 70
     1
102
RTVSPost2010Prop54
  1
strokes_ogs.tif
102
RTVSPost2010PropOp54
 70
     1
102
RTVSPost2010Prop55
280
     0
102
RTVSPost2010PropOp55
 70
     1
102
RTVSPost2010Prop56
140
1.0
102
RTVSPost2010PropOp56
 70
     1
102
RTVSPost2010Prop57
140
1.0
102
RTVSPost2010PropOp57
 70
     1
  0
XRECORD
  5
137
102
{ACAD_REACTORS
330
136
102
}
330
136
100
AcDbXrecord
280
     1
102
RTVSPost2010Prop28
280
     0
102
RTVSPost2010PropOp28
 70
     0
102
RTVSPost2010Prop29
280
     1
102
RTVSPost2010PropOp29
 70
     0
102
RTVSPost2010Prop30
280
     1
102
RTVSPost2010PropOp30
 70
     0
102
RTVSPost2010Prop31
280
     0
102
RTVSPost2010PropOp31
 70
     0
102
RTVSPost2010Prop32
280
     0
102
RTVSPost2010PropOp32
 70
     0
102
RTVSPost2010Prop33
280
     0
102
RTVSPost2010PropOp33
 70
     0
102
RTVSPost2010Prop34
280
     0
102
RTVSPost2010PropOp34
 70
     0
102
RTVSPost2010Prop35
280
     0
102
RTVSPost2010PropOp35
 70
     0
102
RTVSPost2010Prop36
280
     0
102
RTVSPost2010PropOp36
 70
     0
102
RTVSPost2010Prop37
 90
       50
102
RTVSPost2010PropOp37
 70
     0
102
RTVSPost2010Prop38
140
0.0
102
RTVSPost2010PropOp38
 70
     0
102
RTVSPost2010Prop39
140
1.0
102
RTVSPost2010PropOp39
 70
     0
102
RTVSPost2010Prop40
 90
        0
102
RTVSPost2010PropOp40
 70
     0
102
RTVSPost2010Prop41ColorIndex
 90
       18
102
RTVSPost2010Prop41ColorRGB
 90
        0
102
RTVSPost2010PropOp41
 70
     0
102
RTVSPost2010Prop42
 90
       50
102
RTVSPost2010PropOp42
 70
     0
102
RTVSPost2010Prop43
 90
        3
102
RTVSPost2010PropOp43
 70
     0
102
RTVSPost2010Prop44ColorIndex
 90
        5
102
RTVSPost2010Prop44ColorRGB
 90
      255
102
RTVSPost2010PropOp44
 70
     0
102
RTVSPost2010Prop45
280
     0
102
RTVSPost2010PropOp45
 70
     0
102
RTVSPost2010Prop46
 90
       50
102
RTVSPost2010PropOp46
 70
     0
102
RTVSPost2010Prop47
 90
       50
102
RTVSPost2010PropOp47
 70
     0
102
RTVSPost2010Prop48
 90
       50
102
RTVSPost2010PropOp48
 70
     0
102
RTVSPost2010Prop49
280
     0
102
RTVSPost2010PropOp49
 70
     0
102
RTVSPost2010Prop50
 90
       50
102
RTVSPost2010PropOp50
 70
     0
102
RTVSPost2010Prop51ColorIndex
 90
      256
102
RTVSPost2010Prop51ColorRGB
 90
-16777216
102
RTVSPost2010PropOp51
 70
     0
102
RTVSPost2010Prop52
140
1.0
102
RTVSPost2010PropOp52
 70
     0
102
RTVSPost2010Prop53
 90
        2
102
RTVSPost2010PropOp53
 70
     0
102
RTVSPost2010Prop54
  1
strokes_ogs.tif
102
RTVSPost2010PropOp54
 70
     0
102
RTVSPost2010Prop55
280
     0
102
RTVSPost2010PropOp55
 70
     0
102
RTVSPost2010Prop56
140
1.0
102
RTVSPost2010PropOp56
 70
     0
102
RTVSPost2010Prop57
140
1.0
102
RTVSPost2010PropOp57
 70
     0
  0
XRECORD
  5
127
102
{ACAD_REACTORS
330
126
102
}
330
126
100
AcDbXrecord
280
     1
102
RTVSPost2010Prop28
280
     0
102
RTVSPost2010PropOp28
 70
     1
102
RTVSPost2010Prop29
280
     1
102
RTVSPost2010PropOp29
 70
     1
102
RTVSPost2010Prop30
280
     1
102
RTVSPost2010PropOp30
 70
     1
102
RTVSPost2010Prop31
280
     0
102
RTVSPost2010PropOp31
 70
     1
102
RTVSPost2010Prop32
280
     0
102
RTVSPost2010PropOp32
 70
     1
102
RTVSPost2010Prop33
280
     0
102
RTVSPost2010PropOp33
 70
     1
102
RTVSPost2010Prop34
280
     0
102
RTVSPost2010PropOp34
 70
     1
102
RTVSPost2010Prop35
280
     0
102
RTVSPost2010PropOp35
 70
     1
102
RTVSPost2010Prop36
280
     0
102
RTVSPost2010PropOp36
 70
     1
102
RTVSPost2010Prop37
 90
       50
102
RTVSPost2010PropOp37
 70
     1
102
RTVSPost2010Prop38
140
0.0
102
RTVSPost2010PropOp38
 70
     1
102
RTVSPost2010Prop39
140
1.0
102
RTVSPost2010PropOp39
 70
     1
102
RTVSPost2010Prop40
 90
        0
102
RTVSPost2010PropOp40
 70
     1
102
RTVSPost2010Prop41ColorIndex
 90
       18
102
RTVSPost2010Prop41ColorRGB
 90
        0
102
RTVSPost2010PropOp41
 70
     1
102
RTVSPost2010Prop42
 90
       50
102
RTVSPost2010PropOp42
 70
     1
102
RTVSPost2010Prop43
 90
        3
102
RTVSPost2010PropOp43
 70
     1
102
RTVSPost2010Prop44ColorIndex
 90
        5
102
RTVSPost2010Prop44ColorRGB
 90
      255
102
RTVSPost2010PropOp44
 70
     1
102
RTVSPost2010Prop45
280
     0
102
RTVSPost2010PropOp45
 70
     1
102
RTVSPost2010Prop46
 90
       50
102
RTVSPost2010PropOp46
 70
     1
102
RTVSPost2010Prop47
 90
       50
102
RTVSPost2010PropOp47
 70
     1
102
RTVSPost2010Prop48
 90
       50
102
RTVSPost2010PropOp48
 70
     1
102
RTVSPost2010Prop49
280
     0
102
RTVSPost2010PropOp49
 70
     1
102
RTVSPost2010Prop50
 90
       50
102
RTVSPost2010PropOp50
 70
     1
102
RTVSPost2010Prop51ColorIndex
 90
      256
102
RTVSPost2010Prop51ColorRGB
 90
-16777216
102
RTVSPost2010PropOp51
 70
     0
102
RTVSPost2010Prop52
140
1.0
102
RTVSPost2010PropOp52
 70
     0
102
RTVSPost2010Prop53
 90
        2
102
RTVSPost2010PropOp53
 70
     1
102
RTVSPost2010Prop54
  1
strokes_ogs.tif
102
RTVSPost2010PropOp54
 70
     1
102
RTVSPost2010Prop55
280
     0
102
RTVSPost2010PropOp55
 70
     1
102
RTVSPost2010Prop56
140
1.0
102
RTVSPost2010PropOp56
 70
     1
102
RTVSPost2010Prop57
140
1.0
102
RTVSPost2010PropOp57
 70
     1
  0
XRECORD
  5
139
102
{ACAD_REACTORS
330
138
102
}
330
138
100
AcDbXrecord
280
     1
102
RTVSPost2010Prop28
280
     0
102
RTVSPost2010PropOp28
 70
     0
102
RTVSPost2010Prop29
280
     1
102
RTVSPost2010PropOp29
 70
     0
102
RTVSPost2010Prop30
280
     1
102
RTVSPost2010PropOp30
 70
     0
102
RTVSPost2010Prop31
280
     0
102
RTVSPost2010PropOp31
 70
     0
102
RTVSPost2010Prop32
280
     0
102
RTVSPost2010PropOp32
 70
     0
102
RTVSPost2010Prop33
280
     0
102
RTVSPost2010PropOp33
 70
     0
102
RTVSPost2010Prop34
280
     0
102
RTVSPost2010PropOp34
 70
     0
102
RTVSPost2010Prop35
280
     0
102
RTVSPost2010PropOp35
 70
     0
102
RTVSPost2010Prop36
280
     0
102
RTVSPost2010PropOp36
 70
     0
102
RTVSPost2010Prop37
 90
       50
102
RTVSPost2010PropOp37
 70
     0
102
RTVSPost2010Prop38
140
0.0
102
RTVSPost2010PropOp38
 70
     0
102
RTVSPost2010Prop39
140
1.0
102
RTVSPost2010PropOp39
 70
     0
102
RTVSPost2010Prop40
 90
        0
102
RTVSPost2010PropOp40
 70
     0
102
RTVSPost2010Prop41ColorIndex
 90
       18
102
RTVSPost2010Prop41ColorRGB
 90
        0
102
RTVSPost2010PropOp41
 70
     0
102
RTVSPost2010Prop42
 90
       50
102
RTVSPost2010PropOp42
 70
     0
102
RTVSPost2010Prop43
 90
        3
102
RTVSPost2010PropOp43
 70
     0
102
RTVSPost2010Prop44ColorIndex
 90
        5
102
RTVSPost2010Prop44ColorRGB
 90
      255
102
RTVSPost2010PropOp44
 70
     0
102
RTVSPost2010Prop45
280
     0
102
RTVSPost2010PropOp45
 70
     0
102
RTVSPost2010Prop46
 90
       50
102
RTVSPost2010PropOp46
 70
     0
102
RTVSPost2010Prop47
 90
       50
102
RTVSPost2010PropOp47
 70
     0
102
RTVSPost2010Prop48
 90
       50
102
RTVSPost2010PropOp48
 70
     0
102
RTVSPost2010Prop49
280
     0
102
RTVSPost2010PropOp49
 70
     0
102
RTVSPost2010Prop50
 90
       50
102
RTVSPost2010PropOp50
 70
     0
102
RTVSPost2010Prop51ColorIndex
 90
      256
102
RTVSPost2010Prop51ColorRGB
 90
-16777216
102
RTVSPost2010PropOp51
 70
     0
102
RTVSPost2010Prop52
140
1.0
102
RTVSPost2010PropOp52
 70
     0
102
RTVSPost2010Prop53
 90
        2
102
RTVSPost2010PropOp53
 70
     0
102
RTVSPost2010Prop54
  1
strokes_ogs.tif
102
RTVSPost2010PropOp54
 70
     0
102
RTVSPost2010Prop55
280
     0
102
RTVSPost2010PropOp55
 70
     0
102
RTVSPost2010Prop56
140
1.0
102
RTVSPost2010PropOp56
 70
     0
102
RTVSPost2010Prop57
140
1.0
102
RTVSPost2010PropOp57
 70
     0
  0
XRECORD
  5
11F
102
{ACAD_REACTORS
330
11E
102
}
330
11E
100
AcDbXrecord
280
     1
102
RTVSPost2010Prop28
280
     0
102
RTVSPost2010PropOp28
 70
     1
102
RTVSPost2010Prop29
280
     1
102
RTVSPost2010PropOp29
 70
     1
102
RTVSPost2010Prop30
280
     1
102
RTVSPost2010PropOp30
 70
     1
102
RTVSPost2010Prop31
280
     0
102
RTVSPost2010PropOp31
 70
     1
102
RTVSPost2010Prop32
280
     0
102
RTVSPost2010PropOp32
 70
     1
102
RTVSPost2010Prop33
280
     0
102
RTVSPost2010PropOp33
 70
     1
102
RTVSPost2010Prop34
280
     0
102
RTVSPost2010PropOp34
 70
     1
102
RTVSPost2010Prop35
280
     0
102
RTVSPost2010PropOp35
 70
     1
102
RTVSPost2010Prop36
280
     0
102
RTVSPost2010PropOp36
 70
     1
102
RTVSPost2010Prop37
 90
       50
102
RTVSPost2010PropOp37
 70
     1
102
RTVSPost2010Prop38
140
0.0
102
RTVSPost2010PropOp38
 70
     1
102
RTVSPost2010Prop39
140
1.0
102
RTVSPost2010PropOp39
 70
     1
102
RTVSPost2010Prop40
 90
        0
102
RTVSPost2010PropOp40
 70
     1
102
RTVSPost2010Prop41ColorIndex
 90
       18
102
RTVSPost2010Prop41ColorRGB
 90
        0
102
RTVSPost2010PropOp41
 70
     1
102
RTVSPost2010Prop42
 90
       50
102
RTVSPost2010PropOp42
 70
     1
102
RTVSPost2010Prop43
 90
        3
102
RTVSPost2010PropOp43
 70
     1
102
RTVSPost2010Prop44ColorIndex
 90
        5
102
RTVSPost2010Prop44ColorRGB
 90
      255
102
RTVSPost2010PropOp44
 70
     1
102
RTVSPost2010Prop45
280
     0
102
RTVSPost2010PropOp45
 70
     1
102
RTVSPost2010Prop46
 90
       50
102
RTVSPost2010PropOp46
 70
     1
102
RTVSPost2010Prop47
 90
       50
102
RTVSPost2010PropOp47
 70
     1
102
RTVSPost2010Prop48
 90
       50
102
RTVSPost2010PropOp48
 70
     1
102
RTVSPost2010Prop49
280
     0
102
RTVSPost2010PropOp49
 70
     1
102
RTVSPost2010Prop50
 90
       50
102
RTVSPost2010PropOp50
 70
     1
102
RTVSPost2010Prop51ColorIndex
 90
      256
102
RTVSPost2010Prop51ColorRGB
 90
-16777216
102
RTVSPost2010PropOp51
 70
     0
102
RTVSPost2010Prop52
140
1.0
102
RTVSPost2010PropOp52
 70
     0
102
RTVSPost2010Prop53
 90
        2
102
RTVSPost2010PropOp53
 70
     1
102
RTVSPost2010Prop54
  1
strokes_ogs.tif
102
RTVSPost2010PropOp54
 70
     1
102
RTVSPost2010Prop55
280
     0
102
RTVSPost2010PropOp55
 70
     1
102
RTVSPost2010Prop56
140
1.0
102
RTVSPost2010PropOp56
 70
     1
102
RTVSPost2010Prop57
140
1.0
102
RTVSPost2010PropOp57
 70
     1
  0
XRECORD
  5
135
102
{ACAD_REACTORS
330
134
102
}
330
134
100
AcDbXrecord
280
     1
102
RTVSPost2010Prop28
280
     0
102
RTVSPost2010PropOp28
 70
     1
102
RTVSPost2010Prop29
280
     1
102
RTVSPost2010PropOp29
 70
     1
102
RTVSPost2010Prop30
280
     1
102
RTVSPost2010PropOp30
 70
     1
102
RTVSPost2010Prop31
280
     0
102
RTVSPost2010PropOp31
 70
     1
102
RTVSPost2010Prop32
280
     0
102
RTVSPost2010PropOp32
 70
     1
102
RTVSPost2010Prop33
280
     0
102
RTVSPost2010PropOp33
 70
     1
102
RTVSPost2010Prop34
280
     0
102
RTVSPost2010PropOp34
 70
     1
102
RTVSPost2010Prop35
280
     0
102
RTVSPost2010PropOp35
 70
     1
102
RTVSPost2010Prop36
280
     0
102
RTVSPost2010PropOp36
 70
     1
102
RTVSPost2010Prop37
 90
       50
102
RTVSPost2010PropOp37
 70
     1
102
RTVSPost2010Prop38
140
0.0
102
RTVSPost2010PropOp38
 70
     1
102
RTVSPost2010Prop39
140
1.0
102
RTVSPost2010PropOp39
 70
     1
102
RTVSPost2010Prop40
 90
        0
102
RTVSPost2010PropOp40
 70
     1
102
RTVSPost2010Prop41ColorIndex
 90
       18
102
RTVSPost2010Prop41ColorRGB
 90
        0
102
RTVSPost2010PropOp41
 70
     1
102
RTVSPost2010Prop42
 90
       50
102
RTVSPost2010PropOp42
 70
     1
102
RTVSPost2010Prop43
 90
        3
102
RTVSPost2010PropOp43
 70
     1
102
RTVSPost2010Prop44ColorIndex
 90
        5
102
RTVSPost2010Prop44ColorRGB
 90
      255
102
RTVSPost2010PropOp44
 70
     1
102
RTVSPost2010Prop45
280
     0
102
RTVSPost2010PropOp45
 70
     1
102
RTVSPost2010Prop46
 90
       50
102
RTVSPost2010PropOp46
 70
     1
102
RTVSPost2010Prop47
 90
       50
102
RTVSPost2010PropOp47
 70
     1
102
RTVSPost2010Prop48
 90
       50
102
RTVSPost2010PropOp48
 70
     1
102
RTVSPost2010Prop49
280
     0
102
RTVSPost2010PropOp49
 70
     1
102
RTVSPost2010Prop50
 90
       50
102
RTVSPost2010PropOp50
 70
     1
102
RTVSPost2010Prop51ColorIndex
 90
      256
102
RTVSPost2010Prop51ColorRGB
 90
-16777216
102
RTVSPost2010PropOp51
 70
     0
102
RTVSPost2010Prop52
140
1.0
102
RTVSPost2010PropOp52
 70
     0
102
RTVSPost2010Prop53
 90
        2
102
RTVSPost2010PropOp53
 70
     1
102
RTVSPost2010Prop54
  1
strokes_ogs.tif
102
RTVSPost2010PropOp54
 70
     1
102
RTVSPost2010Prop55
280
     0
102
RTVSPost2010PropOp55
 70
     1
102
RTVSPost2010Prop56
140
1.0
102
RTVSPost2010PropOp56
 70
     1
102
RTVSPost2010Prop57
140
1.0
102
RTVSPost2010PropOp57
 70
     1
  0
XRECORD
  5
133
102
{ACAD_REACTORS
330
132
102
}
330
132
100
AcDbXrecord
280
     1
102
RTVSPost2010Prop28
280
     0
102
RTVSPost2010PropOp28
 70
     1
102
RTVSPost2010Prop29
280
     1
102
RTVSPost2010PropOp29
 70
     1
102
RTVSPost2010Prop30
280
     1
102
RTVSPost2010PropOp30
 70
     1
102
RTVSPost2010Prop31
280
     0
102
RTVSPost2010PropOp31
 70
     1
102
RTVSPost2010Prop32
280
     0
102
RTVSPost2010PropOp32
 70
     1
102
RTVSPost2010Prop33
280
     0
102
RTVSPost2010PropOp33
 70
     1
102
RTVSPost2010Prop34
280
     0
102
RTVSPost2010PropOp34
 70
     1
102
RTVSPost2010Prop35
280
     0
102
RTVSPost2010PropOp35
 70
     1
102
RTVSPost2010Prop36
280
     0
102
RTVSPost2010PropOp36
 70
     1
102
RTVSPost2010Prop37
 90
       50
102
RTVSPost2010PropOp37
 70
     1
102
RTVSPost2010Prop38
140
0.0
102
RTVSPost2010PropOp38
 70
     1
102
RTVSPost2010Prop39
140
1.0
102
RTVSPost2010PropOp39
 70
     1
102
RTVSPost2010Prop40
 90
        0
102
RTVSPost2010PropOp40
 70
     1
102
RTVSPost2010Prop41ColorIndex
 90
       18
102
RTVSPost2010Prop41ColorRGB
 90
        0
102
RTVSPost2010PropOp41
 70
     1
102
RTVSPost2010Prop42
 90
       50
102
RTVSPost2010PropOp42
 70
     1
102
RTVSPost2010Prop43
 90
        3
102
RTVSPost2010PropOp43
 70
     1
102
RTVSPost2010Prop44ColorIndex
 90
        5
102
RTVSPost2010Prop44ColorRGB
 90
      255
102
RTVSPost2010PropOp44
 70
     1
102
RTVSPost2010Prop45
280
     0
102
RTVSPost2010PropOp45
 70
     1
102
RTVSPost2010Prop46
 90
       50
102
RTVSPost2010PropOp46
 70
     1
102
RTVSPost2010Prop47
 90
       50
102
RTVSPost2010PropOp47
 70
     1
102
RTVSPost2010Prop48
 90
       50
102
RTVSPost2010PropOp48
 70
     1
102
RTVSPost2010Prop49
280
     0
102
RTVSPost2010PropOp49
 70
     1
102
RTVSPost2010Prop50
 90
       50
102
RTVSPost2010PropOp50
 70
     1
102
RTVSPost2010Prop51ColorIndex
 90
      256
102
RTVSPost2010Prop51ColorRGB
 90
-16777216
102
RTVSPost2010PropOp51
 70
     0
102
RTVSPost2010Prop52
140
1.0
102
RTVSPost2010PropOp52
 70
     0
102
RTVSPost2010Prop53
 90
        2
102
RTVSPost2010PropOp53
 70
     1
102
RTVSPost2010Prop54
  1
strokes_ogs.tif
102
RTVSPost2010PropOp54
 70
     1
102
RTVSPost2010Prop55
280
     0
102
RTVSPost2010PropOp55
 70
     1
102
RTVSPost2010Prop56
140
1.0
102
RTVSPost2010PropOp56
 70
     1
102
RTVSPost2010Prop57
140
1.0
102
RTVSPost2010PropOp57
 70
     1
  0
XRECORD
  5
12D
102
{ACAD_REACTORS
330
12C
102
}
330
12C
100
AcDbXrecord
280
     1
102
RTVSPost2010Prop28
280
     0
102
RTVSPost2010PropOp28
 70
     1
102
RTVSPost2010Prop29
280
     1
102
RTVSPost2010PropOp29
 70
     1
102
RTVSPost2010Prop30
280
     1
102
RTVSPost2010PropOp30
 70
     1
102
RTVSPost2010Prop31
280
     0
102
RTVSPost2010PropOp31
 70
     1
102
RTVSPost2010Prop32
280
     0
102
RTVSPost2010PropOp32
 70
     1
102
RTVSPost2010Prop33
280
     0
102
RTVSPost2010PropOp33
 70
     1
102
RTVSPost2010Prop34
280
     0
102
RTVSPost2010PropOp34
 70
     1
102
RTVSPost2010Prop35
280
     0
102
RTVSPost2010PropOp35
 70
     1
102
RTVSPost2010Prop36
280
     0
102
RTVSPost2010PropOp36
 70
     1
102
RTVSPost2010Prop37
 90
       50
102
RTVSPost2010PropOp37
 70
     1
102
RTVSPost2010Prop38
140
0.0
102
RTVSPost2010PropOp38
 70
     1
102
RTVSPost2010Prop39
140
1.0
102
RTVSPost2010PropOp39
 70
     1
102
RTVSPost2010Prop40
 90
        0
102
RTVSPost2010PropOp40
 70
     1
102
RTVSPost2010Prop41ColorIndex
 90
       18
102
RTVSPost2010Prop41ColorRGB
 90
        0
102
RTVSPost2010PropOp41
 70
     1
102
RTVSPost2010Prop42
 90
       50
102
RTVSPost2010PropOp42
 70
     1
102
RTVSPost2010Prop43
 90
        3
102
RTVSPost2010PropOp43
 70
     1
102
RTVSPost2010Prop44ColorIndex
 90
        5
102
RTVSPost2010Prop44ColorRGB
 90
      255
102
RTVSPost2010PropOp44
 70
     1
102
RTVSPost2010Prop45
280
     0
102
RTVSPost2010PropOp45
 70
     1
102
RTVSPost2010Prop46
 90
       50
102
RTVSPost2010PropOp46
 70
     1
102
RTVSPost2010Prop47
 90
       50
102
RTVSPost2010PropOp47
 70
     1
102
RTVSPost2010Prop48
 90
       50
102
RTVSPost2010PropOp48
 70
     1
102
RTVSPost2010Prop49
280
     0
102
RTVSPost2010PropOp49
 70
     1
102
RTVSPost2010Prop50
 90
       50
102
RTVSPost2010PropOp50
 70
     1
102
RTVSPost2010Prop51ColorIndex
 90
      256
102
RTVSPost2010Prop51ColorRGB
 90
-16777216
102
RTVSPost2010PropOp51
 70
     0
102
RTVSPost2010Prop52
140
1.0
102
RTVSPost2010PropOp52
 70
     0
102
RTVSPost2010Prop53
 90
        2
102
RTVSPost2010PropOp53
 70
     1
102
RTVSPost2010Prop54
  1
strokes_ogs.tif
102
RTVSPost2010PropOp54
 70
     1
102
RTVSPost2010Prop55
280
     0
102
RTVSPost2010PropOp55
 70
     1
102
RTVSPost2010Prop56
140
1.0
102
RTVSPost2010PropOp56
 70
     1
102
RTVSPost2010Prop57
140
1.0
102
RTVSPost2010PropOp57
 70
     1
  0
XRECORD
  5
12F
102
{ACAD_REACTORS
330
12E
102
}
330
12E
100
AcDbXrecord
280
     1
102
RTVSPost2010Prop28
280
     0
102
RTVSPost2010PropOp28
 70
     1
102
RTVSPost2010Prop29
280
     1
102
RTVSPost2010PropOp29
 70
     1
102
RTVSPost2010Prop30
280
     1
102
RTVSPost2010PropOp30
 70
     1
102
RTVSPost2010Prop31
280
     0
102
RTVSPost2010PropOp31
 70
     1
102
RTVSPost2010Prop32
280
     0
102
RTVSPost2010PropOp32
 70
     1
102
RTVSPost2010Prop33
280
     0
102
RTVSPost2010PropOp33
 70
     1
102
RTVSPost2010Prop34
280
     0
102
RTVSPost2010PropOp34
 70
     1
102
RTVSPost2010Prop35
280
     0
102
RTVSPost2010PropOp35
 70
     1
102
RTVSPost2010Prop36
280
     0
102
RTVSPost2010PropOp36
 70
     1
102
RTVSPost2010Prop37
 90
       50
102
RTVSPost2010PropOp37
 70
     1
102
RTVSPost2010Prop38
140
0.0
102
RTVSPost2010PropOp38
 70
     1
102
RTVSPost2010Prop39
140
1.0
102
RTVSPost2010PropOp39
 70
     1
102
RTVSPost2010Prop40
 90
        0
102
RTVSPost2010PropOp40
 70
     1
102
RTVSPost2010Prop41ColorIndex
 90
       18
102
RTVSPost2010Prop41ColorRGB
 90
        0
102
RTVSPost2010PropOp41
 70
     1
102
RTVSPost2010Prop42
 90
       50
102
RTVSPost2010PropOp42
 70
     1
102
RTVSPost2010Prop43
 90
        3
102
RTVSPost2010PropOp43
 70
     1
102
RTVSPost2010Prop44ColorIndex
 90
        5
102
RTVSPost2010Prop44ColorRGB
 90
      255
102
RTVSPost2010PropOp44
 70
     1
102
RTVSPost2010Prop45
280
     0
102
RTVSPost2010PropOp45
 70
     1
102
RTVSPost2010Prop46
 90
       50
102
RTVSPost2010PropOp46
 70
     1
102
RTVSPost2010Prop47
 90
       50
102
RTVSPost2010PropOp47
 70
     1
102
RTVSPost2010Prop48
 90
       50
102
RTVSPost2010PropOp48
 70
     1
102
RTVSPost2010Prop49
280
     0
102
RTVSPost2010PropOp49
 70
     1
102
RTVSPost2010Prop50
 90
       50
102
RTVSPost2010PropOp50
 70
     1
102
RTVSPost2010Prop51ColorIndex
 90
      256
102
RTVSPost2010Prop51ColorRGB
 90
-16777216
102
RTVSPost2010PropOp51
 70
     0
102
RTVSPost2010Prop52
140
1.0
102
RTVSPost2010PropOp52
 70
     0
102
RTVSPost2010Prop53
 90
        2
102
RTVSPost2010PropOp53
 70
     1
102
RTVSPost2010Prop54
  1
strokes_ogs.tif
102
RTVSPost2010PropOp54
 70
     1
102
RTVSPost2010Prop55
280
     0
102
RTVSPost2010PropOp55
 70
     1
102
RTVSPost2010Prop56
140
1.0
102
RTVSPost2010PropOp56
 70
     1
102
RTVSPost2010Prop57
140
1.0
102
RTVSPost2010PropOp57
 70
     1
  0
XRECORD
  5
125
102
{ACAD_REACTORS
330
124
102
}
330
124
100
AcDbXrecord
280
     1
102
RTVSPost2010Prop28
280
     0
102
RTVSPost2010PropOp28
 70
     1
102
RTVSPost2010Prop29
280
     1
102
RTVSPost2010PropOp29
 70
     1
102
RTVSPost2010Prop30
280
     1
102
RTVSPost2010PropOp30
 70
     1
102
RTVSPost2010Prop31
280
     0
102
RTVSPost2010PropOp31
 70
     1
102
RTVSPost2010Prop32
280
     0
102
RTVSPost2010PropOp32
 70
     1
102
RTVSPost2010Prop33
280
     0
102
RTVSPost2010PropOp33
 70
     1
102
RTVSPost2010Prop34
280
     0
102
RTVSPost2010PropOp34
 70
     1
102
RTVSPost2010Prop35
280
     0
102
RTVSPost2010PropOp35
 70
     1
102
RTVSPost2010Prop36
280
     0
102
RTVSPost2010PropOp36
 70
     1
102
RTVSPost2010Prop37
 90
       50
102
RTVSPost2010PropOp37
 70
     1
102
RTVSPost2010Prop38
140
0.0
102
RTVSPost2010PropOp38
 70
     1
102
RTVSPost2010Prop39
140
1.0
102
RTVSPost2010PropOp39
 70
     1
102
RTVSPost2010Prop40
 90
        0
102
RTVSPost2010PropOp40
 70
     1
102
RTVSPost2010Prop41ColorIndex
 90
       18
102
RTVSPost2010Prop41ColorRGB
 90
        0
102
RTVSPost2010PropOp41
 70
     1
102
RTVSPost2010Prop42
 90
       50
102
RTVSPost2010PropOp42
 70
     1
102
RTVSPost2010Prop43
 90
        3
102
RTVSPost2010PropOp43
 70
     1
102
RTVSPost2010Prop44ColorIndex
 90
        5
102
RTVSPost2010Prop44ColorRGB
 90
      255
102
RTVSPost2010PropOp44
 70
     1
102
RTVSPost2010Prop45
280
     0
102
RTVSPost2010PropOp45
 70
     1
102
RTVSPost2010Prop46
 90
       50
102
RTVSPost2010PropOp46
 70
     1
102
RTVSPost2010Prop47
 90
       50
102
RTVSPost2010PropOp47
 70
     1
102
RTVSPost2010Prop48
 90
       50
102
RTVSPost2010PropOp48
 70
     1
102
RTVSPost2010Prop49
280
     0
102
RTVSPost2010PropOp49
 70
     1
102
RTVSPost2010Prop50
 90
       50
102
RTVSPost2010PropOp50
 70
     1
102
RTVSPost2010Prop51ColorIndex
 90
      256
102
RTVSPost2010Prop51ColorRGB
 90
-16777216
102
RTVSPost2010PropOp51
 70
     0
102
RTVSPost2010Prop52
140
1.0
102
RTVSPost2010PropOp52
 70
     0
102
RTVSPost2010Prop53
 90
        2
102
RTVSPost2010PropOp53
 70
     1
102
RTVSPost2010Prop54
  1
strokes_ogs.tif
102
RTVSPost2010PropOp54
 70
     1
102
RTVSPost2010Prop55
280
     0
102
RTVSPost2010PropOp55
 70
     1
102
RTVSPost2010Prop56
140
1.0
102
RTVSPost2010PropOp56
 70
     1
102
RTVSPost2010Prop57
140
1.0
102
RTVSPost2010PropOp57
 70
     1
  0
XRECORD
  5
119
102
{ACAD_REACTORS
330
118
102
}
330
118
100
AcDbXrecord
280
     1
102
RTVSPost2010Prop28
280
     0
102
RTVSPost2010PropOp28
 70
     1
102
RTVSPost2010Prop29
280
     1
102
RTVSPost2010PropOp29
 70
     1
102
RTVSPost2010Prop30
280
     1
102
RTVSPost2010PropOp30
 70
     1
102
RTVSPost2010Prop31
280
     0
102
RTVSPost2010PropOp31
 70
     1
102
RTVSPost2010Prop32
280
     0
102
RTVSPost2010PropOp32
 70
     1
102
RTVSPost2010Prop33
280
     0
102
RTVSPost2010PropOp33
 70
     1
102
RTVSPost2010Prop34
280
     0
102
RTVSPost2010PropOp34
 70
     1
102
RTVSPost2010Prop35
280
     0
102
RTVSPost2010PropOp35
 70
     1
102
RTVSPost2010Prop36
280
     0
102
RTVSPost2010PropOp36
 70
     1
102
RTVSPost2010Prop37
 90
       50
102
RTVSPost2010PropOp37
 70
     1
102
RTVSPost2010Prop38
140
0.0
102
RTVSPost2010PropOp38
 70
     1
102
RTVSPost2010Prop39
140
1.0
102
RTVSPost2010PropOp39
 70
     1
102
RTVSPost2010Prop40
 90
        0
102
RTVSPost2010PropOp40
 70
     1
102
RTVSPost2010Prop41ColorIndex
 90
       18
102
RTVSPost2010Prop41ColorRGB
 90
        0
102
RTVSPost2010PropOp41
 70
     1
102
RTVSPost2010Prop42
 90
       50
102
RTVSPost2010PropOp42
 70
     1
102
RTVSPost2010Prop43
 90
        3
102
RTVSPost2010PropOp43
 70
     1
102
RTVSPost2010Prop44ColorIndex
 90
        5
102
RTVSPost2010Prop44ColorRGB
 90
      255
102
RTVSPost2010PropOp44
 70
     1
102
RTVSPost2010Prop45
280
     0
102
RTVSPost2010PropOp45
 70
     1
102
RTVSPost2010Prop46
 90
       50
102
RTVSPost2010PropOp46
 70
     1
102
RTVSPost2010Prop47
 90
       50
102
RTVSPost2010PropOp47
 70
     1
102
RTVSPost2010Prop48
 90
       50
102
RTVSPost2010PropOp48
 70
     1
102
RTVSPost2010Prop49
280
     0
102
RTVSPost2010PropOp49
 70
     1
102
RTVSPost2010Prop50
 90
       50
102
RTVSPost2010PropOp50
 70
     1
102
RTVSPost2010Prop51ColorIndex
 90
      256
102
RTVSPost2010Prop51ColorRGB
 90
-16777216
102
RTVSPost2010PropOp51
 70
     0
102
RTVSPost2010Prop52
140
1.0
102
RTVSPost2010PropOp52
 70
     0
102
RTVSPost2010Prop53
 90
        2
102
RTVSPost2010PropOp53
 70
     1
102
RTVSPost2010Prop54
  1
strokes_ogs.tif
102
RTVSPost2010PropOp54
 70
     1
102
RTVSPost2010Prop55
280
     0
102
RTVSPost2010PropOp55
 70
     1
102
RTVSPost2010Prop56
140
1.0
102
RTVSPost2010PropOp56
 70
     1
102
RTVSPost2010Prop57
140
1.0
102
RTVSPost2010PropOp57
 70
     1
  0
XRECORD
  5
131
102
{ACAD_REACTORS
330
130
102
}
330
130
100
AcDbXrecord
280
     1
102
RTVSPost2010Prop28
280
     0
102
RTVSPost2010PropOp28
 70
     1
102
RTVSPost2010Prop29
280
     1
102
RTVSPost2010PropOp29
 70
     1
102
RTVSPost2010Prop30
280
     1
102
RTVSPost2010PropOp30
 70
     1
102
RTVSPost2010Prop31
280
     0
102
RTVSPost2010PropOp31
 70
     1
102
RTVSPost2010Prop32
280
     0
102
RTVSPost2010PropOp32
 70
     1
102
RTVSPost2010Prop33
280
     0
102
RTVSPost2010PropOp33
 70
     1
102
RTVSPost2010Prop34
280
     0
102
RTVSPost2010PropOp34
 70
     1
102
RTVSPost2010Prop35
280
     0
102
RTVSPost2010PropOp35
 70
     1
102
RTVSPost2010Prop36
280
     0
102
RTVSPost2010PropOp36
 70
     1
102
RTVSPost2010Prop37
 90
       50
102
RTVSPost2010PropOp37
 70
     1
102
RTVSPost2010Prop38
140
0.0
102
RTVSPost2010PropOp38
 70
     1
102
RTVSPost2010Prop39
140
1.0
102
RTVSPost2010PropOp39
 70
     1
102
RTVSPost2010Prop40
 90
        0
102
RTVSPost2010PropOp40
 70
     1
102
RTVSPost2010Prop41ColorIndex
 90
       18
102
RTVSPost2010Prop41ColorRGB
 90
        0
102
RTVSPost2010PropOp41
 70
     1
102
RTVSPost2010Prop42
 90
       50
102
RTVSPost2010PropOp42
 70
     1
102
RTVSPost2010Prop43
 90
        3
102
RTVSPost2010PropOp43
 70
     1
102
RTVSPost2010Prop44ColorIndex
 90
        5
102
RTVSPost2010Prop44ColorRGB
 90
      255
102
RTVSPost2010PropOp44
 70
     1
102
RTVSPost2010Prop45
280
     0
102
RTVSPost2010PropOp45
 70
     1
102
RTVSPost2010Prop46
 90
       50
102
RTVSPost2010PropOp46
 70
     1
102
RTVSPost2010Prop47
 90
       50
102
RTVSPost2010PropOp47
 70
     1
102
RTVSPost2010Prop48
 90
       50
102
RTVSPost2010PropOp48
 70
     1
102
RTVSPost2010Prop49
280
     0
102
RTVSPost2010PropOp49
 70
     1
102
RTVSPost2010Prop50
 90
       50
102
RTVSPost2010PropOp50
 70
     1
102
RTVSPost2010Prop51ColorIndex
 90
      256
102
RTVSPost2010Prop51ColorRGB
 90
-16777216
102
RTVSPost2010PropOp51
 70
     0
102
RTVSPost2010Prop52
140
1.0
102
RTVSPost2010PropOp52
 70
     0
102
RTVSPost2010Prop53
 90
        2
102
RTVSPost2010PropOp53
 70
     1
102
RTVSPost2010Prop54
  1
strokes_ogs.tif
102
RTVSPost2010PropOp54
 70
     1
102
RTVSPost2010Prop55
280
     0
102
RTVSPost2010PropOp55
 70
     1
102
RTVSPost2010Prop56
140
1.0
102
RTVSPost2010PropOp56
 70
     1
102
RTVSPost2010Prop57
140
1.0
102
RTVSPost2010PropOp57
 70
     1
  0
ENDSEC
  0
EOF
